  0
SECTION
  2
HEADER
  9
$ACADVER
  1
AC1015
  9
$ACADMAINTVER
 70
    20
  9
$DWGCODEPAGE
  3
ANSI_932
  9
$INSBASE
 10
0.0
 20
0.0
 30
0.0
  9
$EXTMIN
 10
79.724883768303
 20
6240.967564034465
 30
0.0
  9
$EXTMAX
 10
846.2141161626961
 20
6753.393512476076
 30
0.0
  9
$LIMMIN
 10
0.0
 20
0.0
  9
$LIMMAX
 10
0.0
 20
0.0
  9
$ORTHOMODE
 70
     0
  9
$REGENMODE
 70
     1
  9
$FILLMODE
 70
     1
  9
$QTEXTMODE
 70
     0
  9
$MIRRTEXT
 70
     1
  9
$LTSCALE
 40
1.0
  9
$ATTMODE
 70
     1
  9
$TEXTSIZE
 40
0.0
  9
$TRACEWID
 40
0.05
  9
$TEXTSTYLE
  7
STANDARD
  9
$CLAYER
  8
0
  9
$CELTYPE
  6
CONTINUOUS
  9
$CECOLOR
 62
   256
  9
$CELTSCALE
 40
1.0
  9
$DISPSILH
 70
     0
  9
$DIMSCALE
 40
1.0
  9
$DIMASZ
 40
0.18
  9
$DIMEXO
 40
0.0625
  9
$DIMDLI
 40
0.38
  9
$DIMRND
 40
0.0
  9
$DIMDLE
 40
0.0
  9
$DIMEXE
 40
0.18
  9
$DIMTP
 40
0.0
  9
$DIMTM
 40
0.0
  9
$DIMTXT
 40
0.18
  9
$DIMCEN
 40
0.09
  9
$DIMTSZ
 40
0.0
  9
$DIMTOL
 70
     0
  9
$DIMLIM
 70
     0
  9
$DIMTIH
 70
     1
  9
$DIMTOH
 70
     1
  9
$DIMSE1
 70
     0
  9
$DIMSE2
 70
     0
  9
$DIMTAD
 70
     0
  9
$DIMZIN
 70
     0
  9
$DIMBLK
  1

  9
$DIMASO
 70
     1
  9
$DIMSHO
 70
     1
  9
$DIMPOST
  1

  9
$DIMAPOST
  1

  9
$DIMALT
 70
     0
  9
$DIMALTD
 70
     2
  9
$DIMALTF
 40
25.4
  9
$DIMLFAC
 40
1.0
  9
$DIMTOFL
 70
     0
  9
$DIMTVP
 40
0.0
  9
$DIMTIX
 70
     0
  9
$DIMSOXD
 70
     0
  9
$DIMSAH
 70
     0
  9
$DIMBLK1
  1

  9
$DIMBLK2
  1

  9
$DIMSTYLE
  2
STANDARD
  9
$DIMCLRD
 70
     0
  9
$DIMCLRE
 70
     0
  9
$DIMCLRT
 70
     0
  9
$DIMTFAC
 40
1.0
  9
$DIMGAP
 40
0.09
  9
$DIMJUST
 70
     0
  9
$DIMSD1
 70
     0
  9
$DIMSD2
 70
     0
  9
$DIMTOLJ
 70
     1
  9
$DIMTZIN
 70
     0
  9
$DIMALTZ
 70
     0
  9
$DIMALTTZ
 70
     0
  9
$DIMUPT
 70
     0
  9
$DIMDEC
 70
     4
  9
$DIMTDEC
 70
     4
  9
$DIMALTU
 70
     2
  9
$DIMALTTD
 70
     2
  9
$DIMTXSTY
  7
STANDARD
  9
$DIMAUNIT
 70
     0
  9
$DIMADEC
 70
     0
  9
$DIMALTRND
 40
0.0
  9
$DIMAZIN
 70
     0
  9
$DIMDSEP
 70
    46
  9
$DIMATFIT
 70
     3
  9
$DIMFRAC
 70
     0
  9
$DIMLDRBLK
  1

  9
$DIMLUNIT
 70
     2
  9
$DIMLWD
 70
    -2
  9
$DIMLWE
 70
    -2
  9
$DIMTMOVE
 70
     0
  9
$LUNITS
 70
     2
  9
$LUPREC
 70
     2
  9
$SKETCHINC
 40
0.1
  9
$FILLETRAD
 40
0.0
  9
$AUNITS
 70
     0
  9
$AUPREC
 70
     0
  9
$MENU
  1
acad
  9
$ELEVATION
 40
0.0
  9
$PELEVATION
 40
0.0
  9
$THICKNESS
 40
0.0
  9
$LIMCHECK
 70
     0
  9
$CHAMFERA
 40
0.0
  9
$CHAMFERB
 40
0.0
  9
$CHAMFERC
 40
0.0
  9
$CHAMFERD
 40
0.0
  9
$SKPOLY
 70
     0
  9
$TDCREATE
 40
2305814.417176053
  9
$TDUCREATE
 40
6.0000000000
  9
$TDUPDATE
 40
2458180.580535857
  9
$TDUUPDATE
 40
2458180.205535857
  9
$TDINDWG
 40
0.0002685532
  9
$TDUSRTIMER
 40
0.0002685532
  9
$USRTIMER
 70
     1
  9
$ANGBASE
 50
0.0
  9
$ANGDIR
 70
     0
  9
$PDMODE
 70
     0
  9
$PDSIZE
 40
0.0
  9
$PLINEWID
 40
0.0
  9
$SPLFRAME
 70
     0
  9
$SPLINETYPE
 70
     6
  9
$SPLINESEGS
 70
     8
  9
$HANDSEED
  5
425
  9
$SURFTAB1
 70
     6
  9
$SURFTAB2
 70
     6
  9
$SURFTYPE
 70
     6
  9
$SURFU
 70
     6
  9
$SURFV
 70
     6
  9
$UCSBASE
  2

  9
$UCSNAME
  2

  9
$UCSORG
 10
0.0
 20
0.0
 30
0.0
  9
$UCSXDIR
 10
1.0
 20
0.0
 30
0.0
  9
$UCSYDIR
 10
0.0
 20
1.0
 30
0.0
  9
$UCSORTHOREF
  2

  9
$UCSORTHOVIEW
 70
     0
  9
$UCSORGTOP
 10
0.0
 20
0.0
 30
0.0
  9
$UCSORGBOTTOM
 10
0.0
 20
0.0
 30
0.0
  9
$UCSORGLEFT
 10
0.0
 20
0.0
 30
0.0
  9
$UCSORGRIGHT
 10
0.0
 20
0.0
 30
0.0
  9
$UCSORGFRONT
 10
0.0
 20
0.0
 30
0.0
  9
$UCSORGBACK
 10
0.0
 20
0.0
 30
0.0
  9
$PUCSBASE
  2

  9
$PUCSNAME
  2

  9
$PUCSORG
 10
0.0
 20
0.0
 30
0.0
  9
$PUCSXDIR
 10
1.0
 20
0.0
 30
0.0
  9
$PUCSYDIR
 10
0.0
 20
1.0
 30
0.0
  9
$PUCSORTHOREF
  2

  9
$PUCSORTHOVIEW
 70
     0
  9
$PUCSORGTOP
 10
0.0
 20
0.0
 30
0.0
  9
$PUCSORGBOTTOM
 10
0.0
 20
0.0
 30
0.0
  9
$PUCSORGLEFT
 10
0.0
 20
0.0
 30
0.0
  9
$PUCSORGRIGHT
 10
0.0
 20
0.0
 30
0.0
  9
$PUCSORGFRONT
 10
0.0
 20
0.0
 30
0.0
  9
$PUCSORGBACK
 10
0.0
 20
0.0
 30
0.0
  9
$USERI1
 70
     0
  9
$USERI2
 70
     0
  9
$USERI3
 70
     0
  9
$USERI4
 70
     0
  9
$USERI5
 70
     0
  9
$USERR1
 40
0.0
  9
$USERR2
 40
0.0
  9
$USERR3
 40
0.0
  9
$USERR4
 40
0.0
  9
$USERR5
 40
0.0
  9
$WORLDVIEW
 70
     1
  9
$SHADEDGE
 70
     3
  9
$SHADEDIF
 70
    70
  9
$TILEMODE
 70
     1
  9
$MAXACTVP
 70
    16
  9
$PINSBASE
 10
0.0
 20
0.0
 30
0.0
  9
$PLIMCHECK
 70
     0
  9
$PEXTMIN
 10
1.000000000000000E+20
 20
1.000000000000000E+20
 30
1.000000000000000E+20
  9
$PEXTMAX
 10
-1.000000000000000E+20
 20
-1.000000000000000E+20
 30
-1.000000000000000E+20
  9
$PLIMMIN
 10
0.0
 20
0.0
  9
$PLIMMAX
 10
12.0
 20
9.0
  9
$UNITMODE
 70
     0
  9
$VISRETAIN
 70
     0
  9
$PLINEGEN
 70
     1
  9
$PSLTSCALE
 70
     0
  9
$TREEDEPTH
 70
  3020
  9
$CMLSTYLE
  2
STANDARD
  9
$CMLJUST
 70
     0
  9
$CMLSCALE
 40
1.0
  9
$PROXYGRAPHICS
 70
     0
  9
$MEASUREMENT
 70
     1
  9
$CELWEIGHT
370
    -1
  9
$ENDCAPS
280
     0
  9
$JOINSTYLE
280
     0
  9
$LWDISPLAY
290
     0
  9
$INSUNITS
 70
     0
  9
$HYPERLINKBASE
  1

  9
$STYLESHEET
  1

  9
$XEDIT
290
     1
  9
$CEPSNTYPE
380
     0
  9
$PSTYLEMODE
290
     1
  9
$FINGERPRINTGUID
  2
{A6C9F0BD-5E1A-4B06-8BCC-610DAC18732E}
  9
$VERSIONGUID
  2
{3EE7E398-FEEF-490C-BA24-E6CB6296EA0F}
  9
$EXTNAMES
290
     1
  9
$PSVPSCALE
 40
0.0
  9
$OLESTARTUP
290
     0
  0
ENDSEC
  0
SECTION
  2
CLASSES
  0
CLASS
  1
IMAGE
  2
AcDbRasterImage
  3
ISM
 90
    32895
280
     0
281
     1
  0
CLASS
  1
DICTIONARYVAR
  2
AcDbDictionaryVar
  3
ObjectDBX Classes
 90
        0
280
     0
281
     0
  0
CLASS
  1
RASTERVARIABLES
  2
AcDbRasterVariables
  3
ISM
 90
    32768
280
     0
281
     0
  0
CLASS
  1
IMAGEDEF
  2
AcDbRasterImageDef
  3
ISM
 90
    32768
280
     0
281
     0
  0
CLASS
  1
IMAGEDEF_REACTOR
  2
AcDbRasterImageDefReactor
  3
ISM
 90
    32769
280
     0
281
     0
  0
CLASS
  1
IDBUFFER
  2
AcDbIdBuffer
  3
ObjectDBX Classes
 90
        0
280
     0
281
     0
  0
CLASS
  1
SPATIAL_FILTER
  2
AcDbSpatialFilter
  3
ObjectDBX Classes
 90
    32768
280
     0
281
     0
  0
CLASS
  1
SORTENTSTABLE
  2
AcDbSortentsTable
  3
ObjectDBX Classes
 90
    32768
280
     0
281
     0
  0
CLASS
  1
LAYER_INDEX
  2
AcDbLayerIndex
  3
ObjectDBX Classes
 90
        0
280
     0
281
     0
  0
CLASS
  1
SPATIAL_INDEX
  2
AcDbSpatialIndex
  3
ObjectDBX Classes
 90
    32768
280
     0
281
     0
  0
CLASS
  1
OBJECT_PTR
  2
CAseDLPNTableRecord
  3
ASE-LPNTableRecord
 90
    32769
280
     0
281
     0
  0
CLASS
  1
LAYOUT
  2
AcDbLayout
  3
ObjectDBX Classes
 90
        0
280
     0
281
     0
  0
CLASS
  1
PLOTSETTINGS
  2
AcDbPlotSettings
  3
ObjectDBX Classes
 90
    32768
280
     0
281
     0
  0
CLASS
  1
ACDBDICTIONARYWDFLT
  2
AcDbDictionaryWithDefault
  3
ObjectDBX Classes
 90
        0
280
     0
281
     0
  0
CLASS
  1
ACDBPLACEHOLDER
  2
AcDbPlaceHolder
  3
ObjectDBX Classes
 90
        0
280
     0
281
     0
  0
CLASS
  1
VBA_PROJECT
  2
AcDbVbaProject
  3
acad
 90
    32768
280
     0
281
     0
  0
CLASS
  1
WIPEOUT
  2
AcDbWipeout
  3
"WipeOut|Product Desc: Object Enabler for WipeOut entity^I^I^I^I^I^I|Company: Autodesk, Inc.^I^I^I^I^I^I|WEB Address: www.autodesk.com"
 90
    32895
280
     0
281
     1
  0
CLASS
  1
WIPEOUTVARIABLES
  2
AcDbWipeoutVariables
  3
"WipeOut|Product Desc:     WipeOut Dbx Application|Company:          Autodesk, Inc.|WEB Address:      www.autodesk.com"
 90
    32768
280
     0
281
     0
  0
CLASS
  1
RTEXT
  2
RText
  3
RText|AutoCAD Express Tool|expresstools@autodesk.com
 90
    32768
280
     0
281
     1
  0
CLASS
  1
ARCALIGNEDTEXT
  2
AcDbArcAlignedText
  3
ATEXT|AutoCAD Express Tool|expresstools@autodesk.com
 90
    32768
280
     0
281
     1
  0
CLASS
  1
TABLESTYLE
  2
AcDbTableStyle
  3
ObjectDBX Classes
 90
     2047
280
     0
281
     0
  0
CLASS
  1
AMGSETTINGSOBJ
  2
AmgSettingsObj
  3
"AcadM|Product Description: AutoCAD Mechanical 2000|Company: Autodesk"
 90
        0
280
     0
281
     0
  0
CLASS
  1
ACME_DOCUMENT
  2
AcMeDbDoc
  3
AcMeServices
 90
        0
280
     0
281
     0
  0
CLASS
  1
ACMESCOPE
  2
AcMeScope
  3
AcMeServices
 90
        0
280
     0
281
     0
  0
CLASS
  1
ACMECOMMANDHISTORY
  2
AcMeCommandHistory
  3
AcMeServices
 90
        0
280
     0
281
     0
  0
CLASS
  1
ACIMSYSVARMAN
  2
AcImSysVarManager
  3
AcMeServices
 90
        0
280
     0
281
     0
  0
CLASS
  1
ACIMREALSYSVAR
  2
AcImRealSysVar
  3
AcMeServices
 90
        0
280
     0
281
     0
  0
CLASS
  1
ACIMINTSYSVAR
  2
AcImIntSysVar
  3
AcMeServices
 90
        0
280
     0
281
     0
  0
CLASS
  1
ACMEDRAWINGMAN
  2
AcMeDrawingMan
  3
AcMeServices
 90
        0
280
     0
281
     0
  0
CLASS
  1
ACMEVIEW
  2
AcMeView
  3
AcMeServices
 90
        0
280
     0
281
     0
  0
CLASS
  1
ACDBENTITYCACHE
  2
AcMeEntityCache
  3
AcMeServices
 90
        0
280
     0
281
     0
  0
CLASS
  1
GSMANAGER
  2
AcMeGSManager
  3
AcMeServices
 90
        0
280
     0
281
     0
  0
CLASS
  1
AMDTINTERNALREACTOR
  2
AmdtInternalReactor
  3
AcMeServices
 90
        0
280
     0
281
     0
  0
CLASS
  1
ACMESTATEMGR
  2
AcMeStateMgr
  3
AcMeServices
 90
        0
280
     0
281
     0
  0
CLASS
  1
ACGREFMASTER
  2
AcGrefMaster
  3
AcAttribServices
 90
        0
280
     0
281
     0
  0
CLASS
  1
AM_DRAWING_MGR
  2
AcDmDwgMgr
  3
AcMechDwgViewMgmt
 90
        0
280
     0
281
     0
  0
CLASS
  1
AM_DWG_DOCUMENT
  2
AcDmDwgDocument
  3
AcMechDwgViewMgmt
 90
        0
280
     0
281
     0
  0
CLASS
  1
AM_DWG_SHEET
  2
AcDmSheet
  3
AcMechDwgViewMgmt
 90
        0
280
     0
281
     0
  0
CLASS
  1
AM_VIEWDIMPARMAP
  2
AcDmViewDimParMap
  3
AcMechDwgViewMgmt
 90
        0
280
     0
281
     0
  0
CLASS
  1
AM_DWGMGR_NAME
  2
AcDmDwgMgrName
  3
AcMechDwgViewMgmt
 90
        0
280
     0
281
     0
  0
CLASS
  1
ACME_DATABASE
  2
AcMeDbDatabase
  3
AcMeServices
 90
        0
280
     0
281
     0
  0
CLASS
  1
ACRFINSADJUSTERMGR
  2
AcRfInsAdjusterMgr
  3
AcMeServices
 90
        0
280
     0
281
     0
  0
CLASS
  1
ACGREFACADMASTER
  2
AcGrefacadMaster
  3
AcGrefServices
 90
        0
280
     0
281
     0
  0
CLASS
  1
AMDTMENUSTATEMGR
  2
AmdtMenuStateMgr
  3
McadcomServices
 90
        0
280
     0
281
     0
  0
CLASS
  1
AMDTMCOMMENUSTATE
  2
AmdtMcomMenuState
  3
McadcomServices
 90
        0
280
     0
281
     0
  0
CLASS
  1
AMIMASTER
  2
AmiMaster
  3
AmiServices
 90
        0
280
     0
281
     0
  0
CLASS
  1
ASAPP
  2
AcAsAppObject
  3
AutoSurfServices
 90
        0
280
     0
281
     0
  0
CLASS
  1
IM_STATIC_MAN
  2
AcImStaticVarManager
  3
AcMeServices
 90
        0
280
     0
281
     0
  0
CLASS
  1
ACIMSTRSYSVAR
  2
AcImStrSysVar
  3
AcMeServices
 90
        0
280
     0
281
     0
  0
CLASS
  1
ACIMDBLSTATICVAR
  2
AcImDblStaticVar
  3
AcMeServices
 90
        0
280
     0
281
     0
  0
CLASS
  1
ACIMSTRSTATICVAR
  2
AcImStrStaticVar
  3
AcMeServices
 90
        0
280
     0
281
     0
  0
CLASS
  1
ACIMINTSTATICVAR
  2
AcImIntStaticVar
  3
AcMeServices
 90
        0
280
     0
281
     0
  0
CLASS
  1
ACASGREFMASTER
  2
AcAsGrefMaster
  3
AutoSurfResolverServices
 90
        0
280
     0
281
     0
  0
CLASS
  1
ACADGREFMODULE
  2
AcAdGrefModule
  3
AdGrefServices
 90
        0
280
     0
281
     0
  0
CLASS
  1
AMDTMAPISURFMOUDULE
  2
AmdtMApiSurfModule
  3
MApiSurfServices
 90
        0
280
     0
281
     0
  0
CLASS
  1
MAPIAMMOUDLE
  2
MApiAmModule
  3
MApiAmServices
 90
        0
280
     0
281
     0
  0
CLASS
  1
AMDTADMENUSTATE
  2
AmdtAdMenuState
  3
DesignerServices
 90
        0
280
     0
281
     0
  0
CLASS
  1
ADAPPL
  2
AcAdAppl
  3
DesignerServices
 90
        0
280
     0
281
     0
  0
CLASS
  1
DEPMGR
  2
AcAdDepMgr
  3
DesignerServices
 90
        0
280
     0
281
     0
  0
CLASS
  1
PARAMMGR
  2
AcAdParamMgr
  3
DesignerServices
 90
        0
280
     0
281
     0
  0
CLASS
  1
PARAMSCOPE
  2
AcAdParamScope
  3
DesignerServices
 90
        0
280
     0
281
     0
  0
CLASS
  1
NAMEDAPPL
  2
AcAdNamedAppl
  3
DesignerServices
 90
        0
280
     0
281
     0
  0
CLASS
  1
AMDTDMMENUSTATE
  2
AmdtDmMenuState
  3
AcMechDwgViewMgmt
 90
        0
280
     0
281
     0
  0
CLASS
  1
MAPIADMODULE
  2
MApiAdModule
  3
MApiAdServices
 90
        0
280
     0
281
     0
  0
CLASS
  1
AMDTAMMENUSTATE
  2
AmdtAmMenuState
  3
DesignerAssemblies
 90
        0
280
     0
281
     0
  0
CLASS
  1
ACAMPROJECT
  2
AcAmProject
  3
DesignerAssemblies
 90
        0
280
     0
281
     0
  0
CLASS
  1
ACAMGRCOMPDEF
  2
AcAmGrCompDef
  3
DesignerAssemblies
 90
        0
280
     0
281
     0
  0
CLASS
  1
ACCMCONTEXT
  2
AcCmContext
  3
DesignerAssemblies
 90
        0
280
     0
281
     0
  0
CLASS
  1
ACAMCOMPDEF
  2
AcAmCompDef
  3
DesignerAssemblies
 90
        0
280
     0
281
     0
  0
CLASS
  1
ACAMCOMPDEFMGR
  2
AcAmCompDefMgr
  3
DesignerAssemblies
 90
        0
280
     0
281
     0
  0
CLASS
  1
AMCONTEXTMGR
  2
AcAmContextMgr
  3
DesignerAssemblies
 90
        0
280
     0
281
     0
  0
CLASS
  1
ACAMCONTEXTMODELER
  2
AcAmContextModeler
  3
DesignerAssemblies
 90
        0
280
     0
281
     0
  0
CLASS
  1
ACMDATADICTIONARY
  2
AcmDataDictionary
  3
"AcmSymBB|Product Description: AutoCAD Mechanical 2004 DX|Company: Autodesk"
 90
        0
280
     0
281
     0
  0
CLASS
  1
ACMDATAENTRYBLOCK
  2
AcmDataEntryBlock
  3
"AcmSymBB|Product Description: AutoCAD Mechanical 2004 DX|Company: Autodesk"
 90
        0
280
     0
281
     0
  0
CLASS
  1
CATALOGSTATE
  2
AcAmCatalogState
  3
DesignerAssemblies
 90
        0
280
     0
281
     0
  0
CLASS
  1
ACAMGRCOMPDEFSET
  2
AcAmGrCompDefSet
  3
DesignerAssemblies
 90
        0
280
     0
281
     0
  0
CLASS
  1
AMDTBROWSERDBTAB
  2
AmdtBrowserDbTab
  3
McadcomServices
 90
        0
280
     0
281
     0
  0
CLASS
  1
CBROWSERAPPOBJECT
  2
CBrowserAppObject
  3
McadcomServices
 90
        0
280
     0
281
     0
  0
CLASS
  1
DM_PLACEHOLDER
  2
AcDmSelsetPlaceholder
  3
AcMechDwgViewMgmt
 90
        0
280
     0
281
     0
  0
CLASS
  1
ACMSTANDARDISO
  2
AcmStandardISO
  3
"Amdt_StdImp|Product Description: AutoCAD Mechanical 2004 DX|Company: Autodesk"
 90
        0
280
     0
281
     0
  0
CLASS
  1
AMGOBJPROPCFG
  2
AmgObjPropCfg
  3
"AmgLay|Product Description: AutoCAD Mechanical 2000|Company: Autodesk"
 90
        1
280
     0
281
     0
  0
CLASS
  1
AMDTEDGESTANDARDISO13715
  2
AmdtEdgeStdISO13715
  3
"Amdt_StdImp|Product Description: AutoCAD Mechanical 2004 DX|Company: Autodesk"
 90
        0
280
     0
281
     0
  0
CLASS
  1
ACMSURFSTANDARDISO
  2
AcmSurfTextStdISO
  3
"Amdt_StdImp|Product Description: AutoCAD Mechanical 2004 DX|Company: Autodesk"
 90
        0
280
     0
281
     0
  0
CLASS
  1
ACMFCFSTANDARDISO
  2
AcmFCFStdISO
  3
"Amdt_StdImp|Product Description: AutoCAD Mechanical 2004 DX|Company: Autodesk"
 90
        0
280
     0
281
     0
  0
CLASS
  1
ACMWELDSTANDARDISO
  2
AcmWeldingStdISO
  3
"Amdt_StdImp|Product Description: AutoCAD Mechanical 2004 DX|Company: Autodesk"
 90
        0
280
     0
281
     0
  0
CLASS
  1
ACMIDSTANDARDISO
  2
AcmIdStdISO
  3
"Amdt_StdImp|Product Description: AutoCAD Mechanical 2004 DX|Company: Autodesk"
 90
        0
280
     0
281
     0
  0
CLASS
  1
ACMDATUMSTANDARDISO
  2
AcmDatumStdISO
  3
"Amdt_StdImp|Product Description: AutoCAD Mechanical 2004 DX|Company: Autodesk"
 90
        0
280
     0
281
     0
  0
CLASS
  1
ACMBOMSTANDARDISO
  2
AcmBOMStdISO
  3
"Amdt_StdImp|Product Description: AutoCAD Mechanical 2004 DX|Company: Autodesk"
 90
        0
280
     0
281
     0
  0
CLASS
  1
ACMDETAILSTANDARDISO
  2
AmdtDetailSymStdISO
  3
"Amdt_StdImp|Product Description: AutoCAD Mechanical 2004 DX|Company: Autodesk"
 90
        0
280
     0
281
     0
  0
CLASS
  1
ACMSECTIONSTANDARDISO
  2
AmdtSectionSymStdISO
  3
"Amdt_StdImp|Product Description: AutoCAD Mechanical 2004 DX|Company: Autodesk"
 90
        0
280
     0
281
     0
  0
CLASS
  1
ACMCENTERLINESTANDARDISO
  2
AmdtCenterLineStdISO
  3
"Amdt_StdImp|Product Description: AutoCAD Mechanical 2004 DX|Company: Autodesk"
 90
        0
280
     0
281
     0
  0
CLASS
  1
ACMTHREADLINESTANDARDISO
  2
AmdtThreadLineStdISO
  3
"Amdt_StdImp|Product Description: AutoCAD Mechanical 2004 DX|Company: Autodesk"
 90
        0
280
     0
281
     0
  0
CLASS
  1
ACMNOTESTANDARDISO
  2
AmdtNoteStdISO
  3
"Amdt_StdImp|Product Description: AutoCAD Mechanical 2004 DX|Company: Autodesk"
 90
        0
280
     0
281
     0
  0
CLASS
  1
AMDTNOTETEMPLATEDB
  2
AmdtNoteTemplateDB
  3
AMDT_STDIMP_MODULE_NAME
 90
        0
280
     0
281
     0
  0
CLASS
  1
ACAMGLAYSTD
  2
AcAmgLayStd
  3
"AcAmgLayStd|Product Description: AutoCAD Mechanical 2000|Company: Autodesk"
 90
        0
280
     0
281
     0
  0
CLASS
  1
ACAMGDIMSTD
  2
AcAmgDimStd
  3
"AcAmgDimStd|Product Description: AutoCAD Mechanical 2000|Company: Autodesk"
 90
        0
280
     0
281
     0
  0
CLASS
  1
ACAMGHOLECHARTSTDISO
  2
AcAmgHoleChartStdISO
  3
ACMSYMBB_MODULE_NAME
 90
        0
280
     0
281
     0
  0
CLASS
  1
ACAMGTITLESTD
  2
AcAmgTitleStd
  3
"TITLEAPP"
 90
        0
280
     0
281
     0
  0
CLASS
  1
ACAMGFILTERDAT
  2
AcAmgFilterDat
  3
"AcadM|Product Description: AutoCAD Mechanical 2000|Company: Autodesk"
 90
        0
280
     0
281
     0
  0
ENDSEC
  0
SECTION
  2
TABLES
  0
TABLE
  2
VPORT
  5
7
330
0
100
AcDbSymbolTable
 70
     3
  0
VPORT
  5
41E
330
7
100
AcDbSymbolTableRecord
100
AcDbViewportTableRecord
  2
*Active
 70
     0
 10
0.0
 20
0.0
 11
1.0
 21
1.0
 12
454.4328570434633
 22
6492.60135425527
 13
0.0
 23
0.0
 14
1.0
 24
1.0
 15
0.0
 25
0.0
 16
0.0
 26
0.0
 36
1.0
 17
8.53664292203609
 27
4.579183999999999
 37
0.0
 40
692.8983407431157
 41
1.113389626055488
 42
50.0
 43
0.0
 44
0.0
 50
0.0
 51
0.0
 71
     0
 72
   100
 73
     1
 74
     1
 75
     0
 76
     0
 77
     0
 78
     0
281
     0
 65
     0
110
0.0
120
0.0
130
0.0
111
1.0
121
0.0
131
0.0
112
0.0
122
1.0
132
0.0
 79
     0
146
0.0
  0
ENDTAB
  0
TABLE
  2
LTYPE
  5
4
330
0
100
AcDbSymbolTable
 70
    23
  0
LTYPE
  5
11
330
4
100
AcDbSymbolTableRecord
100
AcDbLinetypeTableRecord
  2
BYBLOCK
 70
     0
  3

 72
    65
 73
     0
 40
0.0
  0
LTYPE
  5
12
330
4
100
AcDbSymbolTableRecord
100
AcDbLinetypeTableRecord
  2
BYLAYER
 70
     0
  3

 72
    65
 73
     0
 40
0.0
  0
LTYPE
  5
13
330
4
100
AcDbSymbolTableRecord
100
AcDbLinetypeTableRecord
  2
CONTINUOUS
 70
     0
  3
Solid line
 72
    65
 73
     0
 40
0.0
  0
LTYPE
  5
1D
330
4
100
AcDbSymbolTableRecord
100
AcDbLinetypeTableRecord
  2
DASHED
 70
     0
  3
Dashed
 72
    65
 73
     2
 40
15.0
 49
12.0
 74
     0
 49
-3.0
 74
     0
  0
LTYPE
  5
1E
330
4
100
AcDbSymbolTableRecord
100
AcDbLinetypeTableRecord
  2
DOTTED
 70
     0
  3
Dotted
 72
    65
 73
     2
 40
3.5
 49
0.5
 74
     0
 49
-3.0
 74
     0
  0
LTYPE
  5
1F
330
4
100
AcDbSymbolTableRecord
100
AcDbLinetypeTableRecord
  2
DOT_CENTER
 70
     0
  3
Dot_Center
 72
    65
 73
     4
 40
2.0
 49
1.25
 74
     0
 49
-0.25
 74
     0
 49
0.25
 74
     0
 49
-0.25
 74
     0
  0
LTYPE
  5
20
330
4
100
AcDbSymbolTableRecord
100
AcDbLinetypeTableRecord
  2
LONG_DASHED
 70
     0
  3
Long_Dashed
 72
    65
 73
     2
 40
2.0
 49
1.5
 74
     0
 49
-0.5
 74
     0
  0
LTYPE
  5
21
330
4
100
AcDbSymbolTableRecord
100
AcDbLinetypeTableRecord
  2
DASH_CENTER
 70
     0
  3
Dash_Center
 72
    65
 73
     4
 40
36.0
 49
24.0
 74
     0
 49
-3.0
 74
     0
 49
6.0
 74
     0
 49
-3.0
 74
     0
  0
LTYPE
  5
22
330
4
100
AcDbSymbolTableRecord
100
AcDbLinetypeTableRecord
  2
PHANTOM
 70
     0
  3
Phantom
 72
    65
 73
     6
 40
2.5
 49
1.25
 74
     0
 49
-0.25
 74
     0
 49
0.25
 74
     0
 49
-0.25
 74
     0
 49
0.25
 74
     0
 49
-0.25
 74
     0
  0
LTYPE
  5
23
330
4
100
AcDbSymbolTableRecord
100
AcDbLinetypeTableRecord
  2
CENTER_DASH_DASH
 70
     0
  3
Center_Dash_Dash
 72
    65
 73
     6
 40
22.0
 49
12.0
 74
     0
 49
-3.0
 74
     0
 49
0.5
 74
     0
 49
-3.0
 74
     0
 49
0.5
 74
     0
 49
-3.0
 74
     0
  0
LTYPE
  5
329
330
4
100
AcDbSymbolTableRecord
100
AcDbLinetypeTableRecord
  2
HIDDEN
 70
     0
  3
Hidden __ __ __ __ __ __ __ __ __ __ __ __ __ _
 72
    65
 73
     2
 40
9.524999999999998
 49
6.349999999999999
 74
     0
 49
-3.174999999999999
 74
     0
  0
LTYPE
  5
32A
330
4
100
AcDbSymbolTableRecord
100
AcDbLinetypeTableRecord
  2
PHANTOM2
 70
     0
  3
Phantom (.5x) ___ _ _ ___ _ _ ___ _ _ ___ _ _
 72
    65
 73
     6
 40
31.75
 49
15.875
 74
     0
 49
-3.174999999999999
 74
     0
 49
3.174999999999999
 74
     0
 49
-3.174999999999999
 74
     0
 49
3.174999999999999
 74
     0
 49
-3.174999999999999
 74
     0
  0
LTYPE
  5
32B
330
4
100
AcDbSymbolTableRecord
100
AcDbLinetypeTableRecord
  2
CENTER
 70
     0
  3
Center ____ _ ____ _ ____ _ ____ _ ____ _ ____
 72
    65
 73
     4
 40
50.8
 49
31.75
 74
     0
 49
-6.349999999999999
 74
     0
 49
6.349999999999999
 74
     0
 49
-6.349999999999999
 74
     0
  0
LTYPE
  5
37A
330
4
100
AcDbSymbolTableRecord
100
AcDbLinetypeTableRecord
  2
ASULTYPE
 70
     0
  3
実線
 72
    65
 73
     2
 40
3.0
 49
2.5
 74
     0
 49
0.5
 74
     0
  0
LTYPE
  5
37B
330
4
100
AcDbSymbolTableRecord
100
AcDbLinetypeTableRecord
  2
ASVLTYPE
 70
     0
  3
__ __ __ __ __ __ __ __ __ __ __ __ __ __ __ __ __ __ __ __ __
 72
    65
 73
     2
 40
0.75
 49
0.5
 74
     0
 49
-0.25
 74
     0
  0
LTYPE
  5
3C2
330
4
100
AcDbSymbolTableRecord
100
AcDbLinetypeTableRecord
  2
AM_ISO02W050
 70
     0
  3
__ __ __ __ __ __ __ __ __ __ __ __ __ __ __
 72
    65
 73
     2
 40
7.5
 49
6.0
 74
     0
 49
-1.5
 74
     0
  0
LTYPE
  5
3C3
330
4
100
AcDbSymbolTableRecord
100
AcDbLinetypeTableRecord
  2
AM_ISO08W050
 70
     0
  3
____ . ____ . ____ . ____ . ____ . ____ . ____
 72
    65
 73
     4
 40
18.0
 49
12.0
 74
     0
 49
-1.5
 74
     0
 49
3.0
 74
     0
 49
-1.5
 74
     0
  0
LTYPE
  5
3C4
330
4
100
AcDbSymbolTableRecord
100
AcDbLinetypeTableRecord
  2
AM_ISO09W050
 70
     0
  3
_____ . . _____ . . _____ . . ____ .. ____
 72
    65
 73
     6
 40
22.5
 49
12.0
 74
     0
 49
-1.5
 74
     0
 49
3.0
 74
     0
 49
-1.5
 74
     0
 49
3.0
 74
     0
 49
-1.5
 74
     0
  0
LTYPE
  5
3C5
330
4
100
AcDbSymbolTableRecord
100
AcDbLinetypeTableRecord
  2
Amconstr
 70
     0
  3
_______________________
 72
    65
 73
     2
 40
9999.0
 49
9999.0
 74
     0
 49
0.0
 74
     0
  0
LTYPE
  5
3C6
330
4
100
AcDbSymbolTableRecord
100
AcDbLinetypeTableRecord
  2
AM_ISO08W050x2
 70
     0
  3
__ . __ . __ . __ . __ . __
 72
    65
 73
     4
 40
9.0
 49
6.0
 74
     0
 49
-0.75
 74
     0
 49
1.5
 74
     0
 49
-0.75
 74
     0
  0
LTYPE
  5
3C7
330
4
100
AcDbSymbolTableRecord
100
AcDbLinetypeTableRecord
  2
AM_ISO02W050x2
 70
     0
  3
 _ _ _ _ _ _ _ _ _ _ _ _
 72
    65
 73
     2
 40
3.75
 49
3.0
 74
     0
 49
-0.75
 74
     0
  0
LTYPE
  5
3CA
330
4
100
AcDbSymbolTableRecord
100
AcDbLinetypeTableRecord
  2
Amzigzag
 70
     0
  3
/\/-/\/-/\/-/\/-/\/-/\/
 72
    65
 73
     2
 40
11.0001
 49
0.0001
 74
     4
 75
   136
340
3C9
 46
0.04
 50
0.0
 44
0.0
 45
0.0
 49
-11.0
 74
     0
  0
LTYPE
  5
3D9
330
4
100
AcDbSymbolTableRecord
100
AcDbLinetypeTableRecord
  2
ACISOWELD
 70
     0
  3
_ _ _ _ _
 72
    65
 73
     2
 40
2.0
 49
2.0
 74
     0
 49
-1.0
 74
     0
  0
LTYPE
  5
3DA
330
4
100
AcDbSymbolTableRecord
100
AcDbLinetypeTableRecord
  2
ACISOTGB
 70
     0
  3
__ . . __ . .
 72
    65
 73
     6
 40
9.0
 49
4.0
 74
     0
 49
-1.0
 74
     0
 49
1.0
 74
     0
 49
-1.0
 74
     0
 49
1.0
 74
     0
 49
-1.0
 74
     0
  0
LTYPE
  5
3DB
330
4
100
AcDbSymbolTableRecord
100
AcDbLinetypeTableRecord
  2
ACISOTGL
 70
     0
  3
_ _ _ _ _
 72
    65
 73
     2
 40
3.0
 49
2.0
 74
     0
 49
-1.0
 74
     0
  0
ENDTAB
  0
TABLE
  2
LAYER
  5
2
330
0
100
AcDbSymbolTable
 70
     2
  0
LAYER
  5
14
330
2
100
AcDbSymbolTableRecord
100
AcDbLayerTableRecord
  2
0
 70
     0
 62
     7
  6
CONTINUOUS
370
    -3
390
2DD
  0
LAYER
  5
24
330
2
100
AcDbSymbolTableRecord
100
AcDbLayerTableRecord
  2
1
 70
     0
 62
     7
  6
CONTINUOUS
370
    -3
390
2DD
  0
ENDTAB
  0
TABLE
  2
STYLE
  5
3
330
0
100
AcDbSymbolTable
 70
     5
  0
STYLE
  5
17
330
3
100
AcDbSymbolTableRecord
100
AcDbTextStyleTableRecord
  2
STANDARD
 70
     0
 40
0.0
 41
1.0
 50
0.0
 71
     0
 42
0.0
  3
txt
  4

  0
STYLE
  5
2D7
330
3
100
AcDbSymbolTableRecord
100
AcDbTextStyleTableRecord
  2
CONVERTER_1
 70
     0
 40
0.0
 41
0.72
 50
0.0
 71
     0
 42
0.0
  3
MS Gothic
  4

1001
ACAD
1000
MS Gothic
1071
    32785
  0
STYLE
  5
3C9
330
3
100
AcDbSymbolTableRecord
100
AcDbTextStyleTableRecord
  2

 70
     1
 40
0.0
 41
1.0
 50
0.0
 71
     0
 42
0.2
  3
genltshp.shx
  4

  0
STYLE
  5
3CB
330
3
100
AcDbSymbolTableRecord
100
AcDbTextStyleTableRecord
  2
ACISOTS
 70
     0
 40
1.0
 41
1.0
 50
0.0
 71
     0
 42
0.2
  3
isocp.shx
  4
extfont.shx
  0
STYLE
  5
3D8
330
3
100
AcDbSymbolTableRecord
100
AcDbTextStyleTableRecord
  2
ACISOGDT
 70
     0
 40
0.0
 41
1.0
 50
0.0
 71
     0
 42
0.2
  3
AMGDT
  4

  0
ENDTAB
  0
TABLE
  2
VIEW
  5
5
330
0
100
AcDbSymbolTable
 70
     0
  0
ENDTAB
  0
TABLE
  2
UCS
  5
6
330
0
100
AcDbSymbolTable
 70
     0
  0
ENDTAB
  0
TABLE
  2
APPID
  5
8
330
0
100
AcDbSymbolTable
 70
    16
  0
APPID
  5
16
330
8
100
AcDbSymbolTableRecord
100
AcDbRegAppTableRecord
  2
ACAD
 70
     0
  0
APPID
  5
2F5
330
8
100
AcDbSymbolTableRecord
100
AcDbRegAppTableRecord
  2
GENIUS_GENDIM_13
 70
     0
  0
APPID
  5
2F6
330
8
100
AcDbSymbolTableRecord
100
AcDbRegAppTableRecord
  2
GENIUS_GENDTOL_13
 70
     0
  0
APPID
  5
2F7
330
8
100
AcDbSymbolTableRecord
100
AcDbRegAppTableRecord
  2
GENIUS_GE3DTOL_13
 70
     0
  0
APPID
  5
2FA
330
8
100
AcDbSymbolTableRecord
100
AcDbRegAppTableRecord
  2
MCAD_NO_VIS
 70
     0
  0
APPID
  5
2FB
330
8
100
AcDbSymbolTableRecord
100
AcDbRegAppTableRecord
  2
ACAD_TEMP_GRAPHIC
 70
     0
  0
APPID
  5
32D
330
8
100
AcDbSymbolTableRecord
100
AcDbRegAppTableRecord
  2
AD_DRAW
 70
     0
  0
APPID
  5
330
330
8
100
AcDbSymbolTableRecord
100
AcDbRegAppTableRecord
  2
ACATTRIBSERVICES
 70
     0
  0
APPID
  5
37C
330
8
100
AcDbSymbolTableRecord
100
AcDbRegAppTableRecord
  2
ASURF_PCURVE_APPNAME
 70
     0
  0
APPID
  5
381
330
8
100
AcDbSymbolTableRecord
100
AcDbRegAppTableRecord
  2
AMG_3D2D_5.0
 70
     0
  0
APPID
  5
3B2
330
8
100
AcDbSymbolTableRecord
100
AcDbRegAppTableRecord
  2
DESIGNERASSEMBLIES
 70
     0
  0
APPID
  5
3B9
330
8
100
AcDbSymbolTableRecord
100
AcDbRegAppTableRecord
  2
ACADM_DIM_EDIT
 70
     0
  0
APPID
  5
3BA
330
8
100
AcDbSymbolTableRecord
100
AcDbRegAppTableRecord
  2
AMDT_DM_ADJ
 70
     0
  0
APPID
  5
3E8
330
8
100
AcDbSymbolTableRecord
100
AcDbRegAppTableRecord
  2
ACAD_DSTYLE_DIMARC_LENGTH_SYMBOL
 70
     0
  0
APPID
  5
3E9
330
8
100
AcDbSymbolTableRecord
100
AcDbRegAppTableRecord
  2
ACAD_DSTYLE_DIMJOGGED_JOGANGLE_SYMBOL
 70
     0
  0
APPID
  5
412
330
8
100
AcDbSymbolTableRecord
100
AcDbRegAppTableRecord
  2
DCO15
 70
     0
  0
ENDTAB
  0
TABLE
  2
DIMSTYLE
  5
9
330
0
100
AcDbSymbolTable
 70
     8
100
AcDbDimStyleTable
 71
     0
  0
DIMSTYLE
105
18
330
9
100
AcDbSymbolTableRecord
100
AcDbDimStyleTableRecord
  2
STANDARD
 70
     0
340
17
  0
DIMSTYLE
105
3E7
330
9
100
AcDbSymbolTableRecord
100
AcDbDimStyleTableRecord
  2
AM_ISO
 70
     0
  4
"
 41
2.5
 42
1.0
 43
10.0
 44
1.0
 47
0.1
 48
0.1
 73
     0
 74
     0
 77
     1
 78
     8
 79
     2
140
3.5
141
0.0
143
0.0393701
146
0.71
147
1.5
172
     1
176
   256
177
   256
178
     2
271
     2
272
     3
274
     4
283
     0
284
     8
340
17
371
    -1
372
    -1
1001
ACAD_DSTYLE_DIMARC_LENGTH_SYMBOL
1070
   379
1070
     1
1001
ACAD_DSTYLE_DIMJOGGED_JOGANGLE_SYMBOL
1070
   384
1040
0.7853981633974483
  0
DIMSTYLE
105
3F0
330
9
100
AcDbSymbolTableRecord
100
AcDbDimStyleTableRecord
  2
AM_ISO$3
 70
     0
  4
"
 41
2.5
 42
1.0
 43
10.0
 44
1.0
 47
0.1
 48
0.1
 73
     0
 77
     1
 78
     8
 79
     2
140
3.5
141
0.0
143
0.0393701
146
0.71
147
1.5
176
   256
177
   256
178
     2
271
     2
272
     3
274
     4
283
     0
284
     8
288
     1
289
     0
340
17
371
    -1
372
    -1
1001
ACAD_DSTYLE_DIMARC_LENGTH_SYMBOL
1070
   379
1070
     1
1001
ACAD_DSTYLE_DIMJOGGED_JOGANGLE_SYMBOL
1070
   384
1040
0.7853981633974483
  0
DIMSTYLE
105
3F3
330
9
100
AcDbSymbolTableRecord
100
AcDbDimStyleTableRecord
  2
AM_ISO$4
 70
     0
  4
"
 41
2.5
 42
1.0
 43
10.0
 44
1.0
 47
0.1
 48
0.1
 73
     0
 77
     1
 78
     8
 79
     2
140
3.5
141
0.0
143
0.0393701
146
0.71
147
1.5
176
   256
177
   256
178
     2
271
     2
272
     3
274
     4
283
     0
284
     8
288
     1
289
     0
340
17
371
    -1
372
    -1
1001
ACAD_DSTYLE_DIMARC_LENGTH_SYMBOL
1070
   379
1070
     1
1001
ACAD_DSTYLE_DIMJOGGED_JOGANGLE_SYMBOL
1070
   384
1040
0.7853981633974483
  0
DIMSTYLE
105
3F6
330
9
100
AcDbSymbolTableRecord
100
AcDbDimStyleTableRecord
  2
AM_ISO$6
 70
     0
  4
"
 41
2.5
 42
1.0
 43
10.0
 44
1.0
 47
0.1
 48
0.1
 73
     0
 74
     0
 78
     8
 79
     2
140
3.5
141
0.0
143
0.0393701
146
0.71
147
1.5
172
     1
176
   256
177
   256
178
     2
271
     2
272
     3
274
     4
283
     0
284
     8
340
17
371
    -1
372
    -1
1001
ACAD_DSTYLE_DIMARC_LENGTH_SYMBOL
1070
   379
1070
     1
1001
ACAD_DSTYLE_DIMJOGGED_JOGANGLE_SYMBOL
1070
   384
1040
0.7853981633974483
  0
DIMSTYLE
105
3F9
330
9
100
AcDbSymbolTableRecord
100
AcDbDimStyleTableRecord
  2
AM_ISO$7
 70
     0
  4
"
 41
2.5
 42
1.0
 43
10.0
 44
1.0
 47
0.1
 48
0.1
 73
     0
 74
     0
 77
     1
 78
     8
 79
     2
140
5.0
141
0.0
143
0.0393701
146
0.71
147
1.5
172
     1
176
   256
177
   256
178
     2
271
     2
272
     3
274
     4
283
     0
284
     8
340
17
371
    -1
372
    -1
1001
ACAD_DSTYLE_DIMARC_LENGTH_SYMBOL
1070
   379
1070
     1
1001
ACAD_DSTYLE_DIMJOGGED_JOGANGLE_SYMBOL
1070
   384
1040
0.7853981633974483
  0
DIMSTYLE
105
3FC
330
9
100
AcDbSymbolTableRecord
100
AcDbDimStyleTableRecord
  2
AM_ISO$SF
 70
     0
  4
"
 41
2.5
 42
1.0
 43
10.0
 44
1.0
 47
0.1
 48
0.1
 73
     0
 74
     0
 75
     1
 76
     1
 77
     1
 78
     8
 79
     2
140
3.5
141
0.0
143
0.0393701
146
0.71
147
1.5
172
     1
176
   256
177
   256
178
     2
271
     2
272
     3
274
     4
283
     0
284
     8
340
17
371
    -1
372
    -1
1001
ACAD_DSTYLE_DIMARC_LENGTH_SYMBOL
1070
   379
1070
     1
1001
ACAD_DSTYLE_DIMJOGGED_JOGANGLE_SYMBOL
1070
   384
1040
0.7853981633974483
  0
DIMSTYLE
105
403
330
9
100
AcDbSymbolTableRecord
100
AcDbDimStyleTableRecord
  2
AM_ISO$SH
 70
     0
  4
"
 41
2.5
 42
1.0
 43
10.0
 44
1.0
 47
0.1
 48
0.1
 73
     0
 74
     0
 75
     1
 76
     1
 77
     1
 78
     8
 79
     2
140
3.5
141
0.0
143
0.0393701
144
2.0
146
0.71
147
1.5
172
     1
173
     1
176
   256
177
   256
178
     2
271
     2
272
     3
274
     4
283
     0
284
     8
340
17
343
3FD
371
    -1
372
    -1
1001
ACAD_DSTYLE_DIMARC_LENGTH_SYMBOL
1070
   379
1070
     1
1001
ACAD_DSTYLE_DIMJOGGED_JOGANGLE_SYMBOL
1070
   384
1040
0.7853981633974483
  0
ENDTAB
  0
TABLE
  2
BLOCK_RECORD
  5
1
330
0
100
AcDbSymbolTable
 70
     2
  0
BLOCK_RECORD
  5
A
102
{ACAD_XDICTIONARY
360
414
102
}
330
1
100
AcDbSymbolTableRecord
100
AcDbBlockTableRecord
  2
*MODEL_SPACE
340
2E4
  0
BLOCK_RECORD
  5
B
330
1
100
AcDbSymbolTableRecord
100
AcDbBlockTableRecord
  2
*PAPER_SPACE
340
2E5
  0
BLOCK_RECORD
  5
3FD
330
1
100
AcDbSymbolTableRecord
100
AcDbBlockTableRecord
  2
GENAXEH
340
0
  0
ENDTAB
  0
ENDSEC
  0
SECTION
  2
BLOCKS
  0
BLOCK
  5
D
330
A
100
AcDbEntity
  8
0
100
AcDbBlockBegin
  2
*MODEL_SPACE
 70
     0
 10
0.0
 20
0.0
 30
0.0
  3
*MODEL_SPACE
  1

  0
ENDBLK
  5
E
330
A
100
AcDbEntity
  8
0
100
AcDbBlockEnd
  0
BLOCK
  5
F
330
B
100
AcDbEntity
 67
     1
  8
0
100
AcDbBlockBegin
  2
*PAPER_SPACE
 70
     0
 10
0.0
 20
0.0
 30
0.0
  3
*PAPER_SPACE
  1

  0
ENDBLK
  5
10
330
B
100
AcDbEntity
 67
     1
  8
0
100
AcDbBlockEnd
  0
BLOCK
  5
3FF
330
3FD
100
AcDbEntity
  8
0
100
AcDbBlockBegin
  2
GENAXEH
 70
     0
 10
0.0
 20
0.0
 30
0.0
  3
GENAXEH
  1

  0
LINE
  5
3FE
330
3FD
100
AcDbEntity
  8
0
100
AcDbLine
 10
-1.0
 20
0.0
 30
0.0
 11
1.0
 21
0.0
 31
0.0
  0
ENDBLK
  5
400
330
3FD
100
AcDbEntity
  8
0
100
AcDbBlockEnd
  0
ENDSEC
  0
SECTION
  2
ENTITIES
  0
MTEXT
  5
2D8
330
A
100
AcDbEntity
  8
1
 62
     1
100
AcDbMText
 10
147.315186072526
 20
6698.648036419716
 30
0.0
 40
3.761479876607999
 41
0.0
 71
     5
 72
     1
  1
\U+ff2e-\U+ff34\U+ff36\U+30a2\U+30fc\U+30e0 \U+6a19\U+6e96\U+4ed5\U+69d8 \U+7d44\U+7acb\U+56f3
  7
CONVERTER_1
 73
     1
 44
1.0
1001
ACAD
1000
MTEXTBEGIN
1070
    73
1070
     1
1070
    44
1040
1.0
1070
    74
1070
     0
1000
MTEXTEND
  0
ARC
  5
2D6
330
A
100
AcDbEntity
  8
1
  6
Continuous
 62
     3
100
AcDbCircle
 10
379.405037177715
 20
6321.721466849145
 30
0.0
 40
3.0
100
AcDbArc
 50
0.0
 51
90.0
  0
ARC
  5
2D5
330
A
100
AcDbEntity
  8
1
  6
Continuous
 62
     3
100
AcDbCircle
 10
379.405037177715
 20
6306.721466849145
 30
0.0
 40
3.0
100
AcDbArc
 50
-90.0
 51
0.0
  0
ARC
  5
2D4
330
A
100
AcDbEntity
  8
1
  6
Continuous
 62
     3
100
AcDbCircle
 10
358.405037177715
 20
6306.721466849145
 30
0.0
 40
3.0
100
AcDbArc
 50
180.0
 51
-90.0
  0
ARC
  5
2D3
330
A
100
AcDbEntity
  8
1
  6
Continuous
 62
     3
100
AcDbCircle
 10
358.405037177715
 20
6321.721466849145
 30
0.0
 40
3.0
100
AcDbArc
 50
90.0
 51
180.0
  0
ARC
  5
2D2
330
A
100
AcDbEntity
  8
1
  6
Continuous
 62
     3
100
AcDbCircle
 10
414.4050371777149
 20
6321.721466849145
 30
0.0
 40
3.0
100
AcDbArc
 50
0.0
 51
90.0
  0
ARC
  5
2D1
330
A
100
AcDbEntity
  8
1
  6
Continuous
 62
     3
100
AcDbCircle
 10
414.4050371777149
 20
6306.721466849145
 30
0.0
 40
3.0
100
AcDbArc
 50
-90.0
 51
0.0
  0
ARC
  5
2D0
330
A
100
AcDbEntity
  8
1
  6
Continuous
 62
     3
100
AcDbCircle
 10
393.405037177715
 20
6306.721466849145
 30
0.0
 40
3.0
100
AcDbArc
 50
180.0
 51
-90.0
  0
ARC
  5
2CF
330
A
100
AcDbEntity
  8
1
  6
Continuous
 62
     3
100
AcDbCircle
 10
393.405037177715
 20
6321.721466849145
 30
0.0
 40
3.0
100
AcDbArc
 50
90.0
 51
180.0
  0
ARC
  5
2CE
330
A
100
AcDbEntity
  8
1
  6
Continuous
 62
     3
100
AcDbCircle
 10
743.764700326017
 20
6255.721466849145
 30
0.0
 40
4.0
100
AcDbArc
 50
180.0
 51
-90.0
  0
ARC
  5
2CD
330
A
100
AcDbEntity
  8
1
  6
Continuous
 62
     3
100
AcDbCircle
 10
743.764700326017
 20
6372.721466849146
 30
0.0
 40
4.0
100
AcDbArc
 50
90.0
 51
180.0
  0
ARC
  5
2CC
330
A
100
AcDbEntity
  8
1
  6
Continuous
 62
     3
100
AcDbCircle
 10
830.764700326017
 20
6372.721466849146
 30
0.0
 40
4.0
100
AcDbArc
 50
0.0
 51
90.0
  0
ARC
  5
2CB
330
A
100
AcDbEntity
  8
1
  6
Continuous
 62
     3
100
AcDbCircle
 10
830.764700326017
 20
6255.721466849145
 30
0.0
 40
4.0
100
AcDbArc
 50
-90.0
 51
0.0
  0
ARC
  5
2CA
330
A
100
AcDbEntity
  8
1
  6
Continuous
 62
     6
100
AcDbCircle
 10
771.2647003260169
 20
6342.721466849145
 30
0.0
 40
0.5
100
AcDbArc
 50
-90.0
 51
0.0
  0
ARC
  5
2C9
330
A
100
AcDbEntity
  8
1
  6
Continuous
 62
     6
100
AcDbCircle
 10
771.2647003260169
 20
6340.721466849146
 30
0.0
 40
0.5
100
AcDbArc
 50
0.0
 51
90.0
  0
ARC
  5
2C8
330
A
100
AcDbEntity
  8
1
  6
Continuous
 62
     6
100
AcDbCircle
 10
773.2647003260169
 20
6340.721466849146
 30
0.0
 40
0.5
100
AcDbArc
 50
90.0
 51
180.0
  0
ARC
  5
2C7
330
A
100
AcDbEntity
  8
1
  6
Continuous
 62
     6
100
AcDbCircle
 10
773.2647003260169
 20
6342.721466849145
 30
0.0
 40
0.5
100
AcDbArc
 50
180.0
 51
-90.0
  0
ARC
  5
2C6
330
A
100
AcDbEntity
  8
1
  6
Continuous
 62
     6
100
AcDbCircle
 10
801.264700326017
 20
6342.721466849145
 30
0.0
 40
0.5
100
AcDbArc
 50
-90.0
 51
0.0
  0
ARC
  5
2C5
330
A
100
AcDbEntity
  8
1
  6
Continuous
 62
     6
100
AcDbCircle
 10
801.264700326017
 20
6340.721466849146
 30
0.0
 40
0.5
100
AcDbArc
 50
0.0
 51
90.0
  0
ARC
  5
2C4
330
A
100
AcDbEntity
  8
1
  6
Continuous
 62
     6
100
AcDbCircle
 10
803.2647003260169
 20
6340.721466849146
 30
0.0
 40
0.5
100
AcDbArc
 50
90.0
 51
180.0
  0
ARC
  5
2C3
330
A
100
AcDbEntity
  8
1
  6
Continuous
 62
     6
100
AcDbCircle
 10
803.2647003260169
 20
6342.721466849145
 30
0.0
 40
0.5
100
AcDbArc
 50
180.0
 51
-90.0
  0
ARC
  5
2C2
330
A
100
AcDbEntity
  8
1
  6
Continuous
 62
     6
100
AcDbCircle
 10
803.2647003260169
 20
6285.721466849145
 30
0.0
 40
0.5
100
AcDbArc
 50
90.0
 51
180.0
  0
ARC
  5
2C1
330
A
100
AcDbEntity
  8
1
  6
Continuous
 62
     6
100
AcDbCircle
 10
803.2647003260169
 20
6287.721466849145
 30
0.0
 40
0.5
100
AcDbArc
 50
180.0
 51
-90.0
  0
ARC
  5
2C0
330
A
100
AcDbEntity
  8
1
  6
Continuous
 62
     6
100
AcDbCircle
 10
801.264700326017
 20
6287.721466849145
 30
0.0
 40
0.5
100
AcDbArc
 50
-90.0
 51
0.0
  0
ARC
  5
2BF
330
A
100
AcDbEntity
  8
1
  6
Continuous
 62
     6
100
AcDbCircle
 10
801.264700326017
 20
6285.721466849145
 30
0.0
 40
0.5
100
AcDbArc
 50
0.0
 51
90.0
  0
ARC
  5
2BE
330
A
100
AcDbEntity
  8
1
  6
Continuous
 62
     6
100
AcDbCircle
 10
773.2647003260169
 20
6285.721466849145
 30
0.0
 40
0.5
100
AcDbArc
 50
90.0
 51
180.0
  0
ARC
  5
2BD
330
A
100
AcDbEntity
  8
1
  6
Continuous
 62
     6
100
AcDbCircle
 10
773.2647003260169
 20
6287.721466849145
 30
0.0
 40
0.5
100
AcDbArc
 50
180.0
 51
-90.0
  0
ARC
  5
2BC
330
A
100
AcDbEntity
  8
1
  6
Continuous
 62
     6
100
AcDbCircle
 10
771.2647003260169
 20
6287.721466849145
 30
0.0
 40
0.5
100
AcDbArc
 50
-90.0
 51
0.0
  0
ARC
  5
2BB
330
A
100
AcDbEntity
  8
1
  6
Continuous
 62
     6
100
AcDbCircle
 10
771.2647003260169
 20
6285.721466849145
 30
0.0
 40
0.5
100
AcDbArc
 50
0.0
 51
90.0
  0
ARC
  5
2BA
330
A
100
AcDbEntity
  8
1
  6
Continuous
 62
     3
100
AcDbCircle
 10
189.716472704223
 20
6364.221466849145
 30
0.0
 40
2.600000000001999
100
AcDbArc
 50
90.0
 51
-90.0
  0
ARC
  5
2B9
330
A
100
AcDbEntity
  8
1
  6
Continuous
 62
     3
100
AcDbCircle
 10
196.516472704223
 20
6364.221466849145
 30
0.0
 40
2.599999999998999
100
AcDbArc
 50
-90.0
 51
90.0
  0
ARC
  5
2B8
330
A
100
AcDbEntity
  8
1
  6
Continuous
 62
     3
100
AcDbCircle
 10
95.520635760257
 20
6366.625629905179
 30
0.0
 40
2.6
100
AcDbArc
 50
45.0
 51
135.0
  0
ARC
  5
2B7
330
A
100
AcDbEntity
  8
1
  6
Continuous
 62
     3
100
AcDbCircle
 10
95.520635760257
 20
6366.625629905179
 30
0.0
 40
2.6
100
AcDbArc
 50
-44.999999999993
 51
45.0
  0
ARC
  5
2B6
330
A
100
AcDbEntity
  8
1
  6
Continuous
 62
     3
100
AcDbCircle
 10
90.712309648189
 20
6361.817303793113
 30
0.0
 40
2.6
100
AcDbArc
 50
-135.0
 51
-45.00000000002099
  0
ARC
  5
2B5
330
A
100
AcDbEntity
  8
1
  6
Continuous
 62
     3
100
AcDbCircle
 10
90.712309648189
 20
6361.817303793113
 30
0.0
 40
2.6
100
AcDbArc
 50
135.0
 51
-135.0
  0
ARC
  5
2B4
330
A
100
AcDbEntity
  8
1
  6
Continuous
 62
     3
100
AcDbCircle
 10
103.212309648189
 20
6349.317303793114
 30
0.0
 40
2.6
100
AcDbArc
 50
134.999999999999
 51
-134.999999999999
  0
ARC
  5
2B3
330
A
100
AcDbEntity
  8
1
  6
Continuous
 62
     3
100
AcDbCircle
 10
103.212309648189
 20
6349.317303793114
 30
0.0
 40
2.6
100
AcDbArc
 50
-134.999999999999
 51
-45.000000000022
  0
ARC
  5
2B2
330
A
100
AcDbEntity
  8
1
  6
Continuous
 62
     3
100
AcDbCircle
 10
108.020635760257
 20
6354.12562990518
 30
0.0
 40
2.6
100
AcDbArc
 50
-44.999999999993
 51
45.000000000001
  0
ARC
  5
2B1
330
A
100
AcDbEntity
  8
1
  6
Continuous
 62
     3
100
AcDbCircle
 10
108.020635760257
 20
6354.12562990518
 30
0.0
 40
2.6
100
AcDbArc
 50
45.000000000001
 51
135.0
  0
ARC
  5
2B0
330
A
100
AcDbEntity
  8
1
  6
Continuous
 62
     3
100
AcDbCircle
 10
184.016472704223
 20
6351.721466849145
 30
0.0
 40
2.6
100
AcDbArc
 50
0.0
 51
90.0
  0
ARC
  5
2AF
330
A
100
AcDbEntity
  8
1
  6
Continuous
 62
     3
100
AcDbCircle
 10
184.016472704223
 20
6351.721466849145
 30
0.0
 40
2.599999999998999
100
AcDbArc
 50
-90.0
 51
0.0
  0
ARC
  5
2AE
330
A
100
AcDbEntity
  8
1
  6
Continuous
 62
     3
100
AcDbCircle
 10
177.216472704223
 20
6351.721466849145
 30
0.0
 40
2.6
100
AcDbArc
 50
180.0
 51
-90.0
  0
ARC
  5
2AD
330
A
100
AcDbEntity
  8
1
  6
Continuous
 62
     3
100
AcDbCircle
 10
177.216472704223
 20
6351.721466849145
 30
0.0
 40
2.600000000001999
100
AcDbArc
 50
90.0
 51
180.0
  0
ARC
  5
2AC
330
A
100
AcDbEntity
  8
1
  6
Continuous
 62
     3
100
AcDbCircle
 10
93.116472704223
 20
6267.621466849147
 30
0.0
 40
2.599999999998999
100
AcDbArc
 50
90.00000000001
 51
180.0
  0
ARC
  5
2AB
330
A
100
AcDbEntity
  8
1
  6
Continuous
 62
     3
100
AcDbCircle
 10
93.116472704223
 20
6267.621466849147
 30
0.0
 40
2.600000000000999
100
AcDbArc
 50
0.0
 51
90.00000000001
  0
ARC
  5
2AA
330
A
100
AcDbEntity
  8
1
  6
Continuous
 62
     3
100
AcDbCircle
 10
93.11647270422199
 20
6260.821466849146
 30
0.0
 40
2.6
100
AcDbArc
 50
-90.0
 51
0.0
  0
ARC
  5
2A9
330
A
100
AcDbEntity
  8
1
  6
Continuous
 62
     3
100
AcDbCircle
 10
93.11647270422199
 20
6260.821466849146
 30
0.0
 40
2.6
100
AcDbArc
 50
180.0
 51
-90.0
  0
ARC
  5
2A8
330
A
100
AcDbEntity
  8
1
  6
Continuous
 62
     3
100
AcDbCircle
 10
105.616472704222
 20
6273.321466849147
 30
0.0
 40
2.6
100
AcDbArc
 50
180.0
 51
-90.0
  0
ARC
  5
2A7
330
A
100
AcDbEntity
  8
1
  6
Continuous
 62
     3
100
AcDbCircle
 10
105.616472704222
 20
6273.321466849147
 30
0.0
 40
2.6
100
AcDbArc
 50
-90.0
 51
0.0
  0
ARC
  5
2A6
330
A
100
AcDbEntity
  8
1
  6
Continuous
 62
     3
100
AcDbCircle
 10
105.616472704223
 20
6280.121466849147
 30
0.0
 40
2.600000000000999
100
AcDbArc
 50
0.0
 51
90.00000000001099
  0
ARC
  5
2A5
330
A
100
AcDbEntity
  8
1
  6
Continuous
 62
     3
100
AcDbCircle
 10
105.616472704223
 20
6280.121466849147
 30
0.0
 40
2.599999999998999
100
AcDbArc
 50
90.00000000001099
 51
180.0
  0
ARC
  5
2A4
330
A
100
AcDbEntity
  8
1
  6
Continuous
 62
     6
100
AcDbCircle
 10
134.116472704223
 20
6327.721466849145
 30
0.0
 40
0.5
100
AcDbArc
 50
180.0
 51
-90.0
  0
ARC
  5
2A3
330
A
100
AcDbEntity
  8
1
  6
Continuous
 62
     6
100
AcDbCircle
 10
134.116472704223
 20
6325.721466849145
 30
0.0
 40
0.5
100
AcDbArc
 50
90.0
 51
180.0
  0
ARC
  5
2A2
330
A
100
AcDbEntity
  8
1
  6
Continuous
 62
     6
100
AcDbCircle
 10
132.116472704223
 20
6325.721466849145
 30
0.0
 40
0.5
100
AcDbArc
 50
0.0
 51
90.0
  0
ARC
  5
2A1
330
A
100
AcDbEntity
  8
1
  6
Continuous
 62
     6
100
AcDbCircle
 10
132.116472704223
 20
6327.721466849145
 30
0.0
 40
0.5
100
AcDbArc
 50
-90.0
 51
0.0
  0
ARC
  5
2A0
330
A
100
AcDbEntity
  8
1
  6
Continuous
 62
     6
100
AcDbCircle
 10
154.116472704223
 20
6327.721466849145
 30
0.0
 40
0.5
100
AcDbArc
 50
180.0
 51
-90.0
  0
ARC
  5
29F
330
A
100
AcDbEntity
  8
1
  6
Continuous
 62
     6
100
AcDbCircle
 10
154.116472704223
 20
6325.721466849145
 30
0.0
 40
0.5
100
AcDbArc
 50
90.0
 51
180.0
  0
ARC
  5
29E
330
A
100
AcDbEntity
  8
1
  6
Continuous
 62
     6
100
AcDbCircle
 10
152.116472704223
 20
6325.721466849145
 30
0.0
 40
0.5
100
AcDbArc
 50
0.0
 51
90.0
  0
ARC
  5
29D
330
A
100
AcDbEntity
  8
1
  6
Continuous
 62
     6
100
AcDbCircle
 10
152.116472704223
 20
6327.721466849145
 30
0.0
 40
0.5
100
AcDbArc
 50
-90.0
 51
0.0
  0
ARC
  5
29C
330
A
100
AcDbEntity
  8
1
  6
Continuous
 62
     6
100
AcDbCircle
 10
152.116472704223
 20
6300.721466849145
 30
0.0
 40
0.5
100
AcDbArc
 50
0.0
 51
90.0
  0
ARC
  5
29B
330
A
100
AcDbEntity
  8
1
  6
Continuous
 62
     6
100
AcDbCircle
 10
152.116472704223
 20
6302.721466849146
 30
0.0
 40
0.5
100
AcDbArc
 50
-90.0
 51
0.0
  0
ARC
  5
29A
330
A
100
AcDbEntity
  8
1
  6
Continuous
 62
     6
100
AcDbCircle
 10
154.116472704223
 20
6302.721466849146
 30
0.0
 40
0.5
100
AcDbArc
 50
180.0
 51
-90.0
  0
ARC
  5
299
330
A
100
AcDbEntity
  8
1
  6
Continuous
 62
     6
100
AcDbCircle
 10
154.116472704223
 20
6300.721466849145
 30
0.0
 40
0.5
100
AcDbArc
 50
90.0
 51
180.0
  0
ARC
  5
298
330
A
100
AcDbEntity
  8
1
  6
Continuous
 62
     6
100
AcDbCircle
 10
132.116472704223
 20
6300.721466849145
 30
0.0
 40
0.5
100
AcDbArc
 50
0.0
 51
90.0
  0
ARC
  5
297
330
A
100
AcDbEntity
  8
1
  6
Continuous
 62
     6
100
AcDbCircle
 10
132.116472704223
 20
6302.721466849146
 30
0.0
 40
0.5
100
AcDbArc
 50
-90.0
 51
0.0
  0
ARC
  5
296
330
A
100
AcDbEntity
  8
1
  6
Continuous
 62
     6
100
AcDbCircle
 10
134.116472704223
 20
6302.721466849146
 30
0.0
 40
0.5
100
AcDbArc
 50
180.0
 51
-90.0
  0
ARC
  5
295
330
A
100
AcDbEntity
  8
1
  6
Continuous
 62
     6
100
AcDbCircle
 10
134.116472704223
 20
6300.721466849145
 30
0.0
 40
0.5
100
AcDbArc
 50
90.0
 51
180.0
  0
ARC
  5
294
330
A
100
AcDbEntity
  8
1
  6
Continuous
 62
     3
100
AcDbCircle
 10
316.405037177715
 20
6329.721466849146
 30
0.0
 40
2.0
100
AcDbArc
 50
0.0
 51
90.0
  0
ARC
  5
293
330
A
100
AcDbEntity
  8
1
  6
Continuous
 62
     3
100
AcDbCircle
 10
320.405037177715
 20
6324.221466849145
 30
0.0
 40
2.0
100
AcDbArc
 50
180.0
 51
-90.0
  0
ARC
  5
292
330
A
100
AcDbEntity
  8
1
  6
Continuous
 62
     3
100
AcDbCircle
 10
320.405037177715
 20
6304.221466849146
 30
0.0
 40
2.0
100
AcDbArc
 50
90.0
 51
180.0
  0
ARC
  5
291
330
A
100
AcDbEntity
  8
1
  6
Continuous
 62
     3
100
AcDbCircle
 10
316.405037177715
 20
6298.721466849145
 30
0.0
 40
2.0
100
AcDbArc
 50
-90.0
 51
0.0
  0
ARC
  5
290
330
A
100
AcDbEntity
  8
1
  6
Continuous
 62
     3
100
AcDbCircle
 10
320.405037177715
 20
6320.221466849145
 30
0.0
 40
2.0
100
AcDbArc
 50
90.0
 51
180.0
  0
ARC
  5
28F
330
A
100
AcDbEntity
  8
1
  6
Continuous
 62
     3
100
AcDbCircle
 10
320.405037177715
 20
6308.221466849145
 30
0.0
 40
2.0
100
AcDbArc
 50
180.0
 51
-90.0
  0
ARC
  5
28E
330
A
100
AcDbEntity
  8
1
  6
Continuous
 62
     3
100
AcDbCircle
 10
320.905037177715
 20
6336.221466849146
 30
0.0
 40
0.5
100
AcDbArc
 50
90.0
 51
180.0
  0
ARC
  5
28D
330
A
100
AcDbEntity
  8
1
  6
Continuous
 62
     3
100
AcDbCircle
 10
320.905037177715
 20
6324.721466849145
 30
0.0
 40
0.5
100
AcDbArc
 50
180.0
 51
-90.0
  0
ARC
  5
28C
330
A
100
AcDbEntity
  8
1
  6
Continuous
 62
     3
100
AcDbCircle
 10
320.905037177715
 20
6292.221466849145
 30
0.0
 40
0.5
100
AcDbArc
 50
180.0
 51
-90.0
  0
ARC
  5
28B
330
A
100
AcDbEntity
  8
1
  6
Continuous
 62
     3
100
AcDbCircle
 10
320.905037177715
 20
6303.721466849145
 30
0.0
 40
0.5
100
AcDbArc
 50
90.0
 51
180.0
  0
ARC
  5
28A
330
A
100
AcDbEntity
  8
1
  6
Continuous
 62
     3
100
AcDbCircle
 10
341.905037177715
 20
6321.721466849145
 30
0.0
 40
0.5
100
AcDbArc
 50
0.0
 51
90.0
  0
ARC
  5
289
330
A
100
AcDbEntity
  8
1
  6
Continuous
 62
     3
100
AcDbCircle
 10
341.905037177715
 20
6306.721466849145
 30
0.0
 40
0.5
100
AcDbArc
 50
-90.0
 51
0.0
  0
ARC
  5
288
330
A
100
AcDbEntity
  8
1
  6
Continuous
 62
     3
100
AcDbCircle
 10
476.9050371777149
 20
6336.221466849146
 30
0.0
 40
0.5
100
AcDbArc
 50
0.0
 51
90.0
  0
ARC
  5
287
330
A
100
AcDbEntity
  8
1
  6
Continuous
 62
     3
100
AcDbCircle
 10
476.9050371777149
 20
6292.221466849145
 30
0.0
 40
0.5
100
AcDbArc
 50
-90.0
 51
0.0
  0
ARC
  5
286
330
A
100
AcDbEntity
  8
1
  6
Continuous
 62
     3
100
AcDbCircle
 10
342.405037177715
 20
6322.221466849145
 30
0.0
 40
2.0
100
AcDbArc
 50
0.0
 51
90.0
  0
ARC
  5
285
330
A
100
AcDbEntity
  8
1
  6
Continuous
 62
     3
100
AcDbCircle
 10
342.405037177715
 20
6306.221466849144
 30
0.0
 40
2.0
100
AcDbArc
 50
-90.0
 51
0.0
  0
ARC
  5
284
330
A
100
AcDbEntity
  8
1
  6
Continuous
 62
     3
100
AcDbCircle
 10
428.405037177715
 20
6321.721466849145
 30
0.0
 40
3.0
100
AcDbArc
 50
90.0
 51
180.0
  0
ARC
  5
283
330
A
100
AcDbEntity
  8
1
  6
Continuous
 62
     3
100
AcDbCircle
 10
428.405037177715
 20
6306.721466849145
 30
0.0
 40
3.0
100
AcDbArc
 50
180.0
 51
-90.0
  0
ARC
  5
282
330
A
100
AcDbEntity
  8
1
  6
Continuous
 62
     3
100
AcDbCircle
 10
449.405037177715
 20
6306.721466849145
 30
0.0
 40
3.0
100
AcDbArc
 50
-90.0
 51
0.0
  0
ARC
  5
281
330
A
100
AcDbEntity
  8
1
  6
Continuous
 62
     3
100
AcDbCircle
 10
449.405037177715
 20
6321.721466849145
 30
0.0
 40
3.0
100
AcDbArc
 50
0.0
 51
90.0
  0
ARC
  5
280
330
A
100
AcDbEntity
  8
1
  6
Continuous
 62
     3
100
AcDbCircle
 10
646.905037177715
 20
6363.721466849145
 30
0.0
 40
0.5
100
AcDbArc
 50
0.0
 51
90.0
  0
ARC
  5
27F
330
A
100
AcDbEntity
  8
1
  6
Continuous
 62
     3
100
AcDbCircle
 10
646.905037177715
 20
6339.721466849145
 30
0.0
 40
0.5
100
AcDbArc
 50
-90.0
 51
0.0
  0
ARC
  5
27E
330
A
100
AcDbEntity
  8
1
  6
Continuous
 62
     3
100
AcDbCircle
 10
646.905037177715
 20
6288.721466849145
 30
0.0
 40
0.5
100
AcDbArc
 50
0.0
 51
90.0
  0
ARC
  5
27D
330
A
100
AcDbEntity
  8
1
  6
Continuous
 62
     3
100
AcDbCircle
 10
646.905037177715
 20
6264.721466849145
 30
0.0
 40
0.5
100
AcDbArc
 50
-90.0
 51
0.0
  0
ARC
  5
27C
330
A
100
AcDbEntity
  8
1
  6
Continuous
 62
     3
100
AcDbCircle
 10
625.905037177715
 20
6336.721466849144
 30
0.0
 40
0.5
100
AcDbArc
 50
90.0
 51
180.0
  0
ARC
  5
27B
330
A
100
AcDbEntity
  8
1
  6
Continuous
 62
     3
100
AcDbCircle
 10
625.905037177715
 20
6291.721466849145
 30
0.0
 40
0.5
100
AcDbArc
 50
180.0
 51
-90.0
  0
ARC
  5
27A
330
A
100
AcDbEntity
  8
1
  6
Continuous
 62
     3
100
AcDbCircle
 10
649.905037177715
 20
6363.221466849145
 30
0.0
 40
1.0
100
AcDbArc
 50
90.0
 51
180.0
  0
ARC
  5
279
330
A
100
AcDbEntity
  8
1
  6
Continuous
 62
     3
100
AcDbCircle
 10
649.905037177715
 20
6265.221466849145
 30
0.0
 40
1.0
100
AcDbArc
 50
180.0
 51
-90.0
  0
ARC
  5
278
330
A
100
AcDbEntity
  8
1
  6
Continuous
 62
     3
100
AcDbCircle
 10
609.4050371777139
 20
6292.221466849145
 30
0.0
 40
3.0
100
AcDbArc
 50
-90.0
 51
0.0
  0
ARC
  5
277
330
A
100
AcDbEntity
  8
1
  6
Continuous
 62
     3
100
AcDbCircle
 10
626.4050371777139
 20
6292.221466849145
 30
0.0
 40
3.0
100
AcDbArc
 50
180.0
 51
-90.0
  0
ARC
  5
276
330
A
100
AcDbEntity
  8
1
  6
Continuous
 62
     3
100
AcDbCircle
 10
626.4050371777139
 20
6336.221466849146
 30
0.0
 40
3.0
100
AcDbArc
 50
90.0
 51
180.0
  0
ARC
  5
275
330
A
100
AcDbEntity
  8
1
  6
Continuous
 62
     3
100
AcDbCircle
 10
609.4050371777139
 20
6336.221466849146
 30
0.0
 40
3.0
100
AcDbArc
 50
0.0
 51
90.0
  0
ARC
  5
274
330
A
100
AcDbEntity
  8
1
  6
Continuous
 62
     3
100
AcDbCircle
 10
449.9050371777149
 20
6264.721466849145
 30
0.0
 40
0.5
100
AcDbArc
 50
180.0
 51
-90.0
  0
ARC
  5
273
330
A
100
AcDbEntity
  8
1
  6
Continuous
 62
     3
100
AcDbCircle
 10
449.9050371777149
 20
6363.721466849145
 30
0.0
 40
0.5
100
AcDbArc
 50
90.0
 51
180.0
  0
ARC
  5
272
330
A
100
AcDbEntity
  8
1
  6
Continuous
 62
     3
100
AcDbCircle
 10
449.9050371777149
 20
6339.721466849145
 30
0.0
 40
0.5
100
AcDbArc
 50
180.0
 51
-90.0
  0
ARC
  5
271
330
A
100
AcDbEntity
  8
1
  6
Continuous
 62
     3
100
AcDbCircle
 10
352.905037177715
 20
6303.221466849145
 30
0.0
 40
0.5
100
AcDbArc
 50
90.0
 51
180.0
  0
ARC
  5
270
330
A
100
AcDbEntity
  8
1
  6
Continuous
 62
     3
100
AcDbCircle
 10
361.905037177715
 20
6303.221466849145
 30
0.0
 40
0.5
100
AcDbArc
 50
0.0
 51
90.0
  0
ARC
  5
26F
330
A
100
AcDbEntity
  8
1
  6
Continuous
 62
     3
100
AcDbCircle
 10
352.905037177715
 20
6269.221466849145
 30
0.0
 40
0.5
100
AcDbArc
 50
180.0
 51
-90.0
  0
ARC
  5
26E
330
A
100
AcDbEntity
  8
1
  6
Continuous
 62
     3
100
AcDbCircle
 10
361.905037177715
 20
6269.221466849145
 30
0.0
 40
0.5
100
AcDbArc
 50
-90.0
 51
0.0
  0
ARC
  5
26D
330
A
100
AcDbEntity
  8
1
  6
Continuous
 62
     3
100
AcDbCircle
 10
481.905037177715
 20
6276.721466849146
 30
0.0
 40
0.5
100
AcDbArc
 50
90.0
 51
180.0
  0
ARC
  5
26C
330
A
100
AcDbEntity
  8
1
  6
Continuous
 62
     3
100
AcDbCircle
 10
490.905037177715
 20
6276.721466849146
 30
0.0
 40
0.5
100
AcDbArc
 50
0.0
 51
90.0
  0
ARC
  5
26B
330
A
100
AcDbEntity
  8
1
  6
Continuous
 62
     3
100
AcDbCircle
 10
481.905037177715
 20
6242.721466849145
 30
0.0
 40
0.5
100
AcDbArc
 50
180.0
 51
-90.0
  0
ARC
  5
26A
330
A
100
AcDbEntity
  8
1
  6
Continuous
 62
     3
100
AcDbCircle
 10
490.905037177715
 20
6242.721466849145
 30
0.0
 40
0.5
100
AcDbArc
 50
-90.0
 51
0.0
  0
ARC
  5
269
330
A
100
AcDbEntity
  8
1
  6
Continuous
 62
     3
100
AcDbCircle
 10
611.905037177715
 20
6276.721466849146
 30
0.0
 40
0.5
100
AcDbArc
 50
90.0
 51
180.0
  0
ARC
  5
268
330
A
100
AcDbEntity
  8
1
  6
Continuous
 62
     3
100
AcDbCircle
 10
620.905037177715
 20
6276.721466849146
 30
0.0
 40
0.5
100
AcDbArc
 50
0.0
 51
90.0
  0
ARC
  5
267
330
A
100
AcDbEntity
  8
1
  6
Continuous
 62
     3
100
AcDbCircle
 10
611.905037177715
 20
6242.721466849145
 30
0.0
 40
0.5
100
AcDbArc
 50
180.0
 51
-90.0
  0
ARC
  5
266
330
A
100
AcDbEntity
  8
1
  6
Continuous
 62
     3
100
AcDbCircle
 10
620.905037177715
 20
6242.721466849145
 30
0.0
 40
0.5
100
AcDbArc
 50
-90.0
 51
0.0
  0
ARC
  5
265
330
A
100
AcDbEntity
  8
1
  6
Continuous
 62
     3
100
AcDbCircle
 10
650.905037177715
 20
6430.132013604239
 30
0.0
 40
2.0
100
AcDbArc
 50
180.0
 51
-90.0
  0
ARC
  5
264
330
A
100
AcDbEntity
  8
1
  6
Continuous
 62
     3
100
AcDbCircle
 10
650.905037177715
 20
6476.13201360424
 30
0.0
 40
2.0
100
AcDbArc
 50
90.0
 51
180.0
  0
ARC
  5
263
330
A
100
AcDbEntity
  8
1
  6
Continuous
 62
     3
100
AcDbCircle
 10
643.905037177715
 20
6437.13201360424
 30
0.0
 40
4.999999999998999
100
AcDbArc
 50
45.57299599919399
 51
90.0
  0
ARC
  5
262
330
A
100
AcDbEntity
  8
1
  6
Continuous
 62
     3
100
AcDbCircle
 10
643.905037177715
 20
6469.132013604239
 30
0.0
 40
5.0
100
AcDbArc
 50
-90.0
 51
0.0
  0
ARC
  5
261
330
A
100
AcDbEntity
  8
1
  6
Continuous
 62
     3
100
AcDbCircle
 10
318.405037177715
 20
6446.13201360424
 30
0.0
 40
2.0
100
AcDbArc
 50
0.0
 51
90.0
  0
ARC
  5
260
330
A
100
AcDbEntity
  8
1
  6
Continuous
 62
     3
100
AcDbCircle
 10
318.405037177715
 20
6460.132013604241
 30
0.0
 40
2.0
100
AcDbArc
 50
-90.0
 51
0.0
  0
ARC
  5
25F
330
A
100
AcDbEntity
  8
1
  6
Continuous
 62
     3
100
AcDbCircle
 10
321.405037177715
 20
6443.13201360424
 30
0.0
 40
1.0
100
AcDbArc
 50
180.0
 51
-90.0
  0
ARC
  5
25E
330
A
100
AcDbEntity
  8
1
  6
Continuous
 62
     3
100
AcDbCircle
 10
318.405037177715
 20
6449.132013604239
 30
0.0
 40
1.0
100
AcDbArc
 50
-90.0
 51
0.0
  0
ARC
  5
25D
330
A
100
AcDbEntity
  8
1
  6
Continuous
 62
     3
100
AcDbCircle
 10
318.405037177715
 20
6457.13201360424
 30
0.0
 40
1.0
100
AcDbArc
 50
0.0
 51
90.0
  0
ARC
  5
25C
330
A
100
AcDbEntity
  8
1
  6
Continuous
 62
     3
100
AcDbCircle
 10
316.405037177715
 20
6414.132013604239
 30
0.0
 40
2.0
100
AcDbArc
 50
-90.0
 51
0.0
  0
ARC
  5
25B
330
A
100
AcDbEntity
  8
1
  6
Continuous
 62
     3
100
AcDbCircle
 10
316.405037177715
 20
6492.13201360424
 30
0.0
 40
2.0
100
AcDbArc
 50
0.0
 51
90.0
  0
ARC
  5
25A
330
A
100
AcDbEntity
  8
1
  6
Continuous
 62
     3
100
AcDbCircle
 10
643.905037177715
 20
6437.13201360424
 30
0.0
 40
5.0
100
AcDbArc
 50
0.0
 51
45.57299599919399
  0
ARC
  5
259
330
A
100
AcDbEntity
  8
1
  6
Continuous
 62
     3
100
AcDbCircle
 10
272.905037177715
 20
6469.132013604239
 30
0.0
 40
3.999999999998999
100
AcDbArc
 50
138.590377890741
 51
180.0
  0
ARC
  5
258
330
A
100
AcDbEntity
  8
1
  6
Continuous
 62
     3
100
AcDbCircle
 10
271.905037177715
 20
6414.132013604239
 30
0.0
 40
2.0
100
AcDbArc
 50
180.0
 51
-90.0
  0
ARC
  5
257
330
A
100
AcDbEntity
  8
1
  6
Continuous
 62
     3
100
AcDbCircle
 10
271.905037177715
 20
6492.13201360424
 30
0.0
 40
2.0
100
AcDbArc
 50
90.0
 51
180.0
  0
ARC
  5
256
330
A
100
AcDbEntity
  8
1
  6
Continuous
 62
     3
100
AcDbCircle
 10
272.905037177715
 20
6437.13201360424
 30
0.0
 40
4.0
100
AcDbArc
 50
180.0
 51
-138.590377890722
  0
ARC
  5
255
330
A
100
AcDbEntity
  8
1
  6
Continuous
 62
     3
100
AcDbCircle
 10
270.905037177715
 20
6295.721466849145
 30
0.0
 40
1.0
100
AcDbArc
 50
180.0
 51
-90.0
  0
ARC
  5
254
330
A
100
AcDbEntity
  8
1
  6
Continuous
 62
     3
100
AcDbCircle
 10
270.905037177715
 20
6332.721466849145
 30
0.0
 40
1.0
100
AcDbArc
 50
90.0
 51
180.0
  0
ARC
  5
253
330
A
100
AcDbEntity
  8
1
  6
Continuous
 62
     3
100
AcDbCircle
 10
577.905037177714
 20
6686.893512476079
 30
0.0
 40
4.0
100
AcDbArc
 50
138.590377890732
 51
180.0
  0
ARC
  5
252
330
A
100
AcDbEntity
  8
1
  6
Continuous
 62
     3
100
AcDbCircle
 10
576.9050371777139
 20
6631.89351247608
 30
0.0
 40
2.0
100
AcDbArc
 50
180.0
 51
-90.0
  0
ARC
  5
251
330
A
100
AcDbEntity
  8
1
  6
Continuous
 62
     3
100
AcDbCircle
 10
576.9050371777139
 20
6709.89351247608
 30
0.0
 40
2.0
100
AcDbArc
 50
90.0
 51
180.0
  0
ARC
  5
250
330
A
100
AcDbEntity
  8
1
  6
Continuous
 62
     3
100
AcDbCircle
 10
577.905037177714
 20
6654.893512476078
 30
0.0
 40
4.0
100
AcDbArc
 50
180.0
 51
-138.590377890732
  0
ARC
  5
24F
330
A
100
AcDbEntity
  8
1
  6
Continuous
 62
     3
100
AcDbCircle
 10
643.905037177715
 20
6689.893512476077
 30
0.0
 40
5.0
100
AcDbArc
 50
0.0
 51
45.57299599919399
  0
ARC
  5
24E
330
A
100
AcDbEntity
  8
1
  6
Continuous
 62
     3
100
AcDbCircle
 10
643.905037177715
 20
6721.893512476076
 30
0.0
 40
5.0
100
AcDbArc
 50
-90.0
 51
0.0
  0
ARC
  5
24D
330
A
100
AcDbEntity
  8
1
  6
DOTTED
 62
     1
100
AcDbCircle
 10
643.905037177715
 20
6689.893512476077
 30
0.0
 40
4.999999999998999
100
AcDbArc
 50
45.57299599919399
 51
90.0
  0
ARC
  5
24C
330
A
100
AcDbEntity
  8
1
  6
Continuous
 62
     3
100
AcDbCircle
 10
650.905037177715
 20
6728.893512476076
 30
0.0
 40
2.0
100
AcDbArc
 50
90.0
 51
180.0
  0
ARC
  5
24B
330
A
100
AcDbEntity
  8
1
  6
Continuous
 62
     3
100
AcDbCircle
 10
650.905037177715
 20
6682.893512476076
 30
0.0
 40
2.0
100
AcDbArc
 50
180.0
 51
-90.0
  0
ARC
  5
24A
330
A
100
AcDbEntity
  8
1
  6
Continuous
 62
     3
100
AcDbCircle
 10
623.405037177715
 20
6663.893512476082
 30
0.0
 40
2.0
100
AcDbArc
 50
-0.000000000078
 51
90.00000000002598
  0
ARC
  5
249
330
A
100
AcDbEntity
  8
1
  6
Continuous
 62
     3
100
AcDbCircle
 10
623.405037177714
 20
6677.893512476079
 30
0.0
 40
2.0
100
AcDbArc
 50
-89.99999999999699
 51
0.0
  0
ARC
  5
248
330
A
100
AcDbEntity
  8
1
  6
DOTTED
 62
     1
100
AcDbCircle
 10
626.405037177715
 20
6660.893512476079
 30
0.0
 40
1.0
100
AcDbArc
 50
180.0
 51
-90.00000000005801
  0
ARC
  5
247
330
A
100
AcDbEntity
  8
1
  6
Continuous
 62
     3
100
AcDbCircle
 10
623.405037177714
 20
6666.893512476079
 30
0.0
 40
1.0
100
AcDbArc
 50
-90.0
 51
-0.000000000052
  0
ARC
  5
246
330
A
100
AcDbEntity
  8
1
  6
Continuous
 62
     3
100
AcDbCircle
 10
623.405037177714
 20
6674.893512476079
 30
0.0
 40
1.0
100
AcDbArc
 50
-0.000000000052
 51
89.999999999993
  0
ARC
  5
245
330
A
100
AcDbEntity
  8
1
  6
Continuous
 62
     3
100
AcDbCircle
 10
621.405037177715
 20
6631.89351247608
 30
0.0
 40
2.0
100
AcDbArc
 50
-89.99999999999699
 51
0.0
  0
ARC
  5
244
330
A
100
AcDbEntity
  8
1
  6
Continuous
 62
     3
100
AcDbCircle
 10
621.405037177715
 20
6709.89351247608
 30
0.0
 40
2.0
100
AcDbArc
 50
0.0
 51
89.99999999997699
  0
ARC
  5
243
330
A
100
AcDbEntity
  8
1
  6
DOTTED
 62
     1
100
AcDbCircle
 10
626.405037177715
 20
6680.893512476079
 30
0.0
 40
1.0
100
AcDbArc
 50
90.0
 51
179.999999999947
  0
CIRCLE
  5
242
330
A
100
AcDbEntity
  8
1
  6
Continuous
 62
     3
100
AcDbCircle
 10
752.2647003260169
 20
6364.221466849145
 30
0.0
 40
4.049999999999999
  0
CIRCLE
  5
241
330
A
100
AcDbEntity
  8
1
  6
Continuous
 62
     3
100
AcDbCircle
 10
822.2647003260169
 20
6364.221466849145
 30
0.0
 40
4.049999999999999
  0
CIRCLE
  5
240
330
A
100
AcDbEntity
  8
1
  6
Continuous
 62
     3
100
AcDbCircle
 10
822.2647003260169
 20
6264.221466849146
 30
0.0
 40
4.049999999999999
  0
CIRCLE
  5
23F
330
A
100
AcDbEntity
  8
1
  6
Continuous
 62
     3
100
AcDbCircle
 10
752.2647003260169
 20
6264.221466849146
 30
0.0
 40
4.049999999999999
  0
CIRCLE
  5
23E
330
A
100
AcDbEntity
  8
1
  6
Continuous
 62
     6
100
AcDbCircle
 10
772.264700326017
 20
6341.721466849145
 30
0.0
 40
3.5
  0
CIRCLE
  5
23D
330
A
100
AcDbEntity
  8
1
  6
Continuous
 62
     6
100
AcDbCircle
 10
802.2647003260169
 20
6341.721466849145
 30
0.0
 40
3.5
  0
CIRCLE
  5
23C
330
A
100
AcDbEntity
  8
1
  6
Continuous
 62
     6
100
AcDbCircle
 10
802.2647003260169
 20
6286.721466849145
 30
0.0
 40
3.5
  0
CIRCLE
  5
23B
330
A
100
AcDbEntity
  8
1
  6
Continuous
 62
     6
100
AcDbCircle
 10
772.264700326017
 20
6286.721466849145
 30
0.0
 40
3.5
  0
CIRCLE
  5
23A
330
A
100
AcDbEntity
  8
1
  6
Continuous
 62
     3
100
AcDbCircle
 10
193.116472704223
 20
6264.221466849146
 30
0.0
 40
2.6
  0
CIRCLE
  5
239
330
A
100
AcDbEntity
  8
1
  6
Continuous
 62
     3
100
AcDbCircle
 10
180.616472704223
 20
6276.721466849146
 30
0.0
 40
2.6
  0
CIRCLE
  5
238
330
A
100
AcDbEntity
  8
1
  6
Continuous
 62
     6
100
AcDbCircle
 10
133.116472704223
 20
6326.721466849146
 30
0.0
 40
3.5
  0
CIRCLE
  5
237
330
A
100
AcDbEntity
  8
1
  6
Continuous
 62
     6
100
AcDbCircle
 10
153.116472704223
 20
6326.721466849146
 30
0.0
 40
3.5
  0
CIRCLE
  5
236
330
A
100
AcDbEntity
  8
1
  6
Continuous
 62
     6
100
AcDbCircle
 10
153.116472704223
 20
6301.721466849145
 30
0.0
 40
3.5
  0
CIRCLE
  5
235
330
A
100
AcDbEntity
  8
1
  6
Continuous
 62
     6
100
AcDbCircle
 10
133.116472704223
 20
6301.721466849145
 30
0.0
 40
3.5
  0
CIRCLE
  5
234
330
A
100
AcDbEntity
  8
1
  6
Continuous
 62
     3
100
AcDbCircle
 10
466.4050371777149
 20
6453.132013604239
 30
0.0
 40
8.75
  0
CIRCLE
  5
233
330
A
100
AcDbEntity
  8
1
  6
Continuous
 62
     3
100
AcDbCircle
 10
636.405037177715
 20
6453.132013604239
 30
0.0
 40
8.75
  0
CIRCLE
  5
232
330
A
100
AcDbEntity
  8
1
  6
Continuous
 62
     3
100
AcDbCircle
 10
331.405037177715
 20
6453.132013604239
 30
0.0
 40
8.75
  0
CIRCLE
  5
231
330
A
100
AcDbEntity
  8
1
  6
Continuous
 62
     3
100
AcDbCircle
 10
636.405037177715
 20
6705.893512476077
 30
0.0
 40
8.75
  0
CIRCLE
  5
230
330
A
100
AcDbEntity
  8
1
  6
Continuous
 62
     3
100
AcDbCircle
 10
636.405037177714
 20
6535.893512476079
 30
0.0
 40
8.749999999997999
  0
CIRCLE
  5
22F
330
A
100
AcDbEntity
  8
1
  6
DOTTED
 62
     1
100
AcDbCircle
 10
636.405037177715
 20
6670.89351247608
 30
0.0
 40
8.750000000001
  0
ARC
  5
22E
330
A
100
AcDbEntity
  8
1
  6
Continuous
 62
     3
100
AcDbCircle
 10
143.116472704223
 20
6354.221466849145
 30
0.0
 40
9.999999999998999
100
AcDbArc
 50
-124.403401743824
 51
-55.596598256175
  0
ARC
  5
22D
330
A
100
AcDbEntity
  8
1
  6
Continuous
 62
     3
100
AcDbCircle
 10
93.116472704223
 20
6364.221466849145
 30
0.0
 40
10.000000000002
100
AcDbArc
 50
55.59659825618701
 51
-145.596598256189
  0
ARC
  5
22C
330
A
100
AcDbEntity
  8
1
  6
Continuous
 62
     3
100
AcDbCircle
 10
103.116472704223
 20
6314.221466849145
 30
0.0
 40
9.999999999998999
100
AcDbArc
 50
-34.40340174380999
 51
34.403401743824
  0
ARC
  5
22B
330
A
100
AcDbEntity
  8
1
  6
Continuous
 62
     3
100
AcDbCircle
 10
93.116472704223
 20
6264.221466849146
 30
0.0
 40
10.000000000001
100
AcDbArc
 50
145.596598256176
 51
-55.596598256175
  0
ARC
  5
22A
330
A
100
AcDbEntity
  8
1
  6
Continuous
 62
     3
100
AcDbCircle
 10
143.116472704223
 20
6274.221466849144
 30
0.0
 40
10.000000000002
100
AcDbArc
 50
55.59659825618701
 51
124.403401743812
  0
ARC
  5
229
330
A
100
AcDbEntity
  8
1
  6
Continuous
 62
     3
100
AcDbCircle
 10
193.116472704223
 20
6264.221466849146
 30
0.0
 40
9.999999999998999
100
AcDbArc
 50
-124.403401743824
 51
34.403401743824
  0
ARC
  5
228
330
A
100
AcDbEntity
  8
1
  6
Continuous
 62
     3
100
AcDbCircle
 10
193.116472704223
 20
6364.221466849145
 30
0.0
 40
9.999999999998999
100
AcDbArc
 50
-34.40340174380999
 51
124.403401743812
  0
ARC
  5
227
330
A
100
AcDbEntity
  8
1
  6
Continuous
 62
     3
100
AcDbCircle
 10
183.116472704223
 20
6314.221466849145
 30
0.0
 40
10.000000000001
100
AcDbArc
 50
145.596598256176
 51
-145.596598256189
  0
ARC
  5
226
330
A
100
AcDbEntity
  8
1
  6
Continuous
 62
     3
100
AcDbCircle
 10
298.905037177715
 20
6314.221466849145
 30
0.0
 40
19.5
100
AcDbArc
 50
63.823047828333
 51
90.0
  0
ARC
  5
225
330
A
100
AcDbEntity
  8
1
  6
Continuous
 62
     3
100
AcDbCircle
 10
298.905037177715
 20
6314.221466849145
 30
0.0
 40
19.5
100
AcDbArc
 50
-63.823047828333
 51
0.0
  0
ARC
  5
224
330
A
100
AcDbEntity
  8
1
  6
Continuous
 62
     3
100
AcDbCircle
 10
298.905037177715
 20
6314.221466849145
 30
0.0
 40
19.5
100
AcDbArc
 50
0.0
 51
63.823047828333
  0
ARC
  5
223
330
A
100
AcDbEntity
  8
1
  6
Continuous
 62
     3
100
AcDbCircle
 10
298.905037177715
 20
6314.221466849145
 30
0.0
 40
19.5
100
AcDbArc
 50
-90.0
 51
-63.823047828333
  0
ARC
  5
222
330
A
100
AcDbEntity
  8
1
  6
Continuous
 62
     3
100
AcDbCircle
 10
331.405037177715
 20
6298.940216849145
 30
0.0
 40
38.78125
100
AcDbArc
 50
76.960396496686
 51
103.039603503314
  0
ARC
  5
221
330
A
100
AcDbEntity
  8
1
  6
Continuous
 62
     3
100
AcDbCircle
 10
466.4050371777149
 20
6326.440216849145
 30
0.0
 40
38.78125
100
AcDbArc
 50
76.960396496686
 51
103.039603503314
  0
ARC
  5
220
330
A
100
AcDbEntity
  8
1
  6
Continuous
 62
     3
100
AcDbCircle
 10
636.405037177715
 20
6326.440216849145
 30
0.0
 40
38.78125
100
AcDbArc
 50
76.960396496686
 51
103.039603503314
  0
ARC
  5
21F
330
A
100
AcDbEntity
  8
1
  6
Continuous
 62
     3
100
AcDbCircle
 10
537.905037177715
 20
6349.721466849145
 30
0.0
 40
3.5
100
AcDbArc
 50
90.0
 51
-90.0
  0
ARC
  5
21E
330
A
100
AcDbEntity
  8
1
  6
Continuous
 62
     3
100
AcDbCircle
 10
564.905037177715
 20
6349.721466849145
 30
0.0
 40
3.5
100
AcDbArc
 50
-90.0
 51
90.0
  0
ARC
  5
21D
330
A
100
AcDbEntity
  8
1
  6
Continuous
 62
     3
100
AcDbCircle
 10
587.905037177715
 20
6349.721466849145
 30
0.0
 40
3.5
100
AcDbArc
 50
90.0
 51
-90.0
  0
ARC
  5
21C
330
A
100
AcDbEntity
  8
1
  6
Continuous
 62
     3
100
AcDbCircle
 10
614.905037177715
 20
6349.721466849145
 30
0.0
 40
3.5
100
AcDbArc
 50
-90.0
 51
90.0
  0
ARC
  5
21B
330
A
100
AcDbEntity
  8
1
  6
Continuous
 62
     3
100
AcDbCircle
 10
487.9050371777149
 20
6349.721466849145
 30
0.0
 40
3.5
100
AcDbArc
 50
90.0
 51
-90.0
  0
ARC
  5
21A
330
A
100
AcDbEntity
  8
1
  6
Continuous
 62
     3
100
AcDbCircle
 10
514.905037177715
 20
6349.721466849145
 30
0.0
 40
3.5
100
AcDbArc
 50
-90.0
 51
90.0
  0
ARC
  5
219
330
A
100
AcDbEntity
  8
1
  6
Continuous
 62
     3
100
AcDbCircle
 10
514.905037177715
 20
6278.721466849147
 30
0.0
 40
3.5
100
AcDbArc
 50
-90.0
 51
90.0
  0
ARC
  5
218
330
A
100
AcDbEntity
  8
1
  6
DOTTED
 62
     1
100
AcDbCircle
 10
487.9050371777149
 20
6278.721466849147
 30
0.0
 40
3.5
100
AcDbArc
 50
-154.623066474815
 51
-90.0
  0
ARC
  5
217
330
A
100
AcDbEntity
  8
1
  6
Continuous
 62
     3
100
AcDbCircle
 10
614.905037177715
 20
6278.721466849147
 30
0.0
 40
3.5
100
AcDbArc
 50
-25.376933525185
 51
90.0
  0
ARC
  5
216
330
A
100
AcDbEntity
  8
1
  6
Continuous
 62
     3
100
AcDbCircle
 10
587.905037177715
 20
6278.721466849147
 30
0.0
 40
3.5
100
AcDbArc
 50
90.0
 51
-90.0
  0
ARC
  5
215
330
A
100
AcDbEntity
  8
1
  6
Continuous
 62
     3
100
AcDbCircle
 10
564.905037177715
 20
6278.721466849147
 30
0.0
 40
3.5
100
AcDbArc
 50
-90.0
 51
90.0
  0
ARC
  5
214
330
A
100
AcDbEntity
  8
1
  6
Continuous
 62
     3
100
AcDbCircle
 10
537.905037177715
 20
6278.721466849147
 30
0.0
 40
3.5
100
AcDbArc
 50
90.0
 51
-90.0
  0
ARC
  5
213
330
A
100
AcDbEntity
  8
1
  6
DOTTED
 62
     1
100
AcDbCircle
 10
614.905037177715
 20
6278.721466849147
 30
0.0
 40
3.5
100
AcDbArc
 50
-90.0
 51
-25.376933525185
  0
ARC
  5
212
330
A
100
AcDbEntity
  8
1
  6
Continuous
 62
     3
100
AcDbCircle
 10
487.9050371777149
 20
6278.721466849147
 30
0.0
 40
3.5
100
AcDbArc
 50
90.0
 51
-154.623066474815
  0
ARC
  5
211
330
A
100
AcDbEntity
  8
1
  6
Continuous
 62
     3
100
AcDbCircle
 10
466.4050371777149
 20
6453.132013604239
 30
0.0
 40
11.0
100
AcDbArc
 50
90.0
 51
-90.0
  0
ARC
  5
210
330
A
100
AcDbEntity
  8
1
  6
DOTTED
 62
     1
100
AcDbCircle
 10
466.4050371777149
 20
6453.132013604239
 30
0.0
 40
11.0
100
AcDbArc
 50
-90.0
 51
90.0
  0
ARC
  5
20F
330
A
100
AcDbEntity
  8
1
  6
DOTTED
 62
     1
100
AcDbCircle
 10
636.405037177715
 20
6453.132013604239
 30
0.0
 40
11.0
100
AcDbArc
 50
89.99999999999001
 51
-90.0
  0
ARC
  5
20E
330
A
100
AcDbEntity
  8
1
  6
Continuous
 62
     3
100
AcDbCircle
 10
331.405037177715
 20
6453.132013604239
 30
0.0
 40
11.0
100
AcDbArc
 50
90.0
 51
-90.0
  0
ARC
  5
20D
330
A
100
AcDbEntity
  8
1
  6
DOTTED
 62
     1
100
AcDbCircle
 10
331.405037177715
 20
6453.132013604239
 30
0.0
 40
11.0
100
AcDbArc
 50
-90.0
 51
90.0
  0
ARC
  5
20C
330
A
100
AcDbEntity
  8
1
  6
Continuous
 62
     3
100
AcDbCircle
 10
636.405037177715
 20
6453.132013604239
 30
0.0
 40
11.0
100
AcDbArc
 50
4.309999999998999
 51
89.99999999999001
  0
ARC
  5
20B
330
A
100
AcDbEntity
  8
1
  6
Continuous
 62
     3
100
AcDbCircle
 10
636.405037177715
 20
6453.132013604239
 30
0.0
 40
11.0
100
AcDbArc
 50
-89.99999999999399
 51
4.309999999998999
  0
ARC
  5
20A
330
A
100
AcDbEntity
  8
1
  6
Continuous
 62
     3
100
AcDbCircle
 10
636.405037177715
 20
6705.893512476077
 30
0.0
 40
11.0
100
AcDbArc
 50
0.000000000005
 51
94.31
  0
ARC
  5
209
330
A
100
AcDbEntity
  8
1
  6
Continuous
 62
     3
100
AcDbCircle
 10
636.405037177715
 20
6705.893512476077
 30
0.0
 40
11.0
100
AcDbArc
 50
94.31
 51
179.99999999999
  0
ARC
  5
208
330
A
100
AcDbEntity
  8
1
  6
DOTTED
 62
     1
100
AcDbCircle
 10
636.405037177715
 20
6670.89351247608
 30
0.0
 40
11.0
100
AcDbArc
 50
4.309999999995
 51
180.0
  0
ARC
  5
207
330
A
100
AcDbEntity
  8
1
  6
DOTTED
 62
     1
100
AcDbCircle
 10
636.405037177715
 20
6705.893512476077
 30
0.0
 40
11.0
100
AcDbArc
 50
179.99999999999
 51
-90.0
  0
ARC
  5
206
330
A
100
AcDbEntity
  8
1
  6
Continuous
 62
     3
100
AcDbCircle
 10
636.405037177714
 20
6535.893512476079
 30
0.0
 40
11.0
100
AcDbArc
 50
-179.999999999995
 51
0.0
  0
ARC
  5
205
330
A
100
AcDbEntity
  8
1
  6
DOTTED
 62
     1
100
AcDbCircle
 10
636.405037177715
 20
6670.89351247608
 30
0.0
 40
11.0
100
AcDbArc
 50
-90.0
 51
4.309999999995
  0
LINE
  5
204
330
A
100
AcDbEntity
  8
1
  6
DOT_CENTER
 62
     1
100
AcDbLine
 10
671.097021577937
 20
6453.132013604239
 30
0.0
 11
254.788693145547
 21
6453.132013604239
 31
0.0
  0
LINE
  5
203
330
A
100
AcDbEntity
  8
1
  6
Continuous
 62
     3
100
AcDbLine
 10
355.405037177715
 20
6306.721466849145
 30
0.0
 11
355.405037177715
 21
6321.721466849145
 31
0.0
  0
LINE
  5
202
330
A
100
AcDbEntity
  8
1
  6
Continuous
 62
     3
100
AcDbLine
 10
379.405037177715
 20
6303.721466849145
 30
0.0
 11
358.405037177715
 21
6303.721466849145
 31
0.0
  0
LINE
  5
201
330
A
100
AcDbEntity
  8
1
  6
Continuous
 62
     3
100
AcDbLine
 10
382.405037177715
 20
6321.721466849145
 30
0.0
 11
382.405037177715
 21
6306.721466849145
 31
0.0
  0
LINE
  5
200
330
A
100
AcDbEntity
  8
1
  6
Continuous
 62
     3
100
AcDbLine
 10
358.405037177715
 20
6324.721466849145
 30
0.0
 11
379.405037177715
 21
6324.721466849145
 31
0.0
  0
LINE
  5
1FF
330
A
100
AcDbEntity
  8
1
  6
Continuous
 62
     3
100
AcDbLine
 10
390.405037177715
 20
6306.721466849145
 30
0.0
 11
390.405037177715
 21
6321.721466849145
 31
0.0
  0
LINE
  5
1FE
330
A
100
AcDbEntity
  8
1
  6
Continuous
 62
     3
100
AcDbLine
 10
414.4050371777149
 20
6303.721466849145
 30
0.0
 11
393.405037177715
 21
6303.721466849145
 31
0.0
  0
LINE
  5
1FD
330
A
100
AcDbEntity
  8
1
  6
Continuous
 62
     3
100
AcDbLine
 10
417.4050371777149
 20
6321.721466849145
 30
0.0
 11
417.4050371777149
 21
6306.721466849145
 31
0.0
  0
LINE
  5
1FC
330
A
100
AcDbEntity
  8
1
  6
Continuous
 62
     3
100
AcDbLine
 10
393.405037177715
 20
6324.721466849145
 30
0.0
 11
414.4050371777149
 21
6324.721466849145
 31
0.0
  0
LINE
  5
1FB
330
A
100
AcDbEntity
  8
1
  6
DOTTED
 62
     1
100
AcDbLine
 10
362.405037177715
 20
6291.721466849145
 30
0.0
 11
352.405037177715
 21
6291.721466849145
 31
0.0
  0
LINE
  5
1FA
330
A
100
AcDbEntity
  8
1
  6
Continuous
 62
     3
100
AcDbLine
 10
352.405037177715
 20
6291.721466849145
 30
0.0
 11
352.405037177715
 21
6299.221466849145
 31
0.0
  0
LINE
  5
1F9
330
A
100
AcDbEntity
  8
1
  6
Continuous
 62
     3
100
AcDbLine
 10
362.405037177715
 20
6291.721466849145
 30
0.0
 11
362.405037177715
 21
6269.221466849145
 31
0.0
  0
LINE
  5
1F8
330
A
100
AcDbEntity
  8
1
  6
Continuous
 62
     3
100
AcDbLine
 10
352.405037177715
 20
6291.721466849145
 30
0.0
 11
326.405037177715
 21
6291.721466849145
 31
0.0
  0
LINE
  5
1F7
330
A
100
AcDbEntity
  8
1
  6
Continuous
 62
     3
100
AcDbLine
 10
457.6550371777149
 20
6291.721466849145
 30
0.0
 11
362.405037177715
 21
6291.721466849145
 31
0.0
  0
LINE
  5
1F6
330
A
100
AcDbEntity
  8
1
  6
Continuous
 62
     3
100
AcDbLine
 10
352.405037177715
 20
6299.221466849145
 30
0.0
 11
352.405037177715
 21
6303.221466849145
 31
0.0
  0
LINE
  5
1F5
330
A
100
AcDbEntity
  8
1
  6
Continuous
 62
     3
100
AcDbLine
 10
362.405037177715
 20
6299.221466849145
 30
0.0
 11
362.405037177715
 21
6291.721466849145
 31
0.0
  0
LINE
  5
1F4
330
A
100
AcDbEntity
  8
1
  6
DOT_CENTER
 62
     1
100
AcDbLine
 10
331.405037177715
 20
6329.221466849145
 30
0.0
 11
331.405037177715
 21
6282.654286001584
 31
0.0
  0
LINE
  5
1F3
330
A
100
AcDbEntity
  8
1
  6
Continuous
 62
     3
100
AcDbLine
 10
743.764700326017
 20
6376.721466849145
 30
0.0
 11
830.764700326017
 21
6376.721466849145
 31
0.0
  0
LINE
  5
1F2
330
A
100
AcDbEntity
  8
1
  6
Continuous
 62
     3
100
AcDbLine
 10
834.7647003260169
 20
6372.721466849146
 30
0.0
 11
834.7647003260169
 21
6255.721466849145
 31
0.0
  0
LINE
  5
1F1
330
A
100
AcDbEntity
  8
1
  6
Continuous
 62
     3
100
AcDbLine
 10
830.764700326017
 20
6251.721466849145
 30
0.0
 11
743.764700326017
 21
6251.721466849145
 31
0.0
  0
LINE
  5
1F0
330
A
100
AcDbEntity
  8
1
  6
Continuous
 62
     3
100
AcDbLine
 10
739.7647003260169
 20
6255.721466849145
 30
0.0
 11
739.7647003260169
 21
6372.721466849146
 31
0.0
  0
LINE
  5
1EF
330
A
100
AcDbEntity
  8
1
  6
DOT_CENTER
 62
     1
100
AcDbLine
 10
752.2647003260169
 20
6371.589467458885
 30
0.0
 11
752.2647003260169
 21
6356.634469409806
 31
0.0
  0
LINE
  5
1EE
330
A
100
AcDbEntity
  8
1
  6
DOT_CENTER
 62
     1
100
AcDbLine
 10
744.761755352322
 20
6364.221466849145
 30
0.0
 11
759.837358224381
 21
6364.221466849145
 31
0.0
  0
LINE
  5
1ED
330
A
100
AcDbEntity
  8
1
  6
DOT_CENTER
 62
     1
100
AcDbLine
 10
814.692042427653
 20
6364.221466849145
 30
0.0
 11
829.767645299713
 21
6364.221466849145
 31
0.0
  0
LINE
  5
1EC
330
A
100
AcDbEntity
  8
1
  6
DOT_CENTER
 62
     1
100
AcDbLine
 10
822.2647003260169
 20
6356.634469409806
 30
0.0
 11
822.2647003260169
 21
6371.589467458885
 31
0.0
  0
LINE
  5
1EB
330
A
100
AcDbEntity
  8
1
  6
DOT_CENTER
 62
     1
100
AcDbLine
 10
822.2647003260169
 20
6256.853466239405
 30
0.0
 11
822.2647003260169
 21
6271.808464288484
 31
0.0
  0
LINE
  5
1EA
330
A
100
AcDbEntity
  8
1
  6
DOT_CENTER
 62
     1
100
AcDbLine
 10
829.767645299713
 20
6264.221466849146
 30
0.0
 11
814.692042427653
 21
6264.221466849146
 31
0.0
  0
LINE
  5
1E9
330
A
100
AcDbEntity
  8
1
  6
DOT_CENTER
 62
     1
100
AcDbLine
 10
759.837358224381
 20
6264.221466849146
 30
0.0
 11
744.761755352322
 21
6264.221466849146
 31
0.0
  0
LINE
  5
1E8
330
A
100
AcDbEntity
  8
1
  6
DOT_CENTER
 62
     1
100
AcDbLine
 10
752.2647003260169
 20
6271.808464288484
 30
0.0
 11
752.2647003260169
 21
6256.853466239405
 31
0.0
  0
LINE
  5
1E7
330
A
100
AcDbEntity
  8
1
  6
DOT_CENTER
 62
     1
100
AcDbLine
 10
731.584169436448
 20
6314.221466849145
 30
0.0
 11
846.2141161626961
 21
6314.221466849145
 31
0.0
  0
LINE
  5
1E6
330
A
100
AcDbEntity
  8
1
  6
DOT_CENTER
 62
     1
100
AcDbLine
 10
787.2647003260169
 20
6386.009537443186
 30
0.0
 11
787.2647003260169
 21
6240.967564034465
 31
0.0
  0
LINE
  5
1E5
330
A
100
AcDbEntity
  8
1
  6
Continuous
 62
     6
100
AcDbLine
 10
771.7647003260169
 20
6343.721466849145
 30
0.0
 11
772.764700326017
 21
6343.721466849145
 31
0.0
  0
LINE
  5
1E4
330
A
100
AcDbEntity
  8
1
  6
Continuous
 62
     6
100
AcDbLine
 10
772.764700326017
 20
6343.721466849145
 30
0.0
 11
772.764700326017
 21
6342.721466849145
 31
0.0
  0
LINE
  5
1E3
330
A
100
AcDbEntity
  8
1
  6
Continuous
 62
     6
100
AcDbLine
 10
772.764700326017
 20
6339.721466849145
 30
0.0
 11
771.7647003260169
 21
6339.721466849145
 31
0.0
  0
LINE
  5
1E2
330
A
100
AcDbEntity
  8
1
  6
Continuous
 62
     6
100
AcDbLine
 10
771.7647003260169
 20
6339.721466849145
 30
0.0
 11
771.7647003260169
 21
6340.721466849146
 31
0.0
  0
LINE
  5
1E1
330
A
100
AcDbEntity
  8
1
  6
Continuous
 62
     6
100
AcDbLine
 10
770.2647003260169
 20
6342.221466849146
 30
0.0
 11
771.2647003260169
 21
6342.221466849146
 31
0.0
  0
LINE
  5
1E0
330
A
100
AcDbEntity
  8
1
  6
Continuous
 62
     6
100
AcDbLine
 10
774.2647003260169
 20
6342.221466849146
 30
0.0
 11
774.2647003260169
 21
6341.221466849145
 31
0.0
  0
LINE
  5
1DF
330
A
100
AcDbEntity
  8
1
  6
Continuous
 62
     6
100
AcDbLine
 10
774.2647003260169
 20
6341.221466849145
 30
0.0
 11
773.2647003260169
 21
6341.221466849145
 31
0.0
  0
LINE
  5
1DE
330
A
100
AcDbEntity
  8
1
  6
Continuous
 62
     6
100
AcDbLine
 10
770.2647003260169
 20
6341.221466849145
 30
0.0
 11
770.2647003260169
 21
6342.221466849146
 31
0.0
  0
LINE
  5
1DD
330
A
100
AcDbEntity
  8
1
  6
Continuous
 62
     6
100
AcDbLine
 10
771.7647003260169
 20
6342.721466849145
 30
0.0
 11
771.7647003260169
 21
6343.721466849145
 31
0.0
  0
LINE
  5
1DC
330
A
100
AcDbEntity
  8
1
  6
Continuous
 62
     6
100
AcDbLine
 10
773.2647003260169
 20
6342.221466849146
 30
0.0
 11
774.2647003260169
 21
6342.221466849146
 31
0.0
  0
LINE
  5
1DB
330
A
100
AcDbEntity
  8
1
  6
Continuous
 62
     6
100
AcDbLine
 10
771.2647003260169
 20
6341.221466849145
 30
0.0
 11
770.2647003260169
 21
6341.221466849145
 31
0.0
  0
LINE
  5
1DA
330
A
100
AcDbEntity
  8
1
  6
Continuous
 62
     6
100
AcDbLine
 10
772.764700326017
 20
6340.721466849146
 30
0.0
 11
772.764700326017
 21
6339.721466849145
 31
0.0
  0
LINE
  5
1D9
330
A
100
AcDbEntity
  8
1
  6
Continuous
 62
     6
100
AcDbLine
 10
801.7647003260169
 20
6339.721466849145
 30
0.0
 11
801.7647003260169
 21
6340.721466849146
 31
0.0
  0
LINE
  5
1D8
330
A
100
AcDbEntity
  8
1
  6
Continuous
 62
     6
100
AcDbLine
 10
804.2647003260169
 20
6341.221466849145
 30
0.0
 11
803.2647003260169
 21
6341.221466849145
 31
0.0
  0
LINE
  5
1D7
330
A
100
AcDbEntity
  8
1
  6
Continuous
 62
     6
100
AcDbLine
 10
800.264700326017
 20
6342.221466849146
 30
0.0
 11
801.264700326017
 21
6342.221466849146
 31
0.0
  0
LINE
  5
1D6
330
A
100
AcDbEntity
  8
1
  6
Continuous
 62
     6
100
AcDbLine
 10
802.7647003260169
 20
6343.721466849145
 30
0.0
 11
802.7647003260169
 21
6342.721466849145
 31
0.0
  0
LINE
  5
1D5
330
A
100
AcDbEntity
  8
1
  6
Continuous
 62
     6
100
AcDbLine
 10
804.2647003260169
 20
6342.221466849146
 30
0.0
 11
804.2647003260169
 21
6341.221466849145
 31
0.0
  0
LINE
  5
1D4
330
A
100
AcDbEntity
  8
1
  6
Continuous
 62
     6
100
AcDbLine
 10
801.264700326017
 20
6341.221466849145
 30
0.0
 11
800.264700326017
 21
6341.221466849145
 31
0.0
  0
LINE
  5
1D3
330
A
100
AcDbEntity
  8
1
  6
Continuous
 62
     6
100
AcDbLine
 10
800.264700326017
 20
6341.221466849145
 30
0.0
 11
800.264700326017
 21
6342.221466849146
 31
0.0
  0
LINE
  5
1D2
330
A
100
AcDbEntity
  8
1
  6
Continuous
 62
     6
100
AcDbLine
 10
803.2647003260169
 20
6342.221466849146
 30
0.0
 11
804.2647003260169
 21
6342.221466849146
 31
0.0
  0
LINE
  5
1D1
330
A
100
AcDbEntity
  8
1
  6
Continuous
 62
     6
100
AcDbLine
 10
802.7647003260169
 20
6340.721466849146
 30
0.0
 11
802.7647003260169
 21
6339.721466849145
 31
0.0
  0
LINE
  5
1D0
330
A
100
AcDbEntity
  8
1
  6
Continuous
 62
     6
100
AcDbLine
 10
802.7647003260169
 20
6339.721466849145
 30
0.0
 11
801.7647003260169
 21
6339.721466849145
 31
0.0
  0
LINE
  5
1CF
330
A
100
AcDbEntity
  8
1
  6
Continuous
 62
     6
100
AcDbLine
 10
801.7647003260169
 20
6342.721466849145
 30
0.0
 11
801.7647003260169
 21
6343.721466849145
 31
0.0
  0
LINE
  5
1CE
330
A
100
AcDbEntity
  8
1
  6
Continuous
 62
     6
100
AcDbLine
 10
801.7647003260169
 20
6343.721466849145
 30
0.0
 11
802.7647003260169
 21
6343.721466849145
 31
0.0
  0
LINE
  5
1CD
330
A
100
AcDbEntity
  8
1
  6
Continuous
 62
     6
100
AcDbLine
 10
802.7647003260169
 20
6284.721466849145
 30
0.0
 11
801.7647003260169
 21
6284.721466849145
 31
0.0
  0
LINE
  5
1CC
330
A
100
AcDbEntity
  8
1
  6
Continuous
 62
     6
100
AcDbLine
 10
801.7647003260169
 20
6284.721466849145
 30
0.0
 11
801.7647003260169
 21
6285.721466849145
 31
0.0
  0
LINE
  5
1CB
330
A
100
AcDbEntity
  8
1
  6
Continuous
 62
     6
100
AcDbLine
 10
801.7647003260169
 20
6288.721466849145
 30
0.0
 11
802.7647003260169
 21
6288.721466849145
 31
0.0
  0
LINE
  5
1CA
330
A
100
AcDbEntity
  8
1
  6
Continuous
 62
     6
100
AcDbLine
 10
802.7647003260169
 20
6288.721466849145
 30
0.0
 11
802.7647003260169
 21
6287.721466849145
 31
0.0
  0
LINE
  5
1C9
330
A
100
AcDbEntity
  8
1
  6
Continuous
 62
     6
100
AcDbLine
 10
804.2647003260169
 20
6286.221466849145
 30
0.0
 11
803.2647003260169
 21
6286.221466849145
 31
0.0
  0
LINE
  5
1C8
330
A
100
AcDbEntity
  8
1
  6
Continuous
 62
     6
100
AcDbLine
 10
800.264700326017
 20
6286.221466849145
 30
0.0
 11
800.264700326017
 21
6287.221466849145
 31
0.0
  0
LINE
  5
1C7
330
A
100
AcDbEntity
  8
1
  6
Continuous
 62
     6
100
AcDbLine
 10
800.264700326017
 20
6287.221466849145
 30
0.0
 11
801.264700326017
 21
6287.221466849145
 31
0.0
  0
LINE
  5
1C6
330
A
100
AcDbEntity
  8
1
  6
Continuous
 62
     6
100
AcDbLine
 10
804.2647003260169
 20
6287.221466849145
 30
0.0
 11
804.2647003260169
 21
6286.221466849145
 31
0.0
  0
LINE
  5
1C5
330
A
100
AcDbEntity
  8
1
  6
Continuous
 62
     6
100
AcDbLine
 10
802.7647003260169
 20
6285.721466849145
 30
0.0
 11
802.7647003260169
 21
6284.721466849145
 31
0.0
  0
LINE
  5
1C4
330
A
100
AcDbEntity
  8
1
  6
Continuous
 62
     6
100
AcDbLine
 10
801.264700326017
 20
6286.221466849145
 30
0.0
 11
800.264700326017
 21
6286.221466849145
 31
0.0
  0
LINE
  5
1C3
330
A
100
AcDbEntity
  8
1
  6
Continuous
 62
     6
100
AcDbLine
 10
803.2647003260169
 20
6287.221466849145
 30
0.0
 11
804.2647003260169
 21
6287.221466849145
 31
0.0
  0
LINE
  5
1C2
330
A
100
AcDbEntity
  8
1
  6
Continuous
 62
     6
100
AcDbLine
 10
801.7647003260169
 20
6287.721466849145
 30
0.0
 11
801.7647003260169
 21
6288.721466849145
 31
0.0
  0
LINE
  5
1C1
330
A
100
AcDbEntity
  8
1
  6
Continuous
 62
     6
100
AcDbLine
 10
772.764700326017
 20
6288.721466849145
 30
0.0
 11
772.764700326017
 21
6287.721466849145
 31
0.0
  0
LINE
  5
1C0
330
A
100
AcDbEntity
  8
1
  6
Continuous
 62
     6
100
AcDbLine
 10
770.2647003260169
 20
6287.221466849145
 30
0.0
 11
771.2647003260169
 21
6287.221466849145
 31
0.0
  0
LINE
  5
1BF
330
A
100
AcDbEntity
  8
1
  6
Continuous
 62
     6
100
AcDbLine
 10
774.2647003260169
 20
6286.221466849145
 30
0.0
 11
773.2647003260169
 21
6286.221466849145
 31
0.0
  0
LINE
  5
1BE
330
A
100
AcDbEntity
  8
1
  6
Continuous
 62
     6
100
AcDbLine
 10
771.7647003260169
 20
6284.721466849145
 30
0.0
 11
771.7647003260169
 21
6285.721466849145
 31
0.0
  0
LINE
  5
1BD
330
A
100
AcDbEntity
  8
1
  6
Continuous
 62
     6
100
AcDbLine
 10
770.2647003260169
 20
6286.221466849145
 30
0.0
 11
770.2647003260169
 21
6287.221466849145
 31
0.0
  0
LINE
  5
1BC
330
A
100
AcDbEntity
  8
1
  6
Continuous
 62
     6
100
AcDbLine
 10
773.2647003260169
 20
6287.221466849145
 30
0.0
 11
774.2647003260169
 21
6287.221466849145
 31
0.0
  0
LINE
  5
1BB
330
A
100
AcDbEntity
  8
1
  6
Continuous
 62
     6
100
AcDbLine
 10
774.2647003260169
 20
6287.221466849145
 30
0.0
 11
774.2647003260169
 21
6286.221466849145
 31
0.0
  0
LINE
  5
1BA
330
A
100
AcDbEntity
  8
1
  6
Continuous
 62
     6
100
AcDbLine
 10
771.2647003260169
 20
6286.221466849145
 30
0.0
 11
770.2647003260169
 21
6286.221466849145
 31
0.0
  0
LINE
  5
1B9
330
A
100
AcDbEntity
  8
1
  6
Continuous
 62
     6
100
AcDbLine
 10
771.7647003260169
 20
6287.721466849145
 30
0.0
 11
771.7647003260169
 21
6288.721466849145
 31
0.0
  0
LINE
  5
1B8
330
A
100
AcDbEntity
  8
1
  6
Continuous
 62
     6
100
AcDbLine
 10
771.7647003260169
 20
6288.721466849145
 30
0.0
 11
772.764700326017
 21
6288.721466849145
 31
0.0
  0
LINE
  5
1B7
330
A
100
AcDbEntity
  8
1
  6
Continuous
 62
     6
100
AcDbLine
 10
772.764700326017
 20
6285.721466849145
 30
0.0
 11
772.764700326017
 21
6284.721466849145
 31
0.0
  0
LINE
  5
1B6
330
A
100
AcDbEntity
  8
1
  6
Continuous
 62
     6
100
AcDbLine
 10
772.764700326017
 20
6284.721466849145
 30
0.0
 11
771.7647003260169
 21
6284.721466849145
 31
0.0
  0
LINE
  5
1B5
330
A
100
AcDbEntity
  8
1
  6
Continuous
 62
     3
100
AcDbLine
 10
187.466312796599
 20
6372.472266387269
 30
0.0
 11
148.766632611848
 21
6345.970667311025
 31
0.0
  0
LINE
  5
1B4
330
A
100
AcDbEntity
  8
1
  6
Continuous
 62
     3
100
AcDbLine
 10
137.466312796599
 20
6345.970667311025
 30
0.0
 11
98.766632611848
 21
6372.472266387269
 31
0.0
  0
LINE
  5
1B3
330
A
100
AcDbEntity
  8
1
  6
Continuous
 62
     3
100
AcDbLine
 10
84.865673166101
 20
6358.571306941523
 30
0.0
 11
111.367272242345
 21
6319.871626756771
 31
0.0
  0
LINE
  5
1B2
330
A
100
AcDbEntity
  8
1
  6
Continuous
 62
     3
100
AcDbLine
 10
111.367272242345
 20
6308.571306941523
 30
0.0
 11
84.865673166101
 21
6269.871626756772
 31
0.0
  0
LINE
  5
1B1
330
A
100
AcDbEntity
  8
1
  6
Continuous
 62
     3
100
AcDbLine
 10
98.766632611848
 20
6255.970667311025
 30
0.0
 11
137.466312796599
 21
6282.472266387269
 31
0.0
  0
LINE
  5
1B0
330
A
100
AcDbEntity
  8
1
  6
Continuous
 62
     3
100
AcDbLine
 10
148.766632611848
 20
6282.472266387269
 30
0.0
 11
187.466312796599
 21
6255.970667311025
 31
0.0
  0
LINE
  5
1AF
330
A
100
AcDbEntity
  8
1
  6
Continuous
 62
     3
100
AcDbLine
 10
201.367272242345
 20
6269.871626756772
 30
0.0
 11
174.865673166101
 21
6308.571306941523
 31
0.0
  0
LINE
  5
1AE
330
A
100
AcDbEntity
  8
1
  6
Continuous
 62
     3
100
AcDbLine
 10
174.865673166101
 20
6319.871626756771
 30
0.0
 11
201.367272242345
 21
6358.571306941523
 31
0.0
  0
LINE
  5
1AD
330
A
100
AcDbEntity
  8
1
  6
Continuous
 62
     3
100
AcDbLine
 10
189.716472704223
 20
6366.821466849146
 30
0.0
 11
196.516472704223
 21
6366.821466849146
 31
0.0
  0
LINE
  5
1AC
330
A
100
AcDbEntity
  8
1
  6
Continuous
 62
     3
100
AcDbLine
 10
196.516472704223
 20
6361.621466849147
 30
0.0
 11
189.716472704223
 21
6361.621466849147
 31
0.0
  0
LINE
  5
1AB
330
A
100
AcDbEntity
  8
1
  6
DOT_CENTER
 62
     1
100
AcDbLine
 10
184.571181043355
 20
6364.221466849145
 30
0.0
 11
201.940768077338
 21
6364.221466849145
 31
0.0
  0
LINE
  5
1AA
330
A
100
AcDbEntity
  8
1
  6
DOT_CENTER
 62
     1
100
AcDbLine
 10
189.716472704223
 20
6369.115564078996
 30
0.0
 11
189.716472704223
 21
6359.430703429744
 31
0.0
  0
LINE
  5
1A9
330
A
100
AcDbEntity
  8
1
  6
DOT_CENTER
 62
     1
100
AcDbLine
 10
196.516472704223
 20
6369.062928966776
 30
0.0
 11
196.516472704223
 21
6359.693878990865
 31
0.0
  0
LINE
  5
1A8
330
A
100
AcDbEntity
  8
1
  6
DOT_CENTER
 62
     1
100
AcDbLine
 10
193.116472704223
 20
6370.455296465904
 30
0.0
 11
193.116472704223
 21
6357.414157041985
 31
0.0
  0
LINE
  5
1A7
330
A
100
AcDbEntity
  8
1
  6
DOT_CENTER
 62
     1
100
AcDbLine
 10
88.708489509452
 20
6368.629450043918
 30
0.0
 11
97.929967630504
 21
6359.407971922867
 31
0.0
  0
LINE
  5
1A6
330
A
100
AcDbEntity
  8
1
  6
DOT_CENTER
 62
     1
100
AcDbLine
 10
92.09720506602399
 20
6370.049060599416
 30
0.0
 11
98.72212383726601
 21
6363.424141828172
 31
0.0
  0
LINE
  5
1A5
330
A
100
AcDbEntity
  8
1
  6
DOT_CENTER
 62
     1
100
AcDbLine
 10
87.251660309176
 20
6365.277953132126
 30
0.0
 11
94.09989094910802
 21
6358.429722492192
 31
0.0
  0
LINE
  5
1A4
330
A
100
AcDbEntity
  8
1
  6
DOT_CENTER
 62
     1
100
AcDbLine
 10
87.07403902360599
 20
6358.17903316853
 30
0.0
 11
99.35619180174601
 21
6370.46118594667
 31
0.0
  0
LINE
  5
1A3
330
A
100
AcDbEntity
  8
1
  6
Continuous
 62
     3
100
AcDbLine
 10
97.359113391343
 20
6364.787152274096
 30
0.0
 11
92.55078727927401
 21
6359.978826162028
 31
0.0
  0
LINE
  5
1A2
330
A
100
AcDbEntity
  8
1
  6
Continuous
 62
     3
100
AcDbLine
 10
88.87383201710399
 20
6363.655781424199
 30
0.0
 11
93.68215812917199
 21
6368.464107536264
 31
0.0
  0
LINE
  5
1A1
330
A
100
AcDbEntity
  8
1
  6
Continuous
 62
     3
100
AcDbLine
 10
101.373832017104
 20
6351.1557814242
 30
0.0
 11
106.182158129172
 21
6355.964107536264
 31
0.0
  0
LINE
  5
1A0
330
A
100
AcDbEntity
  8
1
  6
Continuous
 62
     3
100
AcDbLine
 10
109.859113391343
 20
6352.287152274096
 30
0.0
 11
105.050787279274
 21
6347.478826162028
 31
0.0
  0
LINE
  5
19F
330
A
100
AcDbEntity
  8
1
  6
DOT_CENTER
 62
     1
100
AcDbLine
 10
99.57403902360599
 20
6345.67903316853
 30
0.0
 11
111.856191801746
 21
6357.96118594667
 31
0.0
  0
LINE
  5
19E
330
A
100
AcDbEntity
  8
1
  6
DOT_CENTER
 62
     1
100
AcDbLine
 10
99.751660309176
 20
6352.777953132126
 30
0.0
 11
106.599890949108
 21
6345.929722492192
 31
0.0
  0
LINE
  5
19D
330
A
100
AcDbEntity
  8
1
  6
DOT_CENTER
 62
     1
100
AcDbLine
 10
104.597205066024
 20
6357.549060599415
 30
0.0
 11
111.222123837266
 21
6350.924141828173
 31
0.0
  0
LINE
  5
19C
330
A
100
AcDbEntity
  8
1
  6
DOT_CENTER
 62
     1
100
AcDbLine
 10
101.208489509452
 20
6356.129450043918
 30
0.0
 11
110.429967630504
 21
6346.907971922867
 31
0.0
  0
LINE
  5
19B
330
A
100
AcDbEntity
  8
1
  6
DOT_CENTER
 62
     1
100
AcDbLine
 10
180.616472704223
 20
6357.955296465904
 30
0.0
 11
180.616472704223
 21
6344.914157041985
 31
0.0
  0
LINE
  5
19A
330
A
100
AcDbEntity
  8
1
  6
DOT_CENTER
 62
     1
100
AcDbLine
 10
184.016472704223
 20
6356.562928966776
 30
0.0
 11
184.016472704223
 21
6347.193878990865
 31
0.0
  0
LINE
  5
199
330
A
100
AcDbEntity
  8
1
  6
DOT_CENTER
 62
     1
100
AcDbLine
 10
177.216472704223
 20
6356.615564078996
 30
0.0
 11
177.216472704223
 21
6346.930703429745
 31
0.0
  0
LINE
  5
198
330
A
100
AcDbEntity
  8
1
  6
DOT_CENTER
 62
     1
100
AcDbLine
 10
172.071181043355
 20
6351.721466849145
 30
0.0
 11
189.440768077338
 21
6351.721466849145
 31
0.0
  0
LINE
  5
197
330
A
100
AcDbEntity
  8
1
  6
Continuous
 62
     3
100
AcDbLine
 10
184.016472704223
 20
6349.121466849147
 30
0.0
 11
177.216472704223
 21
6349.121466849147
 31
0.0
  0
LINE
  5
196
330
A
100
AcDbEntity
  8
1
  6
Continuous
 62
     3
100
AcDbLine
 10
177.216472704223
 20
6354.321466849146
 30
0.0
 11
184.016472704223
 21
6354.321466849146
 31
0.0
  0
LINE
  5
195
330
A
100
AcDbEntity
  8
1
  6
DOT_CENTER
 62
     1
100
AcDbLine
 10
86.88264308746401
 20
6264.221466849146
 30
0.0
 11
99.92378251138299
 21
6264.221466849146
 31
0.0
  0
LINE
  5
194
330
A
100
AcDbEntity
  8
1
  6
DOT_CENTER
 62
     1
100
AcDbLine
 10
88.275010586594
 20
6267.621466849147
 30
0.0
 11
97.644060562504
 21
6267.621466849147
 31
0.0
  0
LINE
  5
193
330
A
100
AcDbEntity
  8
1
  6
DOT_CENTER
 62
     1
100
AcDbLine
 10
88.222375474373
 20
6260.821466849146
 30
0.0
 11
97.907236123624
 21
6260.821466849146
 31
0.0
  0
LINE
  5
192
330
A
100
AcDbEntity
  8
1
  6
DOT_CENTER
 62
     1
100
AcDbLine
 10
93.116472704223
 20
6255.676175188279
 30
0.0
 11
93.116472704223
 21
6273.045762222262
 31
0.0
  0
LINE
  5
191
330
A
100
AcDbEntity
  8
1
  6
Continuous
 62
     3
100
AcDbLine
 10
95.71647270422301
 20
6267.621466849147
 30
0.0
 11
95.71647270422301
 21
6260.821466849146
 31
0.0
  0
LINE
  5
190
330
A
100
AcDbEntity
  8
1
  6
Continuous
 62
     3
100
AcDbLine
 10
90.51647270422199
 20
6260.821466849146
 30
0.0
 11
90.51647270422199
 21
6267.621466849147
 31
0.0
  0
LINE
  5
18F
330
A
100
AcDbEntity
  8
1
  6
Continuous
 62
     3
100
AcDbLine
 10
103.016472704222
 20
6273.321466849147
 30
0.0
 11
103.016472704222
 21
6280.121466849147
 31
0.0
  0
LINE
  5
18E
330
A
100
AcDbEntity
  8
1
  6
Continuous
 62
     3
100
AcDbLine
 10
108.216472704223
 20
6280.121466849147
 30
0.0
 11
108.216472704223
 21
6273.321466849147
 31
0.0
  0
LINE
  5
18D
330
A
100
AcDbEntity
  8
1
  6
DOT_CENTER
 62
     1
100
AcDbLine
 10
105.616472704223
 20
6268.176175188279
 30
0.0
 11
105.616472704223
 21
6285.545762222263
 31
0.0
  0
LINE
  5
18C
330
A
100
AcDbEntity
  8
1
  6
DOT_CENTER
 62
     1
100
AcDbLine
 10
100.722375474373
 20
6273.321466849147
 30
0.0
 11
110.407236123624
 21
6273.321466849147
 31
0.0
  0
LINE
  5
18B
330
A
100
AcDbEntity
  8
1
  6
DOT_CENTER
 62
     1
100
AcDbLine
 10
100.775010586594
 20
6280.121466849147
 30
0.0
 11
110.144060562504
 21
6280.121466849147
 31
0.0
  0
LINE
  5
18A
330
A
100
AcDbEntity
  8
1
  6
DOT_CENTER
 62
     1
100
AcDbLine
 10
99.38264308746401
 20
6276.721466849146
 30
0.0
 11
112.423782511383
 21
6276.721466849146
 31
0.0
  0
LINE
  5
189
330
A
100
AcDbEntity
  8
1
  6
DOT_CENTER
 62
     1
100
AcDbLine
 10
171.965328198771
 20
6276.721466849146
 30
0.0
 11
188.114343545879
 21
6276.721466849146
 31
0.0
  0
LINE
  5
188
330
A
100
AcDbEntity
  8
1
  6
DOT_CENTER
 62
     1
100
AcDbLine
 10
184.755920000241
 20
6264.221466849146
 30
0.0
 11
201.047846987589
 21
6264.221466849146
 31
0.0
  0
LINE
  5
187
330
A
100
AcDbEntity
  8
1
  6
DOT_CENTER
 62
     1
100
AcDbLine
 10
193.116472704223
 20
6271.471855269485
 30
0.0
 11
193.116472704223
 21
6256.609044684537
 31
0.0
  0
LINE
  5
186
330
A
100
AcDbEntity
  8
1
  6
DOT_CENTER
 62
     1
100
AcDbLine
 10
180.616472704223
 20
6285.191372732515
 30
0.0
 11
180.616472704223
 21
6267.613240983004
 31
0.0
  0
LINE
  5
185
330
A
100
AcDbEntity
  8
1
  6
DOT_CENTER
 62
     1
100
AcDbLine
 10
93.116472704223
 20
6371.616860826637
 30
0.0
 11
93.116472704223
 21
6355.233244880235
 31
0.0
  0
LINE
  5
184
330
A
100
AcDbEntity
  8
1
  6
DOT_CENTER
 62
     1
100
AcDbLine
 10
84.92127496559501
 20
6364.221466849145
 30
0.0
 11
102.02902863339
 21
6364.221466849145
 31
0.0
  0
LINE
  5
183
330
A
100
AcDbEntity
  8
1
  6
DOT_CENTER
 62
     1
100
AcDbLine
 10
95.33075471054999
 20
6351.721466849145
 30
0.0
 11
114.610921542509
 21
6351.721466849145
 31
0.0
  0
LINE
  5
182
330
A
100
AcDbEntity
  8
1
  6
DOT_CENTER
 62
     1
100
AcDbLine
 10
105.616472704223
 20
6360.392726145125
 30
0.0
 11
105.616472704223
 21
6342.741869186286
 31
0.0
  0
LINE
  5
181
330
A
100
AcDbEntity
  8
1
  6
Continuous
 62
     6
100
AcDbLine
 10
133.616472704223
 20
6325.721466849145
 30
0.0
 11
133.616472704223
 21
6324.721466849145
 31
0.0
  0
LINE
  5
180
330
A
100
AcDbEntity
  8
1
  6
Continuous
 62
     6
100
AcDbLine
 10
132.116472704223
 20
6326.221466849145
 30
0.0
 11
131.116472704223
 21
6326.221466849145
 31
0.0
  0
LINE
  5
17F
330
A
100
AcDbEntity
  8
1
  6
Continuous
 62
     6
100
AcDbLine
 10
134.116472704223
 20
6327.221466849145
 30
0.0
 11
135.116472704223
 21
6327.221466849145
 31
0.0
  0
LINE
  5
17E
330
A
100
AcDbEntity
  8
1
  6
Continuous
 62
     6
100
AcDbLine
 10
132.616472704223
 20
6327.721466849145
 30
0.0
 11
132.616472704223
 21
6328.721466849145
 31
0.0
  0
LINE
  5
17D
330
A
100
AcDbEntity
  8
1
  6
Continuous
 62
     6
100
AcDbLine
 10
131.116472704223
 20
6326.221466849145
 30
0.0
 11
131.116472704223
 21
6327.221466849145
 31
0.0
  0
LINE
  5
17C
330
A
100
AcDbEntity
  8
1
  6
Continuous
 62
     6
100
AcDbLine
 10
135.116472704223
 20
6326.221466849145
 30
0.0
 11
134.116472704223
 21
6326.221466849145
 31
0.0
  0
LINE
  5
17B
330
A
100
AcDbEntity
  8
1
  6
Continuous
 62
     6
100
AcDbLine
 10
135.116472704223
 20
6327.221466849145
 30
0.0
 11
135.116472704223
 21
6326.221466849145
 31
0.0
  0
LINE
  5
17A
330
A
100
AcDbEntity
  8
1
  6
Continuous
 62
     6
100
AcDbLine
 10
131.116472704223
 20
6327.221466849145
 30
0.0
 11
132.116472704223
 21
6327.221466849145
 31
0.0
  0
LINE
  5
179
330
A
100
AcDbEntity
  8
1
  6
Continuous
 62
     6
100
AcDbLine
 10
132.616472704223
 20
6324.721466849145
 30
0.0
 11
132.616472704223
 21
6325.721466849145
 31
0.0
  0
LINE
  5
178
330
A
100
AcDbEntity
  8
1
  6
Continuous
 62
     6
100
AcDbLine
 10
133.616472704223
 20
6324.721466849145
 30
0.0
 11
132.616472704223
 21
6324.721466849145
 31
0.0
  0
LINE
  5
177
330
A
100
AcDbEntity
  8
1
  6
Continuous
 62
     6
100
AcDbLine
 10
133.616472704223
 20
6328.721466849145
 30
0.0
 11
133.616472704223
 21
6327.721466849145
 31
0.0
  0
LINE
  5
176
330
A
100
AcDbEntity
  8
1
  6
Continuous
 62
     6
100
AcDbLine
 10
132.616472704223
 20
6328.721466849145
 30
0.0
 11
133.616472704223
 21
6328.721466849145
 31
0.0
  0
LINE
  5
175
330
A
100
AcDbEntity
  8
1
  6
Continuous
 62
     6
100
AcDbLine
 10
152.616472704223
 20
6328.721466849145
 30
0.0
 11
153.616472704223
 21
6328.721466849145
 31
0.0
  0
LINE
  5
174
330
A
100
AcDbEntity
  8
1
  6
Continuous
 62
     6
100
AcDbLine
 10
152.616472704223
 20
6327.721466849145
 30
0.0
 11
152.616472704223
 21
6328.721466849145
 31
0.0
  0
LINE
  5
173
330
A
100
AcDbEntity
  8
1
  6
Continuous
 62
     6
100
AcDbLine
 10
153.616472704223
 20
6324.721466849145
 30
0.0
 11
152.616472704223
 21
6324.721466849145
 31
0.0
  0
LINE
  5
172
330
A
100
AcDbEntity
  8
1
  6
Continuous
 62
     6
100
AcDbLine
 10
153.616472704223
 20
6325.721466849145
 30
0.0
 11
153.616472704223
 21
6324.721466849145
 31
0.0
  0
LINE
  5
171
330
A
100
AcDbEntity
  8
1
  6
Continuous
 62
     6
100
AcDbLine
 10
154.116472704223
 20
6327.221466849145
 30
0.0
 11
155.116472704223
 21
6327.221466849145
 31
0.0
  0
LINE
  5
170
330
A
100
AcDbEntity
  8
1
  6
Continuous
 62
     6
100
AcDbLine
 10
151.116472704223
 20
6326.221466849145
 30
0.0
 11
151.116472704223
 21
6327.221466849145
 31
0.0
  0
LINE
  5
16F
330
A
100
AcDbEntity
  8
1
  6
Continuous
 62
     6
100
AcDbLine
 10
152.116472704223
 20
6326.221466849145
 30
0.0
 11
151.116472704223
 21
6326.221466849145
 31
0.0
  0
LINE
  5
16E
330
A
100
AcDbEntity
  8
1
  6
Continuous
 62
     6
100
AcDbLine
 10
155.116472704223
 20
6327.221466849145
 30
0.0
 11
155.116472704223
 21
6326.221466849145
 31
0.0
  0
LINE
  5
16D
330
A
100
AcDbEntity
  8
1
  6
Continuous
 62
     6
100
AcDbLine
 10
153.616472704223
 20
6328.721466849145
 30
0.0
 11
153.616472704223
 21
6327.721466849145
 31
0.0
  0
LINE
  5
16C
330
A
100
AcDbEntity
  8
1
  6
Continuous
 62
     6
100
AcDbLine
 10
151.116472704223
 20
6327.221466849145
 30
0.0
 11
152.116472704223
 21
6327.221466849145
 31
0.0
  0
LINE
  5
16B
330
A
100
AcDbEntity
  8
1
  6
Continuous
 62
     6
100
AcDbLine
 10
155.116472704223
 20
6326.221466849145
 30
0.0
 11
154.116472704223
 21
6326.221466849145
 31
0.0
  0
LINE
  5
16A
330
A
100
AcDbEntity
  8
1
  6
Continuous
 62
     6
100
AcDbLine
 10
152.616472704223
 20
6324.721466849145
 30
0.0
 11
152.616472704223
 21
6325.721466849145
 31
0.0
  0
LINE
  5
169
330
A
100
AcDbEntity
  8
1
  6
Continuous
 62
     6
100
AcDbLine
 10
152.616472704223
 20
6302.721466849146
 30
0.0
 11
152.616472704223
 21
6303.721466849145
 31
0.0
  0
LINE
  5
168
330
A
100
AcDbEntity
  8
1
  6
Continuous
 62
     6
100
AcDbLine
 10
154.116472704223
 20
6302.221466849145
 30
0.0
 11
155.116472704223
 21
6302.221466849145
 31
0.0
  0
LINE
  5
167
330
A
100
AcDbEntity
  8
1
  6
Continuous
 62
     6
100
AcDbLine
 10
152.116472704223
 20
6301.221466849145
 30
0.0
 11
151.116472704223
 21
6301.221466849145
 31
0.0
  0
LINE
  5
166
330
A
100
AcDbEntity
  8
1
  6
Continuous
 62
     6
100
AcDbLine
 10
153.616472704223
 20
6300.721466849145
 30
0.0
 11
153.616472704223
 21
6299.721466849145
 31
0.0
  0
LINE
  5
165
330
A
100
AcDbEntity
  8
1
  6
Continuous
 62
     6
100
AcDbLine
 10
155.116472704223
 20
6302.221466849145
 30
0.0
 11
155.116472704223
 21
6301.221466849145
 31
0.0
  0
LINE
  5
164
330
A
100
AcDbEntity
  8
1
  6
Continuous
 62
     6
100
AcDbLine
 10
151.116472704223
 20
6302.221466849145
 30
0.0
 11
152.116472704223
 21
6302.221466849145
 31
0.0
  0
LINE
  5
163
330
A
100
AcDbEntity
  8
1
  6
Continuous
 62
     6
100
AcDbLine
 10
151.116472704223
 20
6301.221466849145
 30
0.0
 11
151.116472704223
 21
6302.221466849145
 31
0.0
  0
LINE
  5
162
330
A
100
AcDbEntity
  8
1
  6
Continuous
 62
     6
100
AcDbLine
 10
155.116472704223
 20
6301.221466849145
 30
0.0
 11
154.116472704223
 21
6301.221466849145
 31
0.0
  0
LINE
  5
161
330
A
100
AcDbEntity
  8
1
  6
Continuous
 62
     6
100
AcDbLine
 10
153.616472704223
 20
6303.721466849145
 30
0.0
 11
153.616472704223
 21
6302.721466849146
 31
0.0
  0
LINE
  5
160
330
A
100
AcDbEntity
  8
1
  6
Continuous
 62
     6
100
AcDbLine
 10
152.616472704223
 20
6303.721466849145
 30
0.0
 11
153.616472704223
 21
6303.721466849145
 31
0.0
  0
LINE
  5
15F
330
A
100
AcDbEntity
  8
1
  6
Continuous
 62
     6
100
AcDbLine
 10
152.616472704223
 20
6299.721466849145
 30
0.0
 11
152.616472704223
 21
6300.721466849145
 31
0.0
  0
LINE
  5
15E
330
A
100
AcDbEntity
  8
1
  6
Continuous
 62
     6
100
AcDbLine
 10
153.616472704223
 20
6299.721466849145
 30
0.0
 11
152.616472704223
 21
6299.721466849145
 31
0.0
  0
LINE
  5
15D
330
A
100
AcDbEntity
  8
1
  6
Continuous
 62
     6
100
AcDbLine
 10
133.616472704223
 20
6299.721466849145
 30
0.0
 11
132.616472704223
 21
6299.721466849145
 31
0.0
  0
LINE
  5
15C
330
A
100
AcDbEntity
  8
1
  6
Continuous
 62
     6
100
AcDbLine
 10
133.616472704223
 20
6300.721466849145
 30
0.0
 11
133.616472704223
 21
6299.721466849145
 31
0.0
  0
LINE
  5
15B
330
A
100
AcDbEntity
  8
1
  6
Continuous
 62
     6
100
AcDbLine
 10
132.616472704223
 20
6303.721466849145
 30
0.0
 11
133.616472704223
 21
6303.721466849145
 31
0.0
  0
LINE
  5
15A
330
A
100
AcDbEntity
  8
1
  6
Continuous
 62
     6
100
AcDbLine
 10
132.616472704223
 20
6302.721466849146
 30
0.0
 11
132.616472704223
 21
6303.721466849145
 31
0.0
  0
LINE
  5
159
330
A
100
AcDbEntity
  8
1
  6
Continuous
 62
     6
100
AcDbLine
 10
132.116472704223
 20
6301.221466849145
 30
0.0
 11
131.116472704223
 21
6301.221466849145
 31
0.0
  0
LINE
  5
158
330
A
100
AcDbEntity
  8
1
  6
Continuous
 62
     6
100
AcDbLine
 10
135.116472704223
 20
6302.221466849145
 30
0.0
 11
135.116472704223
 21
6301.221466849145
 31
0.0
  0
LINE
  5
157
330
A
100
AcDbEntity
  8
1
  6
Continuous
 62
     6
100
AcDbLine
 10
134.116472704223
 20
6302.221466849145
 30
0.0
 11
135.116472704223
 21
6302.221466849145
 31
0.0
  0
LINE
  5
156
330
A
100
AcDbEntity
  8
1
  6
Continuous
 62
     6
100
AcDbLine
 10
131.116472704223
 20
6301.221466849145
 30
0.0
 11
131.116472704223
 21
6302.221466849145
 31
0.0
  0
LINE
  5
155
330
A
100
AcDbEntity
  8
1
  6
Continuous
 62
     6
100
AcDbLine
 10
132.616472704223
 20
6299.721466849145
 30
0.0
 11
132.616472704223
 21
6300.721466849145
 31
0.0
  0
LINE
  5
154
330
A
100
AcDbEntity
  8
1
  6
Continuous
 62
     6
100
AcDbLine
 10
135.116472704223
 20
6301.221466849145
 30
0.0
 11
134.116472704223
 21
6301.221466849145
 31
0.0
  0
LINE
  5
153
330
A
100
AcDbEntity
  8
1
  6
Continuous
 62
     6
100
AcDbLine
 10
131.116472704223
 20
6302.221466849145
 30
0.0
 11
132.116472704223
 21
6302.221466849145
 31
0.0
  0
LINE
  5
152
330
A
100
AcDbEntity
  8
1
  6
Continuous
 62
     6
100
AcDbLine
 10
133.616472704223
 20
6303.721466849145
 30
0.0
 11
133.616472704223
 21
6302.721466849146
 31
0.0
  0
LINE
  5
151
330
A
100
AcDbEntity
  8
1
  6
DOT_CENTER
 62
     1
100
AcDbLine
 10
143.116472704223
 20
6381.542117410811
 30
0.0
 11
143.116472704223
 21
6244.95163971397
 31
0.0
  0
LINE
  5
150
330
A
100
AcDbEntity
  8
1
  6
DOT_CENTER
 62
     1
100
AcDbLine
 10
79.724883768303
 20
6314.221466849145
 30
0.0
 11
206.539502226404
 21
6314.221466849145
 31
0.0
  0
LINE
  5
14F
330
A
100
AcDbEntity
  8
1
  6
DOT_CENTER
 62
     1
100
AcDbLine
 10
283.405037177715
 20
6314.221466849145
 30
0.0
 11
674.022251049404
 21
6314.221466849145
 31
0.0
  0
LINE
  5
14E
330
A
100
AcDbEntity
  8
1
  6
DOT_CENTER
 62
     1
100
AcDbLine
 10
221.233818876525
 20
6314.221466849145
 30
0.0
 11
283.405037177715
 21
6314.221466849145
 31
0.0
  0
LINE
  5
14D
330
A
100
AcDbEntity
  8
1
  6
Continuous
 62
     3
100
AcDbLine
 10
298.905037177715
 20
6333.721466849145
 30
0.0
 11
270.905037177715
 21
6333.721466849145
 31
0.0
  0
LINE
  5
14C
330
A
100
AcDbEntity
  8
1
  6
Continuous
 62
     3
100
AcDbLine
 10
298.905037177715
 20
6294.721466849146
 30
0.0
 11
270.905037177715
 21
6294.721466849146
 31
0.0
  0
LINE
  5
14B
330
A
100
AcDbEntity
  8
1
  6
DOT_CENTER
 62
     1
100
AcDbLine
 10
298.905037177715
 20
6343.946082622595
 30
0.0
 11
298.905037177715
 21
6282.644864005655
 31
0.0
  0
LINE
  5
14A
330
A
100
AcDbEntity
  8
1
  6
Continuous
 62
     3
100
AcDbLine
 10
307.507362444757
 20
6331.721466849145
 30
0.0
 11
316.405037177715
 21
6331.721466849145
 31
0.0
  0
LINE
  5
149
330
A
100
AcDbEntity
  8
1
  6
Continuous
 62
     3
100
AcDbLine
 10
318.405037177715
 20
6329.721466849146
 30
0.0
 11
318.405037177715
 21
6298.721466849145
 31
0.0
  0
LINE
  5
148
330
A
100
AcDbEntity
  8
1
  6
Continuous
 62
     3
100
AcDbLine
 10
316.405037177715
 20
6296.721466849145
 30
0.0
 11
307.507362444757
 21
6296.721466849145
 31
0.0
  0
LINE
  5
147
330
A
100
AcDbEntity
  8
1
  6
Continuous
 62
     3
100
AcDbLine
 10
320.405037177715
 20
6322.221466849145
 30
0.0
 11
341.905037177715
 21
6322.221466849145
 31
0.0
  0
LINE
  5
146
330
A
100
AcDbEntity
  8
1
  6
Continuous
 62
     3
100
AcDbLine
 10
342.405037177715
 20
6321.721466849145
 30
0.0
 11
342.405037177715
 21
6306.721466849145
 31
0.0
  0
LINE
  5
145
330
A
100
AcDbEntity
  8
1
  6
Continuous
 62
     3
100
AcDbLine
 10
477.4050371777149
 20
6336.221466849146
 30
0.0
 11
477.4050371777149
 21
6292.221466849145
 31
0.0
  0
LINE
  5
144
330
A
100
AcDbEntity
  8
1
  6
Continuous
 62
     3
100
AcDbLine
 10
476.9050371777149
 20
6291.721466849145
 30
0.0
 11
475.1550371777149
 21
6291.721466849145
 31
0.0
  0
LINE
  5
143
330
A
100
AcDbEntity
  8
1
  6
Continuous
 62
     3
100
AcDbLine
 10
320.405037177715
 20
6292.221466849145
 30
0.0
 11
320.405037177715
 21
6303.721466849145
 31
0.0
  0
LINE
  5
142
330
A
100
AcDbEntity
  8
1
  6
Continuous
 62
     3
100
AcDbLine
 10
331.405037177715
 20
6329.221466849145
 30
0.0
 11
466.4050371777149
 21
6329.221466849145
 31
0.0
  0
LINE
  5
141
330
A
100
AcDbEntity
  8
1
  6
Continuous
 62
     3
100
AcDbLine
 10
466.4050371777149
 20
6299.221466849145
 30
0.0
 11
362.405037177715
 21
6299.221466849145
 31
0.0
  0
LINE
  5
140
330
A
100
AcDbEntity
  8
1
  6
Continuous
 62
     3
100
AcDbLine
 10
320.905037177715
 20
6324.221466849145
 30
0.0
 11
342.405037177715
 21
6324.221466849145
 31
0.0
  0
LINE
  5
13F
330
A
100
AcDbEntity
  8
1
  6
Continuous
 62
     3
100
AcDbLine
 10
344.405037177715
 20
6322.221466849145
 30
0.0
 11
344.405037177715
 21
6306.221466849144
 31
0.0
  0
LINE
  5
13E
330
A
100
AcDbEntity
  8
1
  6
Continuous
 62
     3
100
AcDbLine
 10
320.405037177715
 20
6324.721466849145
 30
0.0
 11
320.405037177715
 21
6336.221466849146
 31
0.0
  0
LINE
  5
13D
330
A
100
AcDbEntity
  8
1
  6
DOT_CENTER
 62
     1
100
AcDbLine
 10
331.405037177715
 20
6347.514449445176
 30
0.0
 11
331.405037177715
 21
6329.221466849145
 31
0.0
  0
LINE
  5
13C
330
A
100
AcDbEntity
  8
1
  6
Continuous
 62
     3
100
AcDbLine
 10
428.405037177715
 20
6324.721466849145
 30
0.0
 11
449.405037177715
 21
6324.721466849145
 31
0.0
  0
LINE
  5
13B
330
A
100
AcDbEntity
  8
1
  6
Continuous
 62
     3
100
AcDbLine
 10
452.4050371777149
 20
6321.721466849145
 30
0.0
 11
452.4050371777149
 21
6306.721466849145
 31
0.0
  0
LINE
  5
13A
330
A
100
AcDbEntity
  8
1
  6
Continuous
 62
     3
100
AcDbLine
 10
449.405037177715
 20
6303.721466849145
 30
0.0
 11
428.405037177715
 21
6303.721466849145
 31
0.0
  0
LINE
  5
139
330
A
100
AcDbEntity
  8
1
  6
Continuous
 62
     3
100
AcDbLine
 10
425.4050371777149
 20
6306.721466849145
 30
0.0
 11
425.4050371777149
 21
6321.721466849145
 31
0.0
  0
LINE
  5
138
330
A
100
AcDbEntity
  8
1
  6
Continuous
 62
     3
100
AcDbLine
 10
660.905037177715
 20
6376.721466849145
 30
0.0
 11
658.905037177715
 21
6376.721466849145
 31
0.0
  0
LINE
  5
137
330
A
100
AcDbEntity
  8
1
  6
Continuous
 62
     3
100
AcDbLine
 10
658.905037177715
 20
6376.721466849145
 30
0.0
 11
658.905037177715
 21
6364.221466849145
 31
0.0
  0
LINE
  5
136
330
A
100
AcDbEntity
  8
1
  6
Continuous
 62
     3
100
AcDbLine
 10
658.905037177715
 20
6251.721466849145
 30
0.0
 11
660.905037177715
 21
6251.721466849145
 31
0.0
  0
LINE
  5
135
330
A
100
AcDbEntity
  8
1
  6
Continuous
 62
     3
100
AcDbLine
 10
660.905037177715
 20
6251.721466849145
 30
0.0
 11
660.905037177715
 21
6376.721466849145
 31
0.0
  0
LINE
  5
134
330
A
100
AcDbEntity
  8
1
  6
Continuous
 62
     3
100
AcDbLine
 10
322.655037177715
 20
6324.221466849145
 30
0.0
 11
322.655037177715
 21
6322.221466849145
 31
0.0
  0
LINE
  5
133
330
A
100
AcDbEntity
  8
1
  6
Continuous
 62
     3
100
AcDbLine
 10
340.155037177715
 20
6324.221466849145
 30
0.0
 11
340.155037177715
 21
6322.221466849145
 31
0.0
  0
LINE
  5
132
330
A
100
AcDbEntity
  8
1
  6
Continuous
 62
     3
100
AcDbLine
 10
322.655037177715
 20
6306.221466849144
 30
0.0
 11
322.655037177715
 21
6304.221466849146
 31
0.0
  0
LINE
  5
131
330
A
100
AcDbEntity
  8
1
  6
Continuous
 62
     3
100
AcDbLine
 10
341.905037177715
 20
6306.221466849144
 30
0.0
 11
320.405037177715
 21
6306.221466849144
 31
0.0
  0
LINE
  5
130
330
A
100
AcDbEntity
  8
1
  6
Continuous
 62
     3
100
AcDbLine
 10
342.405037177715
 20
6304.221466849146
 30
0.0
 11
320.905037177715
 21
6304.221466849146
 31
0.0
  0
LINE
  5
12F
330
A
100
AcDbEntity
  8
1
  6
Continuous
 62
     3
100
AcDbLine
 10
340.155037177715
 20
6306.221466849144
 30
0.0
 11
340.155037177715
 21
6304.221466849146
 31
0.0
  0
LINE
  5
12E
330
A
100
AcDbEntity
  8
1
  6
Continuous
 62
     3
100
AcDbLine
 10
449.9050371777149
 20
6364.221466849145
 30
0.0
 11
646.905037177715
 21
6364.221466849145
 31
0.0
  0
LINE
  5
12D
330
A
100
AcDbEntity
  8
1
  6
Continuous
 62
     3
100
AcDbLine
 10
647.405037177715
 20
6363.721466849145
 30
0.0
 11
647.405037177715
 21
6339.721466849145
 31
0.0
  0
LINE
  5
12C
330
A
100
AcDbEntity
  8
1
  6
Continuous
 62
     3
100
AcDbLine
 10
646.905037177715
 20
6264.221466849146
 30
0.0
 11
621.405037177715
 21
6264.221466849146
 31
0.0
  0
LINE
  5
12B
330
A
100
AcDbEntity
  8
1
  6
Continuous
 62
     3
100
AcDbLine
 10
449.405037177715
 20
6264.721466849145
 30
0.0
 11
449.405037177715
 21
6289.221466849145
 31
0.0
  0
LINE
  5
12A
330
A
100
AcDbEntity
  8
1
  6
Continuous
 62
     3
100
AcDbLine
 10
623.405037177714
 20
6292.221466849145
 30
0.0
 11
623.405037177714
 21
6336.221466849146
 31
0.0
  0
LINE
  5
129
330
A
100
AcDbEntity
  8
1
  6
Continuous
 62
     3
100
AcDbLine
 10
476.4050371777149
 20
6289.221466849145
 30
0.0
 11
475.1550371777149
 21
6289.221466849145
 31
0.0
  0
LINE
  5
128
330
A
100
AcDbEntity
  8
1
  6
Continuous
 62
     3
100
AcDbLine
 10
449.405037177715
 20
6339.721466849145
 30
0.0
 11
449.405037177715
 21
6363.721466849145
 31
0.0
  0
LINE
  5
127
330
A
100
AcDbEntity
  8
1
  6
Continuous
 62
     3
100
AcDbLine
 10
475.1550371777149
 20
6339.221466849146
 30
0.0
 11
609.4050371777139
 21
6339.221466849146
 31
0.0
  0
LINE
  5
126
330
A
100
AcDbEntity
  8
1
  6
Continuous
 62
     3
100
AcDbLine
 10
646.905037177715
 20
6289.221466849145
 30
0.0
 11
645.155037177715
 21
6289.221466849145
 31
0.0
  0
LINE
  5
125
330
A
100
AcDbEntity
  8
1
  6
Continuous
 62
     3
100
AcDbLine
 10
612.405037177714
 20
6336.221466849146
 30
0.0
 11
612.405037177714
 21
6292.221466849145
 31
0.0
  0
LINE
  5
124
330
A
100
AcDbEntity
  8
1
  6
Continuous
 62
     3
100
AcDbLine
 10
647.405037177715
 20
6288.721466849145
 30
0.0
 11
647.405037177715
 21
6264.721466849145
 31
0.0
  0
LINE
  5
123
330
A
100
AcDbEntity
  8
1
  6
Continuous
 62
     3
100
AcDbLine
 10
658.905037177715
 20
6364.221466849145
 30
0.0
 11
649.905037177715
 21
6364.221466849145
 31
0.0
  0
LINE
  5
122
330
A
100
AcDbEntity
  8
1
  6
Continuous
 62
     3
100
AcDbLine
 10
658.905037177715
 20
6364.221466849145
 30
0.0
 11
658.905037177715
 21
6264.221466849146
 31
0.0
  0
LINE
  5
121
330
A
100
AcDbEntity
  8
1
  6
Continuous
 62
     3
100
AcDbLine
 10
648.905037177715
 20
6363.221466849145
 30
0.0
 11
648.905037177715
 21
6337.221466849145
 31
0.0
  0
LINE
  5
120
330
A
100
AcDbEntity
  8
1
  6
Continuous
 62
     3
100
AcDbLine
 10
648.905037177715
 20
6337.221466849145
 30
0.0
 11
645.155037177715
 21
6337.221466849145
 31
0.0
  0
LINE
  5
11F
330
A
100
AcDbEntity
  8
1
  6
Continuous
 62
     3
100
AcDbLine
 10
625.405037177715
 20
6336.721466849144
 30
0.0
 11
625.405037177715
 21
6291.721466849145
 31
0.0
  0
LINE
  5
11E
330
A
100
AcDbEntity
  8
1
  6
Continuous
 62
     3
100
AcDbLine
 10
625.905037177715
 20
6291.221466849145
 30
0.0
 11
627.655037177715
 21
6291.221466849145
 31
0.0
  0
LINE
  5
11D
330
A
100
AcDbEntity
  8
1
  6
Continuous
 62
     3
100
AcDbLine
 10
648.905037177715
 20
6291.221466849145
 30
0.0
 11
648.905037177715
 21
6265.221466849145
 31
0.0
  0
LINE
  5
11C
330
A
100
AcDbEntity
  8
1
  6
Continuous
 62
     3
100
AcDbLine
 10
649.905037177715
 20
6264.221466849146
 30
0.0
 11
658.905037177715
 21
6264.221466849146
 31
0.0
  0
LINE
  5
11B
330
A
100
AcDbEntity
  8
1
  6
Continuous
 62
     3
100
AcDbLine
 10
658.905037177715
 20
6264.221466849146
 30
0.0
 11
658.905037177715
 21
6251.721466849145
 31
0.0
  0
LINE
  5
11A
330
A
100
AcDbEntity
  8
1
  6
Continuous
 62
     3
100
AcDbLine
 10
648.905037177715
 20
6337.221466849145
 30
0.0
 11
648.905037177715
 21
6291.221466849145
 31
0.0
  0
LINE
  5
119
330
A
100
AcDbEntity
  8
1
  6
DOT_CENTER
 62
     1
100
AcDbLine
 10
658.905037177715
 20
6364.221466849145
 30
0.0
 11
671.965037177715
 21
6364.221466849145
 31
0.0
  0
LINE
  5
118
330
A
100
AcDbEntity
  8
1
  6
DOT_CENTER
 62
     1
100
AcDbLine
 10
658.905037177715
 20
6264.221466849146
 30
0.0
 11
670.7250371777149
 21
6264.221466849146
 31
0.0
  0
LINE
  5
117
330
A
100
AcDbEntity
  8
1
  6
Continuous
 62
     3
100
AcDbLine
 10
466.4050371777149
 20
6356.221466849145
 30
0.0
 11
636.405037177715
 21
6356.221466849145
 31
0.0
  0
LINE
  5
116
330
A
100
AcDbEntity
  8
1
  6
Continuous
 62
     3
100
AcDbLine
 10
636.405037177715
 20
6344.221466849145
 30
0.0
 11
466.4050371777149
 21
6344.221466849145
 31
0.0
  0
LINE
  5
115
330
A
100
AcDbEntity
  8
1
  6
Continuous
 62
     3
100
AcDbLine
 10
466.4050371777149
 20
6284.221466849145
 30
0.0
 11
636.405037177715
 21
6284.221466849145
 31
0.0
  0
LINE
  5
114
330
A
100
AcDbEntity
  8
1
  6
Continuous
 62
     3
100
AcDbLine
 10
636.405037177715
 20
6272.221466849146
 30
0.0
 11
621.405037177715
 21
6272.221466849146
 31
0.0
  0
LINE
  5
113
330
A
100
AcDbEntity
  8
1
  6
Continuous
 62
     3
100
AcDbLine
 10
537.905037177715
 20
6353.221466849145
 30
0.0
 11
564.905037177715
 21
6353.221466849145
 31
0.0
  0
LINE
  5
112
330
A
100
AcDbEntity
  8
1
  6
Continuous
 62
     3
100
AcDbLine
 10
537.905037177715
 20
6346.221466849145
 30
0.0
 11
564.905037177715
 21
6346.221466849145
 31
0.0
  0
LINE
  5
111
330
A
100
AcDbEntity
  8
1
  6
Continuous
 62
     3
100
AcDbLine
 10
587.905037177715
 20
6346.221466849145
 30
0.0
 11
614.905037177715
 21
6346.221466849145
 31
0.0
  0
LINE
  5
110
330
A
100
AcDbEntity
  8
1
  6
Continuous
 62
     3
100
AcDbLine
 10
587.905037177715
 20
6353.221466849145
 30
0.0
 11
614.905037177715
 21
6353.221466849145
 31
0.0
  0
LINE
  5
10F
330
A
100
AcDbEntity
  8
1
  6
Continuous
 62
     3
100
AcDbLine
 10
487.9050371777149
 20
6353.221466849145
 30
0.0
 11
514.905037177715
 21
6353.221466849145
 31
0.0
  0
LINE
  5
10E
330
A
100
AcDbEntity
  8
1
  6
Continuous
 62
     3
100
AcDbLine
 10
487.9050371777149
 20
6346.221466849145
 30
0.0
 11
514.905037177715
 21
6346.221466849145
 31
0.0
  0
LINE
  5
10D
330
A
100
AcDbEntity
  8
1
  6
Continuous
 62
     3
100
AcDbLine
 10
514.905037177715
 20
6282.221466849147
 30
0.0
 11
487.9050371777149
 21
6282.221466849147
 31
0.0
  0
LINE
  5
10C
330
A
100
AcDbEntity
  8
1
  6
Continuous
 62
     3
100
AcDbLine
 10
514.905037177715
 20
6275.221466849147
 30
0.0
 11
491.4050371777149
 21
6275.221466849147
 31
0.0
  0
LINE
  5
10B
330
A
100
AcDbEntity
  8
1
  6
DOTTED
 62
     1
100
AcDbLine
 10
614.905037177715
 20
6275.221466849147
 30
0.0
 11
611.405037177715
 21
6275.221466849147
 31
0.0
  0
LINE
  5
10A
330
A
100
AcDbEntity
  8
1
  6
Continuous
 62
     3
100
AcDbLine
 10
614.905037177715
 20
6282.221466849147
 30
0.0
 11
587.905037177715
 21
6282.221466849147
 31
0.0
  0
LINE
  5
109
330
A
100
AcDbEntity
  8
1
  6
Continuous
 62
     3
100
AcDbLine
 10
564.905037177715
 20
6282.221466849147
 30
0.0
 11
537.905037177715
 21
6282.221466849147
 31
0.0
  0
LINE
  5
108
330
A
100
AcDbEntity
  8
1
  6
Continuous
 62
     3
100
AcDbLine
 10
564.905037177715
 20
6275.221466849147
 30
0.0
 11
537.905037177715
 21
6275.221466849147
 31
0.0
  0
LINE
  5
107
330
A
100
AcDbEntity
  8
1
  6
DOT_CENTER
 62
     1
100
AcDbLine
 10
636.405037177715
 20
6373.365340587765
 30
0.0
 11
636.405037177715
 21
6255.155340587766
 31
0.0
  0
LINE
  5
106
330
A
100
AcDbEntity
  8
1
  6
DOT_CENTER
 62
     1
100
AcDbLine
 10
466.4050371777149
 20
6373.093603200216
 30
0.0
 11
466.4050371777149
 21
6254.613603200215
 31
0.0
  0
LINE
  5
105
330
A
100
AcDbEntity
  8
1
  6
Continuous
 62
     3
100
AcDbLine
 10
320.905037177715
 20
6336.721466849144
 30
0.0
 11
457.6550371777149
 21
6336.721466849144
 31
0.0
  0
LINE
  5
104
330
A
100
AcDbEntity
  8
1
  6
Continuous
 62
     3
100
AcDbLine
 10
449.9050371777149
 20
6339.221466849146
 30
0.0
 11
457.6550371777149
 21
6339.221466849146
 31
0.0
  0
LINE
  5
103
330
A
100
AcDbEntity
  8
1
  6
Continuous
 62
     3
100
AcDbLine
 10
457.6550371777149
 20
6339.221466849146
 30
0.0
 11
457.6550371777149
 21
6336.721466849144
 31
0.0
  0
LINE
  5
102
330
A
100
AcDbEntity
  8
1
  6
Continuous
 62
     3
100
AcDbLine
 10
457.6550371777149
 20
6336.721466849144
 30
0.0
 11
475.1550371777149
 21
6336.721466849144
 31
0.0
  0
LINE
  5
101
330
A
100
AcDbEntity
  8
1
  6
Continuous
 62
     3
100
AcDbLine
 10
457.6550371777149
 20
6339.221466849146
 30
0.0
 11
475.1550371777149
 21
6339.221466849146
 31
0.0
  0
LINE
  5
100
330
A
100
AcDbEntity
  8
1
  6
Continuous
 62
     3
100
AcDbLine
 10
475.1550371777149
 20
6339.221466849146
 30
0.0
 11
475.1550371777149
 21
6336.721466849144
 31
0.0
  0
LINE
  5
FF
330
A
100
AcDbEntity
  8
1
  6
Continuous
 62
     3
100
AcDbLine
 10
475.1550371777149
 20
6336.721466849144
 30
0.0
 11
476.9050371777149
 21
6336.721466849144
 31
0.0
  0
LINE
  5
FE
330
A
100
AcDbEntity
  8
1
  6
Continuous
 62
     3
100
AcDbLine
 10
475.1550371777149
 20
6339.221466849146
 30
0.0
 11
476.4050371777149
 21
6339.221466849146
 31
0.0
  0
LINE
  5
FD
330
A
100
AcDbEntity
  8
1
  6
Continuous
 62
     3
100
AcDbLine
 10
457.6550371777149
 20
6291.721466849145
 30
0.0
 11
457.6550371777149
 21
6289.221466849145
 31
0.0
  0
LINE
  5
FC
330
A
100
AcDbEntity
  8
1
  6
Continuous
 62
     3
100
AcDbLine
 10
457.6550371777149
 20
6289.221466849145
 30
0.0
 11
449.405037177715
 21
6289.221466849145
 31
0.0
  0
LINE
  5
FB
330
A
100
AcDbEntity
  8
1
  6
Continuous
 62
     3
100
AcDbLine
 10
475.1550371777149
 20
6291.721466849145
 30
0.0
 11
475.1550371777149
 21
6289.221466849145
 31
0.0
  0
LINE
  5
FA
330
A
100
AcDbEntity
  8
1
  6
Continuous
 62
     3
100
AcDbLine
 10
475.1550371777149
 20
6291.721466849145
 30
0.0
 11
457.6550371777149
 21
6291.721466849145
 31
0.0
  0
LINE
  5
F9
330
A
100
AcDbEntity
  8
1
  6
Continuous
 62
     3
100
AcDbLine
 10
475.1550371777149
 20
6289.221466849145
 30
0.0
 11
457.6550371777149
 21
6289.221466849145
 31
0.0
  0
LINE
  5
F8
330
A
100
AcDbEntity
  8
1
  6
Continuous
 62
     3
100
AcDbLine
 10
627.655037177715
 20
6339.221466849146
 30
0.0
 11
627.655037177715
 21
6337.221466849145
 31
0.0
  0
LINE
  5
F7
330
A
100
AcDbEntity
  8
1
  6
Continuous
 62
     3
100
AcDbLine
 10
626.4050371777139
 20
6339.221466849146
 30
0.0
 11
645.155037177715
 21
6339.221466849146
 31
0.0
  0
LINE
  5
F6
330
A
100
AcDbEntity
  8
1
  6
Continuous
 62
     3
100
AcDbLine
 10
627.655037177715
 20
6337.221466849145
 30
0.0
 11
625.905037177715
 21
6337.221466849145
 31
0.0
  0
LINE
  5
F5
330
A
100
AcDbEntity
  8
1
  6
Continuous
 62
     3
100
AcDbLine
 10
645.155037177715
 20
6339.221466849146
 30
0.0
 11
645.155037177715
 21
6337.221466849145
 31
0.0
  0
LINE
  5
F4
330
A
100
AcDbEntity
  8
1
  6
Continuous
 62
     3
100
AcDbLine
 10
645.155037177715
 20
6337.221466849145
 30
0.0
 11
627.655037177715
 21
6337.221466849145
 31
0.0
  0
LINE
  5
F3
330
A
100
AcDbEntity
  8
1
  6
Continuous
 62
     3
100
AcDbLine
 10
645.155037177715
 20
6339.221466849146
 30
0.0
 11
646.905037177715
 21
6339.221466849146
 31
0.0
  0
LINE
  5
F2
330
A
100
AcDbEntity
  8
1
  6
Continuous
 62
     3
100
AcDbLine
 10
627.655037177715
 20
6291.221466849145
 30
0.0
 11
627.655037177715
 21
6289.221466849145
 31
0.0
  0
LINE
  5
F1
330
A
100
AcDbEntity
  8
1
  6
Continuous
 62
     3
100
AcDbLine
 10
609.4050371777139
 20
6289.221466849145
 30
0.0
 11
475.1550371777149
 21
6289.221466849145
 31
0.0
  0
LINE
  5
F0
330
A
100
AcDbEntity
  8
1
  6
Continuous
 62
     3
100
AcDbLine
 10
627.655037177715
 20
6291.221466849145
 30
0.0
 11
645.155037177715
 21
6291.221466849145
 31
0.0
  0
LINE
  5
EF
330
A
100
AcDbEntity
  8
1
  6
Continuous
 62
     3
100
AcDbLine
 10
645.155037177715
 20
6291.221466849145
 30
0.0
 11
645.155037177715
 21
6289.221466849145
 31
0.0
  0
LINE
  5
EE
330
A
100
AcDbEntity
  8
1
  6
Continuous
 62
     3
100
AcDbLine
 10
645.155037177715
 20
6289.221466849145
 30
0.0
 11
626.4050371777139
 21
6289.221466849145
 31
0.0
  0
LINE
  5
ED
330
A
100
AcDbEntity
  8
1
  6
Continuous
 62
     3
100
AcDbLine
 10
645.155037177715
 20
6291.221466849145
 30
0.0
 11
648.905037177715
 21
6291.221466849145
 31
0.0
  0
LINE
  5
EC
330
A
100
AcDbEntity
  8
1
  6
Continuous
 62
     3
100
AcDbLine
 10
352.905037177715
 20
6303.721466849145
 30
0.0
 11
361.905037177715
 21
6303.721466849145
 31
0.0
  0
LINE
  5
EB
330
A
100
AcDbEntity
  8
1
  6
Continuous
 62
     3
100
AcDbLine
 10
362.405037177715
 20
6303.221466849145
 30
0.0
 11
362.405037177715
 21
6299.221466849145
 31
0.0
  0
LINE
  5
EA
330
A
100
AcDbEntity
  8
1
  6
Continuous
 62
     3
100
AcDbLine
 10
361.905037177715
 20
6268.721466849145
 30
0.0
 11
352.905037177715
 21
6268.721466849145
 31
0.0
  0
LINE
  5
E9
330
A
100
AcDbEntity
  8
1
  6
DOTTED
 62
     1
100
AcDbLine
 10
362.405037177715
 20
6271.221466849145
 30
0.0
 11
352.405037177715
 21
6271.221466849145
 31
0.0
  0
LINE
  5
E8
330
A
100
AcDbEntity
  8
1
  6
Continuous
 62
     3
100
AcDbLine
 10
481.905037177715
 20
6277.221466849145
 30
0.0
 11
484.7427595175469
 21
6277.221466849145
 31
0.0
  0
LINE
  5
E7
330
A
100
AcDbEntity
  8
1
  6
Continuous
 62
     3
100
AcDbLine
 10
491.4050371777149
 20
6276.721466849146
 30
0.0
 11
491.4050371777149
 21
6242.721466849145
 31
0.0
  0
LINE
  5
E6
330
A
100
AcDbEntity
  8
1
  6
Continuous
 62
     3
100
AcDbLine
 10
490.905037177715
 20
6242.221466849145
 30
0.0
 11
481.905037177715
 21
6242.221466849145
 31
0.0
  0
LINE
  5
E5
330
A
100
AcDbEntity
  8
1
  6
Continuous
 62
     3
100
AcDbLine
 10
611.905037177715
 20
6277.221466849145
 30
0.0
 11
620.905037177715
 21
6277.221466849145
 31
0.0
  0
LINE
  5
E4
330
A
100
AcDbEntity
  8
1
  6
Continuous
 62
     3
100
AcDbLine
 10
621.405037177715
 20
6276.721466849146
 30
0.0
 11
621.405037177715
 21
6242.721466849145
 31
0.0
  0
LINE
  5
E3
330
A
100
AcDbEntity
  8
1
  6
Continuous
 62
     3
100
AcDbLine
 10
620.905037177715
 20
6242.221466849145
 30
0.0
 11
611.905037177715
 21
6242.221466849145
 31
0.0
  0
LINE
  5
E2
330
A
100
AcDbEntity
  8
1
  6
DOTTED
 62
     1
100
AcDbLine
 10
611.405037177715
 20
6244.721466849146
 30
0.0
 11
621.405037177715
 21
6244.721466849146
 31
0.0
  0
LINE
  5
E1
330
A
100
AcDbEntity
  8
1
  6
Continuous
 62
     3
100
AcDbLine
 10
611.405037177715
 20
6275.221466849147
 30
0.0
 11
587.905037177715
 21
6275.221466849147
 31
0.0
  0
LINE
  5
E0
330
A
100
AcDbEntity
  8
1
  6
Continuous
 62
     3
100
AcDbLine
 10
611.405037177715
 20
6242.721466849145
 30
0.0
 11
611.405037177715
 21
6276.721466849146
 31
0.0
  0
LINE
  5
DF
330
A
100
AcDbEntity
  8
1
  6
Continuous
 62
     3
100
AcDbLine
 10
611.405037177715
 20
6272.221466849146
 30
0.0
 11
491.4050371777149
 21
6272.221466849146
 31
0.0
  0
LINE
  5
DE
330
A
100
AcDbEntity
  8
1
  6
Continuous
 62
     3
100
AcDbLine
 10
611.405037177715
 20
6264.221466849146
 30
0.0
 11
491.4050371777149
 21
6264.221466849146
 31
0.0
  0
LINE
  5
DD
330
A
100
AcDbEntity
  8
1
  6
DOTTED
 62
     1
100
AcDbLine
 10
621.405037177715
 20
6272.221466849146
 30
0.0
 11
611.405037177715
 21
6272.221466849146
 31
0.0
  0
LINE
  5
DC
330
A
100
AcDbEntity
  8
1
  6
DOTTED
 62
     1
100
AcDbLine
 10
621.405037177715
 20
6264.221466849146
 30
0.0
 11
611.405037177715
 21
6264.221466849146
 31
0.0
  0
LINE
  5
DB
330
A
100
AcDbEntity
  8
1
  6
Continuous
 62
     3
100
AcDbLine
 10
484.7427595175469
 20
6277.221466849145
 30
0.0
 11
490.905037177715
 21
6277.221466849145
 31
0.0
  0
LINE
  5
DA
330
A
100
AcDbEntity
  8
1
  6
DOTTED
 62
     1
100
AcDbLine
 10
491.4050371777149
 20
6275.221466849147
 30
0.0
 11
487.9050371777149
 21
6275.221466849147
 31
0.0
  0
LINE
  5
D9
330
A
100
AcDbEntity
  8
1
  6
DOTTED
 62
     1
100
AcDbLine
 10
491.4050371777149
 20
6272.221466849146
 30
0.0
 11
481.4050371777149
 21
6272.221466849146
 31
0.0
  0
LINE
  5
D8
330
A
100
AcDbEntity
  8
1
  6
Continuous
 62
     3
100
AcDbLine
 10
481.4050371777149
 20
6242.721466849145
 30
0.0
 11
481.4050371777149
 21
6276.721466849146
 31
0.0
  0
LINE
  5
D7
330
A
100
AcDbEntity
  8
1
  6
Continuous
 62
     3
100
AcDbLine
 10
481.4050371777149
 20
6272.221466849146
 30
0.0
 11
466.4050371777149
 21
6272.221466849146
 31
0.0
  0
LINE
  5
D6
330
A
100
AcDbEntity
  8
1
  6
Continuous
 62
     3
100
AcDbLine
 10
481.4050371777149
 20
6264.221466849146
 30
0.0
 11
449.9050371777149
 21
6264.221466849146
 31
0.0
  0
LINE
  5
D5
330
A
100
AcDbEntity
  8
1
  6
DOTTED
 62
     1
100
AcDbLine
 10
491.4050371777149
 20
6264.221466849146
 30
0.0
 11
481.4050371777149
 21
6264.221466849146
 31
0.0
  0
LINE
  5
D4
330
A
100
AcDbEntity
  8
1
  6
DOTTED
 62
     1
100
AcDbLine
 10
481.4050371777149
 20
6244.721466849146
 30
0.0
 11
491.4050371777149
 21
6244.721466849146
 31
0.0
  0
LINE
  5
D3
330
A
100
AcDbEntity
  8
1
  6
Continuous
 62
     3
100
AcDbLine
 10
352.405037177715
 20
6299.221466849145
 30
0.0
 11
331.405037177715
 21
6299.221466849145
 31
0.0
  0
LINE
  5
D2
330
A
100
AcDbEntity
  8
1
  6
Continuous
 62
     3
100
AcDbLine
 10
351.405037177715
 20
6291.721466849145
 30
0.0
 11
320.905037177715
 21
6291.721466849145
 31
0.0
  0
LINE
  5
D1
330
A
100
AcDbEntity
  8
1
  6
DOTTED
 62
     1
100
AcDbLine
 10
362.405037177715
 20
6299.221466849145
 30
0.0
 11
352.405037177715
 21
6299.221466849145
 31
0.0
  0
LINE
  5
D0
330
A
100
AcDbEntity
  8
1
  6
Continuous
 62
     3
100
AcDbLine
 10
352.405037177715
 20
6269.221466849145
 30
0.0
 11
352.405037177715
 21
6291.721466849145
 31
0.0
  0
LINE
  5
CF
330
A
100
AcDbEntity
  8
1
  6
Continuous
 62
     3
100
AcDbLine
 10
647.373929530602
 20
6452.3053331637
 30
0.0
 11
647.373929530602
 21
6452.305333163697
 31
0.0
  0
LINE
  5
CE
330
A
100
AcDbEntity
  8
1
  6
Continuous
 62
     3
100
AcDbLine
 10
643.905037177715
 20
6464.132013604239
 30
0.0
 11
636.405037177715
 21
6464.132013604239
 31
0.0
  0
LINE
  5
CD
330
A
100
AcDbEntity
  8
1
  6
DOT_CENTER
 62
     1
100
AcDbLine
 10
466.4050371777149
 20
6473.998711130788
 30
0.0
 11
466.4050371777149
 21
6431.818711130789
 31
0.0
  0
LINE
  5
CC
330
A
100
AcDbEntity
  8
1
  6
DOT_CENTER
 62
     1
100
AcDbLine
 10
331.405037177715
 20
6464.132013604239
 30
0.0
 11
331.405037177715
 21
6474.507615555447
 31
0.0
  0
LINE
  5
CB
330
A
100
AcDbEntity
  8
1
  6
Continuous
 62
     3
100
AcDbLine
 10
466.4050371777149
 20
6464.132013604239
 30
0.0
 11
296.405037177715
 21
6464.132013604239
 31
0.0
  0
LINE
  5
CA
330
A
100
AcDbEntity
  8
1
  6
Continuous
 62
     3
100
AcDbLine
 10
466.4050371777149
 20
6442.13201360424
 30
0.0
 11
296.405037177715
 21
6442.13201360424
 31
0.0
  0
LINE
  5
C9
330
A
100
AcDbEntity
  8
1
  6
Continuous
 62
     3
100
AcDbLine
 10
660.905037177715
 20
6405.63201360424
 30
0.0
 11
658.905037177715
 21
6405.63201360424
 31
0.0
  0
LINE
  5
C8
330
A
100
AcDbEntity
  8
1
  6
Continuous
 62
     3
100
AcDbLine
 10
660.905037177715
 20
6500.632013604239
 30
0.0
 11
660.905037177715
 21
6405.63201360424
 31
0.0
  0
LINE
  5
C7
330
A
100
AcDbEntity
  8
1
  6
Continuous
 62
     3
100
AcDbLine
 10
658.905037177715
 20
6500.632013604239
 30
0.0
 11
660.905037177715
 21
6500.632013604239
 31
0.0
  0
LINE
  5
C6
330
A
100
AcDbEntity
  8
1
  6
Continuous
 62
     3
100
AcDbLine
 10
658.905037177715
 20
6478.132013604239
 30
0.0
 11
658.905037177715
 21
6500.632013604239
 31
0.0
  0
LINE
  5
C5
330
A
100
AcDbEntity
  8
1
  6
Continuous
 62
     3
100
AcDbLine
 10
650.905037177715
 20
6428.13201360424
 30
0.0
 11
658.905037177715
 21
6428.13201360424
 31
0.0
  0
LINE
  5
C4
330
A
100
AcDbEntity
  8
1
  6
Continuous
 62
     3
100
AcDbLine
 10
658.905037177715
 20
6405.63201360424
 30
0.0
 11
658.905037177715
 21
6428.13201360424
 31
0.0
  0
LINE
  5
C3
330
A
100
AcDbEntity
  8
1
  6
Continuous
 62
     3
100
AcDbLine
 10
658.905037177715
 20
6478.132013604239
 30
0.0
 11
650.905037177715
 21
6478.132013604239
 31
0.0
  0
LINE
  5
C2
330
A
100
AcDbEntity
  8
1
  6
Continuous
 62
     3
100
AcDbLine
 10
658.905037177715
 20
6428.13201360424
 30
0.0
 11
658.905037177715
 21
6478.132013604239
 31
0.0
  0
LINE
  5
C1
330
A
100
AcDbEntity
  8
1
  6
Continuous
 62
     3
100
AcDbLine
 10
648.905037177715
 20
6476.13201360424
 30
0.0
 11
648.905037177715
 21
6430.132013604239
 31
0.0
  0
LINE
  5
C0
330
A
100
AcDbEntity
  8
1
  6
DOT_CENTER
 62
     1
100
AcDbLine
 10
668.3861673517969
 20
6418.13201360424
 30
0.0
 11
652.566167351797
 21
6418.13201360424
 31
0.0
  0
LINE
  5
BF
330
A
100
AcDbEntity
  8
1
  6
DOT_CENTER
 62
     1
100
AcDbLine
 10
668.546167351797
 20
6488.132013604239
 30
0.0
 11
652.566167351797
 21
6488.132013604239
 31
0.0
  0
LINE
  5
BE
330
A
100
AcDbEntity
  8
1
  6
Continuous
 62
     3
100
AcDbLine
 10
319.405037177715
 20
6457.13201360424
 30
0.0
 11
319.405037177715
 21
6449.132013604239
 31
0.0
  0
LINE
  5
BD
330
A
100
AcDbEntity
  8
1
  6
Continuous
 62
     3
100
AcDbLine
 10
313.905037177715
 20
6458.132013604239
 30
0.0
 11
318.405037177715
 21
6458.132013604239
 31
0.0
  0
LINE
  5
BC
330
A
100
AcDbEntity
  8
1
  6
Continuous
 62
     3
100
AcDbLine
 10
321.405037177715
 20
6442.13201360424
 30
0.0
 11
331.405037177715
 21
6442.13201360424
 31
0.0
  0
LINE
  5
BB
330
A
100
AcDbEntity
  8
1
  6
DOT_CENTER
 62
     1
100
AcDbLine
 10
331.405037177715
 20
6431.567615555448
 30
0.0
 11
331.405037177715
 21
6442.13201360424
 31
0.0
  0
LINE
  5
BA
330
A
100
AcDbEntity
  8
1
  6
Continuous
 62
     3
100
AcDbLine
 10
320.405037177715
 20
6446.13201360424
 30
0.0
 11
320.405037177715
 21
6443.13201360424
 31
0.0
  0
LINE
  5
B9
330
A
100
AcDbEntity
  8
1
  6
Continuous
 62
     3
100
AcDbLine
 10
331.405037177715
 20
6464.132013604239
 30
0.0
 11
320.405037177715
 21
6464.132013604239
 31
0.0
  0
LINE
  5
B8
330
A
100
AcDbEntity
  8
1
  6
DOT_CENTER
 62
     1
100
AcDbLine
 10
331.405037177715
 20
6442.13201360424
 30
0.0
 11
331.405037177715
 21
6464.132013604239
 31
0.0
  0
LINE
  5
B7
330
A
100
AcDbEntity
  8
1
  6
Continuous
 62
     3
100
AcDbLine
 10
320.405037177715
 20
6464.132013604239
 30
0.0
 11
320.405037177715
 21
6460.132013604241
 31
0.0
  0
LINE
  5
B6
330
A
100
AcDbEntity
  8
1
  6
Continuous
 62
     3
100
AcDbLine
 10
316.405037177715
 20
6412.13201360424
 30
0.0
 11
268.905037177715
 21
6412.13201360424
 31
0.0
  0
LINE
  5
B5
330
A
100
AcDbEntity
  8
1
  6
Continuous
 62
     3
100
AcDbLine
 10
318.405037177715
 20
6447.132013604239
 30
0.0
 11
318.405037177715
 21
6414.132013604239
 31
0.0
  0
LINE
  5
B4
330
A
100
AcDbEntity
  8
1
  6
Continuous
 62
     3
100
AcDbLine
 10
268.905037177715
 20
6447.132013604239
 30
0.0
 11
318.405037177715
 21
6447.132013604239
 31
0.0
  0
LINE
  5
B3
330
A
100
AcDbEntity
  8
1
  6
Continuous
 62
     3
100
AcDbLine
 10
318.405037177715
 20
6492.13201360424
 30
0.0
 11
318.405037177715
 21
6459.132013604239
 31
0.0
  0
LINE
  5
B2
330
A
100
AcDbEntity
  8
1
  6
Continuous
 62
     3
100
AcDbLine
 10
268.905037177715
 20
6494.132013604239
 30
0.0
 11
316.405037177715
 21
6494.132013604239
 31
0.0
  0
LINE
  5
B1
330
A
100
AcDbEntity
  8
1
  6
Continuous
 62
     3
100
AcDbLine
 10
313.905037177715
 20
6448.13201360424
 30
0.0
 11
283.905037177715
 21
6448.13201360424
 31
0.0
  0
LINE
  5
B0
330
A
100
AcDbEntity
  8
1
  6
Continuous
 62
     3
100
AcDbLine
 10
313.905037177715
 20
6459.132013604239
 30
0.0
 11
313.905037177715
 21
6458.132013604239
 31
0.0
  0
LINE
  5
AF
330
A
100
AcDbEntity
  8
1
  6
Continuous
 62
     3
100
AcDbLine
 10
283.905037177715
 20
6458.132013604239
 30
0.0
 11
313.905037177715
 21
6458.132013604239
 31
0.0
  0
LINE
  5
AE
330
A
100
AcDbEntity
  8
1
  6
Continuous
 62
     3
100
AcDbLine
 10
318.405037177715
 20
6459.132013604239
 30
0.0
 11
268.905037177715
 21
6459.132013604239
 31
0.0
  0
LINE
  5
AD
330
A
100
AcDbEntity
  8
1
  6
Continuous
 62
     3
100
AcDbLine
 10
313.905037177715
 20
6448.13201360424
 30
0.0
 11
313.905037177715
 21
6447.132013604239
 31
0.0
  0
LINE
  5
AC
330
A
100
AcDbEntity
  8
1
  6
Continuous
 62
     3
100
AcDbLine
 10
318.405037177715
 20
6448.13201360424
 30
0.0
 11
313.905037177715
 21
6448.13201360424
 31
0.0
  0
LINE
  5
AB
330
A
100
AcDbEntity
  8
1
  6
DOT_CENTER
 62
     1
100
AcDbLine
 10
298.905037177715
 20
6511.644496536657
 30
0.0
 11
298.905037177715
 21
6396.908569360039
 31
0.0
  0
LINE
  5
AA
330
A
100
AcDbEntity
  8
1
  6
Continuous
 62
     3
100
AcDbLine
 10
636.405037177715
 20
6464.132013604239
 30
0.0
 11
466.4050371777149
 21
6464.132013604239
 31
0.0
  0
LINE
  5
A9
330
A
100
AcDbEntity
  8
1
  6
Continuous
 62
     3
100
AcDbLine
 10
636.405037177715
 20
6442.13201360424
 30
0.0
 11
466.4050371777149
 21
6442.13201360424
 31
0.0
  0
LINE
  5
A8
330
A
100
AcDbEntity
  8
1
  6
Continuous
 62
     3
100
AcDbLine
 10
643.905037177715
 20
6442.13201360424
 30
0.0
 11
636.405037177715
 21
6442.13201360424
 31
0.0
  0
LINE
  5
A7
330
A
100
AcDbEntity
  8
1
  6
DOTTED
 62
     1
100
AcDbLine
 10
266.905037177715
 20
6495.631138738659
 30
0.0
 11
268.905037177715
 21
6495.631138738659
 31
0.0
  0
LINE
  5
A6
330
A
100
AcDbEntity
  8
1
  6
DOTTED
 62
     1
100
AcDbLine
 10
266.905037177715
 20
6485.633102645694
 30
0.0
 11
268.905037177715
 21
6485.633102645694
 31
0.0
  0
LINE
  5
A5
330
A
100
AcDbEntity
  8
1
  6
DOT_CENTER
 62
     1
100
AcDbLine
 10
261.131084946152
 20
6490.63201360424
 30
0.0
 11
274.405160605621
 21
6490.63201360424
 31
0.0
  0
LINE
  5
A4
330
A
100
AcDbEntity
  8
1
  6
DOTTED
 62
     1
100
AcDbLine
 10
268.905037177715
 20
6421.63201360424
 30
0.0
 11
266.905037177715
 21
6421.63201360424
 31
0.0
  0
LINE
  5
A3
330
A
100
AcDbEntity
  8
1
  6
DOTTED
 62
     1
100
AcDbLine
 10
268.905037177715
 20
6409.632013604239
 30
0.0
 11
266.905037177715
 21
6409.632013604239
 31
0.0
  0
LINE
  5
A2
330
A
100
AcDbEntity
  8
1
  6
DOT_CENTER
 62
     1
100
AcDbLine
 10
273.569033976275
 20
6415.632013604239
 30
0.0
 11
261.131084946152
 21
6415.632013604239
 31
0.0
  0
LINE
  5
A1
330
A
100
AcDbEntity
  8
1
  6
DOT_CENTER
 62
     1
100
AcDbLine
 10
273.569033976275
 20
6403.132013604239
 30
0.0
 11
261.131084946152
 21
6403.132013604239
 31
0.0
  0
LINE
  5
A0
330
A
100
AcDbEntity
  8
1
  6
DOTTED
 62
     1
100
AcDbLine
 10
268.905037177715
 20
6397.132013604239
 30
0.0
 11
266.905037177715
 21
6397.132013604239
 31
0.0
  0
LINE
  5
9F
330
A
100
AcDbEntity
  8
1
  6
DOTTED
 62
     1
100
AcDbLine
 10
268.905037177715
 20
6409.13201360424
 30
0.0
 11
266.905037177715
 21
6409.13201360424
 31
0.0
  0
LINE
  5
9E
330
A
100
AcDbEntity
  8
1
  6
DOT_CENTER
 62
     1
100
AcDbLine
 10
261.131084946152
 20
6503.13201360424
 30
0.0
 11
274.405160605621
 21
6503.13201360424
 31
0.0
  0
LINE
  5
9D
330
A
100
AcDbEntity
  8
1
  6
DOTTED
 62
     1
100
AcDbLine
 10
266.905037177715
 20
6498.133102645694
 30
0.0
 11
268.905037177715
 21
6498.133102645694
 31
0.0
  0
LINE
  5
9C
330
A
100
AcDbEntity
  8
1
  6
DOTTED
 62
     1
100
AcDbLine
 10
266.905037177715
 20
6508.131138738659
 30
0.0
 11
268.905037177715
 21
6508.131138738659
 31
0.0
  0
LINE
  5
9B
330
A
100
AcDbEntity
  8
1
  6
Continuous
 62
     3
100
AcDbLine
 10
266.905037177715
 20
6393.132013604239
 30
0.0
 11
266.905037177715
 21
6513.132013604239
 31
0.0
  0
LINE
  5
9A
330
A
100
AcDbEntity
  8
1
  6
Continuous
 62
     3
100
AcDbLine
 10
266.905037177715
 20
6513.132013604239
 30
0.0
 11
268.905037177715
 21
6513.132013604239
 31
0.0
  0
LINE
  5
99
330
A
100
AcDbEntity
  8
1
  6
Continuous
 62
     3
100
AcDbLine
 10
268.905037177715
 20
6513.132013604239
 30
0.0
 11
268.905037177715
 21
6393.132013604239
 31
0.0
  0
LINE
  5
98
330
A
100
AcDbEntity
  8
1
  6
Continuous
 62
     3
100
AcDbLine
 10
281.405037177715
 20
6448.13201360424
 30
0.0
 11
281.405037177715
 21
6458.132013604239
 31
0.0
  0
LINE
  5
97
330
A
100
AcDbEntity
  8
1
  6
Continuous
 62
     3
100
AcDbLine
 10
283.905037177715
 20
6448.13201360424
 30
0.0
 11
281.405037177715
 21
6448.13201360424
 31
0.0
  0
LINE
  5
96
330
A
100
AcDbEntity
  8
1
  6
Continuous
 62
     3
100
AcDbLine
 10
283.905037177715
 20
6448.13201360424
 30
0.0
 11
283.905037177715
 21
6447.132013604239
 31
0.0
  0
LINE
  5
95
330
A
100
AcDbEntity
  8
1
  6
Continuous
 62
     3
100
AcDbLine
 10
281.405037177715
 20
6458.132013604239
 30
0.0
 11
283.905037177715
 21
6458.132013604239
 31
0.0
  0
LINE
  5
94
330
A
100
AcDbEntity
  8
1
  6
Continuous
 62
     3
100
AcDbLine
 10
269.905037177715
 20
6414.132013604239
 30
0.0
 11
269.905037177715
 21
6447.132013604239
 31
0.0
  0
LINE
  5
93
330
A
100
AcDbEntity
  8
1
  6
Continuous
 62
     3
100
AcDbLine
 10
269.905037177715
 20
6459.132013604239
 30
0.0
 11
269.905037177715
 21
6492.13201360424
 31
0.0
  0
LINE
  5
92
330
A
100
AcDbEntity
  8
1
  6
Continuous
 62
     3
100
AcDbLine
 10
271.905037177715
 20
6459.132013604239
 30
0.0
 11
271.905037177715
 21
6447.132013604239
 31
0.0
  0
LINE
  5
91
330
A
100
AcDbEntity
  8
1
  6
Continuous
 62
     3
100
AcDbLine
 10
283.905037177715
 20
6459.132013604239
 30
0.0
 11
283.905037177715
 21
6458.132013604239
 31
0.0
  0
LINE
  5
90
330
A
100
AcDbEntity
  8
1
  6
DOT_CENTER
 62
     1
100
AcDbLine
 10
277.671084946152
 20
6276.721466849146
 30
0.0
 11
261.131084946152
 21
6276.721466849146
 31
0.0
  0
LINE
  5
8F
330
A
100
AcDbEntity
  8
1
  6
DOTTED
 62
     1
100
AcDbLine
 10
268.905037177715
 20
6279.321466849147
 30
0.0
 11
266.905037177715
 21
6279.321466849147
 31
0.0
  0
LINE
  5
8E
330
A
100
AcDbEntity
  8
1
  6
DOTTED
 62
     1
100
AcDbLine
 10
268.905037177715
 20
6274.121466849146
 30
0.0
 11
266.905037177715
 21
6274.121466849146
 31
0.0
  0
LINE
  5
8D
330
A
100
AcDbEntity
  8
1
  6
DOTTED
 62
     1
100
AcDbLine
 10
266.905037177715
 20
6354.321466849146
 30
0.0
 11
268.905037177715
 21
6354.321466849146
 31
0.0
  0
LINE
  5
8C
330
A
100
AcDbEntity
  8
1
  6
DOTTED
 62
     1
100
AcDbLine
 10
266.905037177715
 20
6349.121466849146
 30
0.0
 11
268.905037177715
 21
6349.121466849146
 31
0.0
  0
LINE
  5
8B
330
A
100
AcDbEntity
  8
1
  6
DOT_CENTER
 62
     1
100
AcDbLine
 10
261.131084946152
 20
6351.721466849145
 30
0.0
 11
277.671084946152
 21
6351.721466849145
 31
0.0
  0
LINE
  5
8A
330
A
100
AcDbEntity
  8
1
  6
Continuous
 62
     3
100
AcDbLine
 10
269.905037177715
 20
6296.721466849145
 30
0.0
 11
269.905037177715
 21
6331.721466849145
 31
0.0
  0
LINE
  5
89
330
A
100
AcDbEntity
  8
1
  6
Continuous
 62
     3
100
AcDbLine
 10
269.905037177715
 20
6331.721466849145
 30
0.0
 11
269.905037177715
 21
6332.721466849145
 31
0.0
  0
LINE
  5
88
330
A
100
AcDbEntity
  8
1
  6
Continuous
 62
     3
100
AcDbLine
 10
269.905037177715
 20
6296.721466849145
 30
0.0
 11
268.905037177715
 21
6296.721466849145
 31
0.0
  0
LINE
  5
87
330
A
100
AcDbEntity
  8
1
  6
Continuous
 62
     3
100
AcDbLine
 10
269.905037177715
 20
6331.721466849145
 30
0.0
 11
268.905037177715
 21
6331.721466849145
 31
0.0
  0
LINE
  5
86
330
A
100
AcDbEntity
  8
1
  6
Continuous
 62
     3
100
AcDbLine
 10
266.905037177715
 20
6254.221466849145
 30
0.0
 11
266.905037177715
 21
6374.221466849145
 31
0.0
  0
LINE
  5
85
330
A
100
AcDbEntity
  8
1
  6
Continuous
 62
     3
100
AcDbLine
 10
268.905037177715
 20
6374.221466849145
 30
0.0
 11
268.905037177715
 21
6331.721466849145
 31
0.0
  0
LINE
  5
84
330
A
100
AcDbEntity
  8
1
  6
Continuous
 62
     3
100
AcDbLine
 10
268.905037177715
 20
6254.221466849145
 30
0.0
 11
266.905037177715
 21
6254.221466849145
 31
0.0
  0
LINE
  5
83
330
A
100
AcDbEntity
  8
1
  6
Continuous
 62
     3
100
AcDbLine
 10
266.905037177715
 20
6374.221466849145
 30
0.0
 11
268.905037177715
 21
6374.221466849145
 31
0.0
  0
LINE
  5
82
330
A
100
AcDbEntity
  8
1
  6
Continuous
 62
     3
100
AcDbLine
 10
268.905037177715
 20
6331.721466849145
 30
0.0
 11
268.905037177715
 21
6296.721466849145
 31
0.0
  0
LINE
  5
81
330
A
100
AcDbEntity
  8
1
  6
Continuous
 62
     3
100
AcDbLine
 10
268.905037177715
 20
6296.721466849145
 30
0.0
 11
268.905037177715
 21
6254.221466849145
 31
0.0
  0
LINE
  5
80
330
A
100
AcDbEntity
  8
1
  6
DOTTED
 62
     1
100
AcDbLine
 10
268.905037177715
 20
6261.621466849146
 30
0.0
 11
266.905037177715
 21
6261.621466849146
 31
0.0
  0
LINE
  5
7F
330
A
100
AcDbEntity
  8
1
  6
DOTTED
 62
     1
100
AcDbLine
 10
268.905037177715
 20
6266.821466849147
 30
0.0
 11
266.905037177715
 21
6266.821466849147
 31
0.0
  0
LINE
  5
7E
330
A
100
AcDbEntity
  8
1
  6
DOT_CENTER
 62
     1
100
AcDbLine
 10
277.671084946152
 20
6264.221466849146
 30
0.0
 11
261.131084946152
 21
6264.221466849146
 31
0.0
  0
LINE
  5
7D
330
A
100
AcDbEntity
  8
1
  6
DOT_CENTER
 62
     1
100
AcDbLine
 10
261.131084946152
 20
6364.221466849145
 30
0.0
 11
277.671084946152
 21
6364.221466849145
 31
0.0
  0
LINE
  5
7C
330
A
100
AcDbEntity
  8
1
  6
DOTTED
 62
     1
100
AcDbLine
 10
266.905037177715
 20
6361.621466849146
 30
0.0
 11
268.905037177715
 21
6361.621466849146
 31
0.0
  0
LINE
  5
7B
330
A
100
AcDbEntity
  8
1
  6
DOTTED
 62
     1
100
AcDbLine
 10
266.905037177715
 20
6366.821466849145
 30
0.0
 11
268.905037177715
 21
6366.821466849145
 31
0.0
  0
LINE
  5
7A
330
A
100
AcDbEntity
  8
1
  6
Continuous
 62
     3
100
AcDbLine
 10
269.905037177715
 20
6295.721466849145
 30
0.0
 11
269.905037177715
 21
6296.721466849145
 31
0.0
  0
LINE
  5
79
330
A
100
AcDbEntity
  8
1
  6
Continuous
 62
     3
100
AcDbLine
 10
268.905037177715
 20
6393.132013604239
 30
0.0
 11
266.905037177715
 21
6393.132013604239
 31
0.0
  0
LINE
  5
78
330
A
100
AcDbEntity
  8
1
  6
DOTTED
 62
     1
100
AcDbLine
 10
658.905037177715
 20
6492.182013604241
 30
0.0
 11
660.905037177715
 21
6492.182013604241
 31
0.0
  0
LINE
  5
77
330
A
100
AcDbEntity
  8
1
  6
DOTTED
 62
     1
100
AcDbLine
 10
658.905037177715
 20
6484.08201360424
 30
0.0
 11
660.905037177715
 21
6484.08201360424
 31
0.0
  0
LINE
  5
76
330
A
100
AcDbEntity
  8
1
  6
DOTTED
 62
     1
100
AcDbLine
 10
658.905037177715
 20
6422.182013604241
 30
0.0
 11
660.905037177715
 21
6422.182013604241
 31
0.0
  0
LINE
  5
75
330
A
100
AcDbEntity
  8
1
  6
DOTTED
 62
     1
100
AcDbLine
 10
658.905037177715
 20
6414.08201360424
 30
0.0
 11
660.905037177715
 21
6414.08201360424
 31
0.0
  0
LINE
  5
74
330
A
100
AcDbEntity
  8
1
  6
DOTTED
 62
     1
100
AcDbLine
 10
660.905037177715
 20
6368.271466849146
 30
0.0
 11
658.905037177715
 21
6368.271466849146
 31
0.0
  0
LINE
  5
73
330
A
100
AcDbEntity
  8
1
  6
DOTTED
 62
     1
100
AcDbLine
 10
660.905037177715
 20
6360.171466849146
 30
0.0
 11
658.905037177715
 21
6360.171466849146
 31
0.0
  0
LINE
  5
72
330
A
100
AcDbEntity
  8
1
  6
DOTTED
 62
     1
100
AcDbLine
 10
660.905037177715
 20
6268.271466849146
 30
0.0
 11
658.905037177715
 21
6268.271466849146
 31
0.0
  0
LINE
  5
71
330
A
100
AcDbEntity
  8
1
  6
DOTTED
 62
     1
100
AcDbLine
 10
660.905037177715
 20
6260.171466849146
 30
0.0
 11
658.905037177715
 21
6260.171466849146
 31
0.0
  0
LINE
  5
70
330
A
100
AcDbEntity
  8
1
  6
DOTTED
 62
     1
100
AcDbLine
 10
658.905037177715
 20
6666.843512476077
 30
0.0
 11
660.905037177715
 21
6666.843512476077
 31
0.0
  0
LINE
  5
6F
330
A
100
AcDbEntity
  8
1
  6
DOTTED
 62
     1
100
AcDbLine
 10
658.905037177715
 20
6674.94351247608
 30
0.0
 11
660.905037177715
 21
6674.94351247608
 31
0.0
  0
LINE
  5
6E
330
A
100
AcDbEntity
  8
1
  6
DOTTED
 62
     1
100
AcDbLine
 10
658.905037177715
 20
6736.843512476077
 30
0.0
 11
660.905037177715
 21
6736.843512476077
 31
0.0
  0
LINE
  5
6D
330
A
100
AcDbEntity
  8
1
  6
DOTTED
 62
     1
100
AcDbLine
 10
658.905037177715
 20
6744.94351247608
 30
0.0
 11
660.905037177715
 21
6744.94351247608
 31
0.0
  0
LINE
  5
6C
330
A
100
AcDbEntity
  8
1
  6
Continuous
 62
     3
100
AcDbLine
 10
573.905037177714
 20
6610.893512476079
 30
0.0
 11
571.9050371777139
 21
6610.893512476079
 31
0.0
  0
LINE
  5
6B
330
A
100
AcDbEntity
  8
1
  6
DOT_CENTER
 62
     1
100
AcDbLine
 10
603.905037177714
 20
6729.405995408498
 30
0.0
 11
603.905037177714
 21
6614.670068231882
 31
0.0
  0
LINE
  5
6A
330
A
100
AcDbEntity
  8
1
  6
DOTTED
 62
     1
100
AcDbLine
 10
571.9050371777139
 20
6713.3926376105
 30
0.0
 11
573.905037177714
 21
6713.3926376105
 31
0.0
  0
LINE
  5
69
330
A
100
AcDbEntity
  8
1
  6
DOTTED
 62
     1
100
AcDbLine
 10
571.9050371777139
 20
6703.394601517536
 30
0.0
 11
573.905037177714
 21
6703.394601517536
 31
0.0
  0
LINE
  5
68
330
A
100
AcDbEntity
  8
1
  6
DOT_CENTER
 62
     1
100
AcDbLine
 10
566.131084946152
 20
6708.39351247608
 30
0.0
 11
579.4051606056211
 21
6708.39351247608
 31
0.0
  0
LINE
  5
67
330
A
100
AcDbEntity
  8
1
  6
DOTTED
 62
     1
100
AcDbLine
 10
573.905037177714
 20
6639.393512476079
 30
0.0
 11
571.9050371777139
 21
6639.393512476079
 31
0.0
  0
LINE
  5
66
330
A
100
AcDbEntity
  8
1
  6
DOTTED
 62
     1
100
AcDbLine
 10
573.905037177714
 20
6627.393512476079
 30
0.0
 11
571.9050371777139
 21
6627.393512476079
 31
0.0
  0
LINE
  5
65
330
A
100
AcDbEntity
  8
1
  6
DOT_CENTER
 62
     1
100
AcDbLine
 10
578.569033976275
 20
6633.39351247608
 30
0.0
 11
566.131084946152
 21
6633.39351247608
 31
0.0
  0
LINE
  5
64
330
A
100
AcDbEntity
  8
1
  6
DOT_CENTER
 62
     1
100
AcDbLine
 10
578.569033976275
 20
6620.893512476079
 30
0.0
 11
566.131084946152
 21
6620.893512476079
 31
0.0
  0
LINE
  5
63
330
A
100
AcDbEntity
  8
1
  6
DOTTED
 62
     1
100
AcDbLine
 10
573.905037177714
 20
6614.893512476079
 30
0.0
 11
571.9050371777139
 21
6614.893512476079
 31
0.0
  0
LINE
  5
62
330
A
100
AcDbEntity
  8
1
  6
DOTTED
 62
     1
100
AcDbLine
 10
573.905037177714
 20
6626.893512476079
 30
0.0
 11
571.9050371777139
 21
6626.893512476079
 31
0.0
  0
LINE
  5
61
330
A
100
AcDbEntity
  8
1
  6
DOT_CENTER
 62
     1
100
AcDbLine
 10
566.131084946152
 20
6720.89351247608
 30
0.0
 11
579.4051606056211
 21
6720.89351247608
 31
0.0
  0
LINE
  5
60
330
A
100
AcDbEntity
  8
1
  6
DOTTED
 62
     1
100
AcDbLine
 10
571.9050371777139
 20
6715.894601517536
 30
0.0
 11
573.905037177714
 21
6715.894601517536
 31
0.0
  0
LINE
  5
5F
330
A
100
AcDbEntity
  8
1
  6
DOTTED
 62
     1
100
AcDbLine
 10
571.9050371777139
 20
6725.892637610499
 30
0.0
 11
573.905037177714
 21
6725.892637610499
 31
0.0
  0
LINE
  5
5E
330
A
100
AcDbEntity
  8
1
  6
Continuous
 62
     3
100
AcDbLine
 10
571.9050371777139
 20
6610.893512476079
 30
0.0
 11
571.9050371777139
 21
6730.893512476079
 31
0.0
  0
LINE
  5
5D
330
A
100
AcDbEntity
  8
1
  6
Continuous
 62
     3
100
AcDbLine
 10
571.9050371777139
 20
6730.893512476079
 30
0.0
 11
573.905037177714
 21
6730.893512476079
 31
0.0
  0
LINE
  5
5C
330
A
100
AcDbEntity
  8
1
  6
Continuous
 62
     3
100
AcDbLine
 10
573.905037177714
 20
6730.893512476079
 30
0.0
 11
573.905037177714
 21
6610.893512476079
 31
0.0
  0
LINE
  5
5B
330
A
100
AcDbEntity
  8
1
  6
Continuous
 62
     3
100
AcDbLine
 10
586.405037177714
 20
6665.893512476078
 30
0.0
 11
586.405037177714
 21
6675.893512476079
 31
0.0
  0
LINE
  5
5A
330
A
100
AcDbEntity
  8
1
  6
Continuous
 62
     3
100
AcDbLine
 10
588.9050371777139
 20
6665.893512476078
 30
0.0
 11
586.405037177714
 21
6665.893512476078
 31
0.0
  0
LINE
  5
59
330
A
100
AcDbEntity
  8
1
  6
Continuous
 62
     3
100
AcDbLine
 10
588.9050371777139
 20
6665.893512476078
 30
0.0
 11
588.9050371777139
 21
6664.89351247608
 31
0.0
  0
LINE
  5
58
330
A
100
AcDbEntity
  8
1
  6
Continuous
 62
     3
100
AcDbLine
 10
586.405037177714
 20
6675.893512476079
 30
0.0
 11
588.905037177715
 21
6675.893512476079
 31
0.0
  0
LINE
  5
57
330
A
100
AcDbEntity
  8
1
  6
Continuous
 62
     3
100
AcDbLine
 10
574.905037177714
 20
6631.89351247608
 30
0.0
 11
574.905037177714
 21
6664.89351247608
 31
0.0
  0
LINE
  5
56
330
A
100
AcDbEntity
  8
1
  6
Continuous
 62
     3
100
AcDbLine
 10
574.905037177714
 20
6676.893512476079
 30
0.0
 11
574.905037177714
 21
6709.89351247608
 31
0.0
  0
LINE
  5
55
330
A
100
AcDbEntity
  8
1
  6
Continuous
 62
     3
100
AcDbLine
 10
576.9050371777139
 20
6676.893512476079
 30
0.0
 11
576.9050371777139
 21
6664.89351247608
 31
0.0
  0
LINE
  5
54
330
A
100
AcDbEntity
  8
1
  6
Continuous
 62
     3
100
AcDbLine
 10
588.9050371777139
 20
6676.893512476079
 30
0.0
 11
588.905037177715
 21
6675.893512476079
 31
0.0
  0
LINE
  5
53
330
A
100
AcDbEntity
  8
1
  6
Continuous
 62
     3
100
AcDbLine
 10
647.4050371777139
 20
6705.893512476078
 30
0.0
 11
647.4050371777139
 21
6693.464226690348
 31
0.0
  0
LINE
  5
52
330
A
100
AcDbEntity
  8
1
  6
Continuous
 62
     3
100
AcDbLine
 10
625.405037177714
 20
6681.848115929643
 30
0.0
 11
625.405037177714
 21
6670.89351247608
 31
0.0
  0
LINE
  5
51
330
A
100
AcDbEntity
  8
1
  6
DOTTED
 62
     1
100
AcDbLine
 10
626.4050371777139
 20
6659.89351247608
 30
0.0
 11
636.405037177715
 21
6659.89351247608
 31
0.0
  0
LINE
  5
50
330
A
100
AcDbEntity
  8
1
  6
DOTTED
 62
     1
100
AcDbLine
 10
626.405037177715
 20
6681.893512476079
 30
0.0
 11
636.405037177715
 21
6681.893512476079
 31
0.0
  0
LINE
  5
4F
330
A
100
AcDbEntity
  8
1
  6
DOTTED
 62
     1
100
AcDbLine
 10
643.905037177715
 20
6694.893512476077
 30
0.0
 11
636.405037177715
 21
6694.893512476077
 31
0.0
  0
LINE
  5
4E
330
A
100
AcDbEntity
  8
1
  6
DOT_CENTER
 62
     1
100
AcDbLine
 10
668.546167351797
 20
6740.893512476076
 30
0.0
 11
652.566167351797
 21
6740.893512476076
 31
0.0
  0
LINE
  5
4D
330
A
100
AcDbEntity
  8
1
  6
DOT_CENTER
 62
     1
100
AcDbLine
 10
668.3861673517969
 20
6670.893512476077
 30
0.0
 11
652.566167351797
 21
6670.893512476077
 31
0.0
  0
LINE
  5
4C
330
A
100
AcDbEntity
  8
1
  6
Continuous
 62
     3
100
AcDbLine
 10
648.905037177715
 20
6728.893512476076
 30
0.0
 11
648.905037177715
 21
6682.893512476076
 31
0.0
  0
LINE
  5
4B
330
A
100
AcDbEntity
  8
1
  6
Continuous
 62
     3
100
AcDbLine
 10
658.905037177715
 20
6680.893512476076
 30
0.0
 11
658.905037177715
 21
6730.893512476076
 31
0.0
  0
LINE
  5
4A
330
A
100
AcDbEntity
  8
1
  6
Continuous
 62
     3
100
AcDbLine
 10
658.905037177715
 20
6730.893512476076
 30
0.0
 11
650.905037177715
 21
6730.893512476076
 31
0.0
  0
LINE
  5
49
330
A
100
AcDbEntity
  8
1
  6
Continuous
 62
     3
100
AcDbLine
 10
658.905037177715
 20
6658.393512476077
 30
0.0
 11
658.905037177715
 21
6680.893512476076
 31
0.0
  0
LINE
  5
48
330
A
100
AcDbEntity
  8
1
  6
Continuous
 62
     3
100
AcDbLine
 10
650.905037177715
 20
6680.893512476076
 30
0.0
 11
658.905037177715
 21
6680.893512476076
 31
0.0
  0
LINE
  5
47
330
A
100
AcDbEntity
  8
1
  6
Continuous
 62
     3
100
AcDbLine
 10
658.905037177715
 20
6730.893512476076
 30
0.0
 11
658.905037177715
 21
6753.393512476076
 31
0.0
  0
LINE
  5
46
330
A
100
AcDbEntity
  8
1
  6
Continuous
 62
     3
100
AcDbLine
 10
658.905037177715
 20
6753.393512476076
 30
0.0
 11
660.905037177715
 21
6753.393512476076
 31
0.0
  0
LINE
  5
45
330
A
100
AcDbEntity
  8
1
  6
Continuous
 62
     3
100
AcDbLine
 10
660.905037177715
 20
6753.393512476076
 30
0.0
 11
660.905037177715
 21
6658.393512476077
 31
0.0
  0
LINE
  5
44
330
A
100
AcDbEntity
  8
1
  6
Continuous
 62
     3
100
AcDbLine
 10
660.905037177715
 20
6658.393512476077
 30
0.0
 11
658.905037177715
 21
6658.393512476077
 31
0.0
  0
LINE
  5
43
330
A
100
AcDbEntity
  8
1
  6
Continuous
 62
     3
100
AcDbLine
 10
643.905037177715
 20
6716.893512476076
 30
0.0
 11
636.405037177715
 21
6716.893512476076
 31
0.0
  0
LINE
  5
42
330
A
100
AcDbEntity
  8
1
  6
DOT_CENTER
 62
     1
100
AcDbLine
 10
670.589371230792
 20
6705.893512476078
 30
0.0
 11
647.4050371777139
 21
6705.893512476078
 31
0.0
  0
LINE
  5
41
330
A
100
AcDbEntity
  8
1
  6
Continuous
 62
     3
100
AcDbLine
 10
624.405037177714
 20
6674.893512476079
 30
0.0
 11
624.405037177714
 21
6666.893512476079
 31
0.0
  0
LINE
  5
40
330
A
100
AcDbEntity
  8
1
  6
Continuous
 62
     3
100
AcDbLine
 10
618.905037177714
 20
6675.893512476079
 30
0.0
 11
623.405037177714
 21
6675.893512476079
 31
0.0
  0
LINE
  5
3F
330
A
100
AcDbEntity
  8
1
  6
Continuous
 62
     3
100
AcDbLine
 10
625.405037177715
 20
6663.893512476079
 30
0.0
 11
625.405037177715
 21
6660.893512476079
 31
0.0
  0
LINE
  5
3E
330
A
100
AcDbEntity
  8
1
  6
Continuous
 62
     3
100
AcDbLine
 10
625.405037177715
 20
6680.893512476079
 30
0.0
 11
625.405037177714
 21
6677.893512476079
 31
0.0
  0
LINE
  5
3D
330
A
100
AcDbEntity
  8
1
  6
Continuous
 62
     3
100
AcDbLine
 10
621.405037177715
 20
6629.893512476079
 30
0.0
 11
573.905037177715
 21
6629.893512476079
 31
0.0
  0
LINE
  5
3C
330
A
100
AcDbEntity
  8
1
  6
Continuous
 62
     3
100
AcDbLine
 10
623.405037177714
 20
6664.89351247608
 30
0.0
 11
623.405037177714
 21
6631.89351247608
 31
0.0
  0
LINE
  5
3B
330
A
100
AcDbEntity
  8
1
  6
Continuous
 62
     3
100
AcDbLine
 10
573.905037177715
 20
6664.89351247608
 30
0.0
 11
623.405037177714
 21
6664.89351247608
 31
0.0
  0
LINE
  5
3A
330
A
100
AcDbEntity
  8
1
  6
Continuous
 62
     3
100
AcDbLine
 10
623.405037177715
 20
6709.89351247608
 30
0.0
 11
623.405037177714
 21
6676.893512476079
 31
0.0
  0
LINE
  5
39
330
A
100
AcDbEntity
  8
1
  6
Continuous
 62
     3
100
AcDbLine
 10
573.905037177715
 20
6711.89351247608
 30
0.0
 11
621.4050371777159
 21
6711.89351247608
 31
0.0
  0
LINE
  5
38
330
A
100
AcDbEntity
  8
1
  6
Continuous
 62
     3
100
AcDbLine
 10
618.905037177714
 20
6665.893512476078
 30
0.0
 11
588.9050371777139
 21
6665.893512476078
 31
0.0
  0
LINE
  5
37
330
A
100
AcDbEntity
  8
1
  6
Continuous
 62
     3
100
AcDbLine
 10
618.905037177714
 20
6676.893512476079
 30
0.0
 11
618.905037177714
 21
6675.893512476079
 31
0.0
  0
LINE
  5
36
330
A
100
AcDbEntity
  8
1
  6
Continuous
 62
     3
100
AcDbLine
 10
588.905037177715
 20
6675.893512476079
 30
0.0
 11
618.905037177714
 21
6675.893512476079
 31
0.0
  0
LINE
  5
35
330
A
100
AcDbEntity
  8
1
  6
Continuous
 62
     3
100
AcDbLine
 10
623.405037177714
 20
6676.893512476079
 30
0.0
 11
573.905037177714
 21
6676.893512476079
 31
0.0
  0
LINE
  5
34
330
A
100
AcDbEntity
  8
1
  6
Continuous
 62
     3
100
AcDbLine
 10
618.905037177714
 20
6665.893512476078
 30
0.0
 11
618.905037177714
 21
6664.89351247608
 31
0.0
  0
LINE
  5
33
330
A
100
AcDbEntity
  8
1
  6
Continuous
 62
     3
100
AcDbLine
 10
623.405037177714
 20
6665.893512476078
 30
0.0
 11
618.905037177714
 21
6665.893512476078
 31
0.0
  0
LINE
  5
32
330
A
100
AcDbEntity
  8
1
  6
Continuous
 62
     3
100
AcDbLine
 10
647.373929530602
 20
6705.06683203554
 30
0.0
 11
647.373929530602
 21
6705.066832035537
 31
0.0
  0
LINE
  5
31
330
A
100
AcDbEntity
  8
1
  6
Continuous
 62
     3
100
AcDbLine
 10
625.405037177714
 20
6705.893512476079
 30
0.0
 11
625.405037177714
 21
6681.848115929643
 31
0.0
  0
LINE
  5
30
330
A
100
AcDbEntity
  8
1
  6
DOT_CENTER
 62
     1
100
AcDbLine
 10
636.405037177715
 20
6730.379083722128
 30
0.0
 11
636.405037177715
 21
6509.652522623807
 31
0.0
  0
LINE
  5
2F
330
A
100
AcDbEntity
  8
1
  6
Continuous
 62
     3
100
AcDbLine
 10
647.4050371777139
 20
6693.464226690348
 30
0.0
 11
647.4050371777139
 21
6535.893512476079
 31
0.0
  0
LINE
  5
2E
330
A
100
AcDbEntity
  8
1
  6
DOT_CENTER
 62
     1
100
AcDbLine
 10
647.4050371777139
 20
6705.893512476078
 30
0.0
 11
554.494707816728
 21
6705.893512476078
 31
0.0
  0
LINE
  5
2D
330
A
100
AcDbEntity
  8
1
  6
DOT_CENTER
 62
     1
100
AcDbLine
 10
618.5299253005499
 20
6535.893512476079
 30
0.0
 11
655.78992530055
 21
6535.893512476079
 31
0.0
  0
LINE
  5
2C
330
A
100
AcDbEntity
  8
1
  6
Continuous
 62
     3
100
AcDbLine
 10
625.405037177714
 20
6670.89351247608
 30
0.0
 11
625.405037177714
 21
6535.893512476079
 31
0.0
  0
LINE
  5
2B
330
A
100
AcDbEntity
  8
1
  6
DOT_CENTER
 62
     1
100
AcDbLine
 10
549.358954365523
 20
6670.89351247608
 30
0.0
 11
652.566167351797
 21
6670.89351247608
 31
0.0
  0
LINE
  5
2A
330
A
100
AcDbEntity
  8
1
  6
DOT_CENTER
 62
     1
100
AcDbLine
 10
636.405037177715
 20
6442.13201360424
 30
0.0
 11
636.405037177715
 21
6432.35884116432
 31
0.0
  0
LINE
  5
29
330
A
100
AcDbEntity
  8
1
  6
DOT_CENTER
 62
     1
100
AcDbLine
 10
636.405037177715
 20
6474.009234349231
 30
0.0
 11
636.405037177715
 21
6464.132013604239
 31
0.0
  0
LINE
  5
28
330
A
100
AcDbEntity
  8
1
  6
DOT_CENTER
 62
     1
100
AcDbLine
 10
636.405037177715
 20
6464.132013604239
 30
0.0
 11
636.405037177715
 21
6442.13201360424
 31
0.0
  0
ENDSEC
  0
SECTION
  2
OBJECTS
  0
DICTIONARY
  5
19
330
0
100
AcDbDictionary
281
     1
  3
ACAD_COLOR
350
2DF
  3
ACAD_GROUP
350
1A
  3
ACAD_LAYOUT
350
2E2
  3
ACAD_MATERIAL
350
2DE
  3
ACAD_MLINESTYLE
350
1B
  3
ACAD_PLOTSETTINGS
350
2E3
  3
ACAD_PLOTSTYLENAME
350
2DC
  3
ACAD_TABLESTYLE
350
2E0
  3
ACDBHEADERROUNDTRIPXREC
350
420
  3
AcDbVariableDictionary
350
419
  3
AcmDictionary
350
3B3
  3
AMG
350
2F2
  3
AMGSNAPSETTINGS
350
409
  3
ASE_INDEX_DICTIONARY
350
411
  3
DWGPROPS
350
41F
  3
MAPISURF_MODULE
350
37F
  0
DICTIONARY
  5
414
330
A
100
AcDbDictionary
280
     1
281
     1
  3
ACAD_INDEX
360
415
  0
DICTIONARY
  5
2DF
102
{ACAD_REACTORS
330
19
102
}
330
19
100
AcDbDictionary
281
     1
  0
DICTIONARY
  5
1A
102
{ACAD_REACTORS
330
19
102
}
330
19
100
AcDbDictionary
281
     1
  0
DICTIONARY
  5
2E2
102
{ACAD_REACTORS
330
19
102
}
330
19
100
AcDbDictionary
281
     1
  3
Model
350
2E4
  3
レイアウト1
350
2E5
  0
DICTIONARY
  5
2DE
102
{ACAD_REACTORS
330
19
102
}
330
19
100
AcDbDictionary
281
     1
  0
DICTIONARY
  5
1B
102
{ACAD_REACTORS
330
19
102
}
330
19
100
AcDbDictionary
281
     1
  3
STANDARD
350
1C
  0
DICTIONARY
  5
2E3
102
{ACAD_REACTORS
330
19
102
}
330
19
100
AcDbDictionary
281
     1
  0
ACDBDICTIONARYWDFLT
  5
2DC
102
{ACAD_REACTORS
330
19
102
}
330
19
100
AcDbDictionary
281
     1
  3
Normal
350
2DD
100
AcDbDictionaryWithDefault
340
2DD
  0
DICTIONARY
  5
2E0
102
{ACAD_REACTORS
330
19
102
}
330
19
100
AcDbDictionary
281
     1
  3
Standard
350
2E1
  0
DICTIONARY
  5
420
102
{ACAD_REACTORS
330
19
102
}
330
19
100
AcDbDictionary
281
     1
  0
DICTIONARY
  5
419
102
{ACAD_REACTORS
330
19
102
}
330
19
100
AcDbDictionary
281
     1
  3
CTABLESTYLE
350
41A
  3
DIMASSOC
350
41C
  3
INDEXCTL
350
41B
  3
PROJECTNAME
350
41D
  0
DICTIONARY
  5
3B3
102
{ACAD_REACTORS
330
19
102
}
330
19
100
AcDbDictionary
281
     1
  3
AcmStdDictionary
350
3BF
  3
AMDTSECTSYM_ARROWCOLOR
350
3DE
  0
DICTIONARY
  5
2F2
102
{ACAD_REACTORS
330
19
102
}
330
19
100
AcDbDictionary
281
     1
  3
AcMgSettings
350
2F3
  0
DICTIONARY
  5
409
102
{ACAD_REACTORS
330
19
102
}
330
19
100
AcDbDictionary
281
     1
  3
DIMENSION
350
40E
  3
FEA
350
40D
  3
HATCH (1)
350
40A
  3
HATCH (2)
350
40B
  3
SIMPLE WELD
350
40F
  3
SYMBOLS
350
40C
  0
DICTIONARY
  5
411
102
{ACAD_REACTORS
330
19
102
}
330
19
100
AcDbDictionary
281
     1
  3
ASEBlockHierarchyIndexRecord
350
413
1001
DCO15
1040
1933404654.298
  0
XRECORD
  5
41F
102
{ACAD_REACTORS
330
19
102
}
330
19
100
AcDbXrecord
280
     1
  1
DWGPROPS COOKIE
  2

  3

  4

  6

  7

  8

  9

300
AmdtFileType=84
301
=
302
=
303
=
304
=
305
=
306
=
307
=
308
=
309
=
 40
0.0002685532407407
 41
2305814.417176053
 42
2458180.580535857
  1

 90
        1
  0
DICTIONARY
  5
415
102
{ACAD_REACTORS
330
414
102
}
330
414
100
AcDbDictionary
281
     1
  3
*A1
350
416
  0
LAYOUT
  5
2E4
102
{ACAD_XDICTIONARY
360
421
102
}
102
{ACAD_REACTORS
330
2E2
102
}
330
2E2
100
AcDbPlotSettings
  1

  2
Adobe PDF#:3
  4

  6

 40
0.0
 41
0.0
 42
0.0
 43
0.0
 44
0.0
 45
0.0
 46
0.0
 47
0.0
 48
0.0
 49
0.0
140
0.0
141
0.0
142
1.0
143
1.0
 70
  1712
 72
     0
 73
     0
 74
     0
  7

 75
     0
147
1.0
148
0.0
149
0.0
100
AcDbLayout
  1
Model
 70
     1
 71
     0
 10
0.0
 20
0.0
 11
12.0
 21
9.0
 12
0.0
 22
0.0
 32
0.0
 14
0.0
 24
0.0
 34
0.0
 15
0.0
 25
0.0
 35
0.0
146
0.0
 13
0.0
 23
0.0
 33
0.0
 16
1.0
 26
0.0
 36
0.0
 17
0.0
 27
1.0
 37
0.0
 76
     0
330
A
  0
LAYOUT
  5
2E5
102
{ACAD_XDICTIONARY
360
423
102
}
102
{ACAD_REACTORS
330
2E2
102
}
330
2E2
100
AcDbPlotSettings
  1

  2
Adobe PDF#:3
  4

  6

 40
0.0
 41
0.0
 42
0.0
 43
0.0
 44
0.0
 45
0.0
 46
0.0
 47
0.0
 48
0.0
 49
0.0
140
0.0
141
0.0
142
1.0
143
1.0
 70
   688
 72
     0
 73
     0
 74
     5
  7

 75
    16
147
1.0
148
0.0
149
0.0
100
AcDbLayout
  1
レイアウト1
 70
     0
 71
     1
 10
0.0
 20
0.0
 11
12.0
 21
9.0
 12
0.0
 22
0.0
 32
0.0
 14
1.000000000000000E+20
 24
1.000000000000000E+20
 34
1.000000000000000E+20
 15
-1.000000000000000E+20
 25
-1.000000000000000E+20
 35
-1.000000000000000E+20
146
0.0
 13
0.0
 23
0.0
 33
0.0
 16
1.0
 26
0.0
 36
0.0
 17
0.0
 27
1.0
 37
0.0
 76
     0
330
B
  0
MLINESTYLE
  5
1C
102
{ACAD_REACTORS
330
1B
102
}
330
1B
100
AcDbMlineStyle
  2
STANDARD
 70
     0
  3

 62
     0
 51
90.0
 52
90.0
 71
     2
 49
0.5
 62
   256
  6
BYLAYER
 49
-0.5
 62
   256
  6
BYLAYER
  0
ACDBPLACEHOLDER
  5
2DD
102
{ACAD_REACTORS
330
2DC
102
}
330
2DC
  0
TABLESTYLE
  5
2E1
102
{ACAD_REACTORS
330
2E0
102
}
330
2E0
100
AcDbTableStyle
  3
Standard
 70
     0
 71
     0
 40
1.5
 41
1.5
280
     0
281
     0
  7
STANDARD
140
4.5
170
     2
 62
     0
 63
     7
283
     0
274
    -2
284
     1
 64
     0
275
    -2
285
     1
 65
     0
276
    -2
286
     1
 66
     0
277
    -2
287
     1
 67
     0
278
    -2
288
     1
 68
     0
279
    -2
289
     1
 69
     0
  7
STANDARD
140
6.0
170
     5
 62
     0
 63
     7
283
     0
274
    -2
284
     1
 64
     0
275
    -2
285
     1
 65
     0
276
    -2
286
     1
 66
     0
277
    -2
287
     1
 67
     0
278
    -2
288
     1
 68
     0
279
    -2
289
     1
 69
     0
  7
STANDARD
140
4.5
170
     5
 62
     0
 63
     7
283
     0
274
    -2
284
     1
 64
     0
275
    -2
285
     1
 65
     0
276
    -2
286
     1
 66
     0
277
    -2
287
     1
 67
     0
278
    -2
288
     1
 68
     0
279
    -2
289
     1
 69
     0
  0
DICTIONARYVAR
  5
41A
102
{ACAD_REACTORS
330
419
102
}
330
419
100
DictionaryVariables
280
     0
  1
STANDARD
  0
DICTIONARYVAR
  5
41C
102
{ACAD_REACTORS
330
419
102
}
330
419
100
DictionaryVariables
280
     0
  1
1
  0
DICTIONARYVAR
  5
41B
102
{ACAD_REACTORS
330
419
102
}
330
419
100
DictionaryVariables
280
     0
  1
1
  0
DICTIONARYVAR
  5
41D
102
{ACAD_REACTORS
330
419
102
}
330
419
100
DictionaryVariables
280
     0
  1

  0
DICTIONARY
  5
3BF
102
{ACAD_REACTORS
330
3B3
102
}
330
3B3
100
AcDbDictionary
281
     1
  0
XRECORD
  5
3DE
102
{ACAD_REACTORS
330
3B3
102
}
330
3B3
100
AcDbXrecord
280
     1
 90
-1023410169
  0
DICTIONARY
  5
2F3
102
{ACAD_REACTORS
330
2F2
102
}
330
2F2
100
AcDbDictionary
281
     1
  3
DWGSETTINGS
350
2F4
  3
TRANSSETTINGS
350
2F8
  0
ACAMGFILTERDAT
  5
40E
102
{ACAD_REACTORS
330
409
102
}
330
409
100
AcAmgFilterDat
 70
    15
  1
DIMENSION,AMDT_*_DIM
  2
*
  3
*
  4
*
  5
*
290
     1
  0
ACAMGFILTERDAT
  5
40D
102
{ACAD_REACTORS
330
409
102
}
330
409
100
AcAmgFilterDat
 70
    15
  1
*
  2
AM_FEA-AM_*
  3
*
  4
*
  5
*
290
     1
  0
ACAMGFILTERDAT
  5
40A
102
{ACAD_REACTORS
330
409
102
}
330
409
100
AcAmgFilterDat
 70
    15
  1
HATCH
  2
*
  3
*
  4
*
  5
*
290
     1
  0
ACAMGFILTERDAT
  5
40B
102
{ACAD_REACTORS
330
409
102
}
330
409
100
AcAmgFilterDat
 70
    15
  1
LINE
  2
8,8N,*-8,*-8N,AM_8,AM_8N,*-AM_8,*-AM_8N
  3
*
  4
*
  5
INSERT,STDPART2D
290
     1
  0
ACAMGFILTERDAT
  5
40F
102
{ACAD_REACTORS
330
409
102
}
330
409
100
AcAmgFilterDat
 70
    15
  1
ARC
  2
AM_5
  3
*
  4
2
  5
INSERT
290
     0
  0
ACAMGFILTERDAT
  5
40C
102
{ACAD_REACTORS
330
409
102
}
330
409
100
AcAmgFilterDat
 70
    15
  1
ACMFCFRAME,ACMDATUMTARGET,ACMDATUMID,ACMWELDSYM,ACMSURFSYM,ACMFEATID,ACMPARTREF,ACMBALLOON,AMDTEDGESYM,AMGSCREWCALCTABLE
  2
*
  3
*
  4
*
  5
*
290
     1
  0
XRECORD
  5
413
102
{ACAD_REACTORS
330
411
102
}
330
411
100
AcDbXrecord
280
     1
  0
LAYER_INDEX
  5
416
102
{ACAD_REACTORS
330
415
102
}
330
415
100
AcDbIndex
 40
2458180.580535857
100
AcDbLayerIndex
  8
0
360
417
 90
        0
  8
1
360
418
 90
      688
  0
DICTIONARY
  5
421
330
2E4
100
AcDbDictionary
280
     1
281
     1
  3
ACAD_XREC_ROUNDTRIP
360
422
  0
DICTIONARY
  5
423
330
2E5
100
AcDbDictionary
280
     1
281
     1
  3
ACAD_XREC_ROUNDTRIP
360
424
  0
IDBUFFER
  5
417
330
0
100
AcDbIdBuffer
  0
IDBUFFER
  5
418
330
0
100
AcDbIdBuffer
330
E7
330
E6
330
E5
330
E4
330
E3
330
E2
330
E1
330
E0
330
DF
330
DE
330
DD
330
DC
330
DB
330
DA
330
D9
330
D8
330
D7
330
D6
330
D5
330
D4
330
D3
330
D2
330
D1
330
D0
330
CF
330
CE
330
CD
330
CC
330
CB
330
CA
330
C9
330
C8
330
C7
330
C6
330
C5
330
C4
330
C3
330
C2
330
C1
330
C0
330
BF
330
BE
330
BD
330
BC
330
BB
330
BA
330
B9
330
B8
330
B7
330
B6
330
B5
330
B4
330
B3
330
B2
330
B1
330
B0
330
AF
330
AE
330
AD
330
AC
330
AB
330
AA
330
A9
330
A8
330
A7
330
A6
330
A5
330
A4
330
A3
330
A2
330
A1
330
A0
330
9F
330
9E
330
9D
330
9C
330
9B
330
9A
330
99
330
98
330
97
330
96
330
95
330
94
330
93
330
92
330
91
330
90
330
8F
330
8E
330
8D
330
8C
330
8B
330
8A
330
89
330
88
330
87
330
86
330
85
330
84
330
83
330
82
330
81
330
80
330
7F
330
7E
330
7D
330
7C
330
7B
330
7A
330
79
330
78
330
77
330
76
330
75
330
74
330
73
330
72
330
71
330
70
330
6F
330
6E
330
6D
330
6C
330
6B
330
6A
330
69
330
68
330
67
330
66
330
65
330
64
330
63
330
62
330
61
330
60
330
5F
330
5E
330
5D
330
5C
330
5B
330
5A
330
59
330
58
330
57
330
56
330
55
330
54
330
53
330
52
330
51
330
50
330
4F
330
4E
330
4D
330
4C
330
4B
330
4A
330
49
330
48
330
47
330
46
330
45
330
44
330
43
330
42
330
41
330
40
330
3F
330
3E
330
3D
330
3C
330
3B
330
3A
330
39
330
38
330
37
330
36
330
35
330
34
330
33
330
32
330
31
330
30
330
2F
330
2E
330
2D
330
2C
330
2B
330
2A
330
29
330
28
330
2D8
330
2D6
330
2D5
330
2D4
330
2D3
330
2D2
330
2D1
330
2D0
330
2CF
330
2CE
330
2CD
330
2CC
330
2CB
330
2CA
330
2C9
330
2C8
330
2C7
330
2C6
330
2C5
330
2C4
330
2C3
330
2C2
330
2C1
330
2C0
330
2BF
330
2BE
330
2BD
330
2BC
330
2BB
330
2BA
330
2B9
330
2B8
330
2B7
330
2B6
330
2B5
330
2B4
330
2B3
330
2B2
330
2B1
330
2B0
330
2AF
330
2AE
330
2AD
330
2AC
330
2AB
330
2AA
330
2A9
330
2A8
330
2A7
330
2A6
330
2A5
330
2A4
330
2A3
330
2A2
330
2A1
330
2A0
330
29F
330
29E
330
29D
330
29C
330
29B
330
29A
330
299
330
298
330
297
330
296
330
295
330
294
330
293
330
292
330
291
330
290
330
28F
330
28E
330
28D
330
28C
330
28B
330
28A
330
289
330
288
330
287
330
286
330
285
330
284
330
283
330
282
330
281
330
280
330
27F
330
27E
330
27D
330
27C
330
27B
330
27A
330
279
330
278
330
277
330
276
330
275
330
274
330
273
330
272
330
271
330
270
330
26F
330
26E
330
26D
330
26C
330
26B
330
26A
330
269
330
268
330
267
330
266
330
265
330
264
330
263
330
262
330
261
330
260
330
25F
330
25E
330
25D
330
25C
330
25B
330
25A
330
259
330
258
330
257
330
256
330
255
330
254
330
253
330
252
330
251
330
250
330
24F
330
24E
330
24D
330
24C
330
24B
330
24A
330
249
330
248
330
247
330
246
330
245
330
244
330
243
330
242
330
241
330
240
330
23F
330
23E
330
23D
330
23C
330
23B
330
23A
330
239
330
238
330
237
330
236
330
235
330
234
330
233
330
232
330
231
330
230
330
22F
330
22E
330
22D
330
22C
330
22B
330
22A
330
229
330
228
330
227
330
226
330
225
330
224
330
223
330
222
330
221
330
220
330
21F
330
21E
330
21D
330
21C
330
21B
330
21A
330
219
330
218
330
217
330
216
330
215
330
214
330
213
330
212
330
211
330
210
330
20F
330
20E
330
20D
330
20C
330
20B
330
20A
330
209
330
208
330
207
330
206
330
205
330
204
330
203
330
202
330
201
330
200
330
1FF
330
1FE
330
1FD
330
1FC
330
1FB
330
1FA
330
1F9
330
1F8
330
1F7
330
1F6
330
1F5
330
1F4
330
1F3
330
1F2
330
1F1
330
1F0
330
1EF
330
1EE
330
1ED
330
1EC
330
1EB
330
1EA
330
1E9
330
1E8
330
1E7
330
1E6
330
1E5
330
1E4
330
1E3
330
1E2
330
1E1
330
1E0
330
1DF
330
1DE
330
1DD
330
1DC
330
1DB
330
1DA
330
1D9
330
1D8
330
1D7
330
1D6
330
1D5
330
1D4
330
1D3
330
1D2
330
1D1
330
1D0
330
1CF
330
1CE
330
1CD
330
1CC
330
1CB
330
1CA
330
1C9
330
1C8
330
1C7
330
1C6
330
1C5
330
1C4
330
1C3
330
1C2
330
1C1
330
1C0
330
1BF
330
1BE
330
1BD
330
1BC
330
1BB
330
1BA
330
1B9
330
1B8
330
1B7
330
1B6
330
1B5
330
1B4
330
1B3
330
1B2
330
1B1
330
1B0
330
1AF
330
1AE
330
1AD
330
1AC
330
1AB
330
1AA
330
1A9
330
1A8
330
1A7
330
1A6
330
1A5
330
1A4
330
1A3
330
1A2
330
1A1
330
1A0
330
19F
330
19E
330
19D
330
19C
330
19B
330
19A
330
199
330
198
330
197
330
196
330
195
330
194
330
193
330
192
330
191
330
190
330
18F
330
18E
330
18D
330
18C
330
18B
330
18A
330
189
330
188
330
187
330
186
330
185
330
184
330
183
330
182
330
181
330
180
330
17F
330
17E
330
17D
330
17C
330
17B
330
17A
330
179
330
178
330
177
330
176
330
175
330
174
330
173
330
172
330
171
330
170
330
16F
330
16E
330
16D
330
16C
330
16B
330
16A
330
169
330
168
330
167
330
166
330
165
330
164
330
163
330
162
330
161
330
160
330
15F
330
15E
330
15D
330
15C
330
15B
330
15A
330
159
330
158
330
157
330
156
330
155
330
154
330
153
330
152
330
151
330
150
330
14F
330
14E
330
14D
330
14C
330
14B
330
14A
330
149
330
148
330
147
330
146
330
145
330
144
330
143
330
142
330
141
330
140
330
13F
330
13E
330
13D
330
13C
330
13B
330
13A
330
139
330
138
330
137
330
136
330
135
330
134
330
133
330
132
330
131
330
130
330
12F
330
12E
330
12D
330
12C
330
12B
330
12A
330
129
330
128
330
127
330
126
330
125
330
124
330
123
330
122
330
121
330
120
330
11F
330
11E
330
11D
330
11C
330
11B
330
11A
330
119
330
118
330
117
330
116
330
115
330
114
330
113
330
112
330
111
330
110
330
10F
330
10E
330
10D
330
10C
330
10B
330
10A
330
109
330
108
330
107
330
106
330
105
330
104
330
103
330
102
330
101
330
100
330
FF
330
FE
330
FD
330
FC
330
FB
330
FA
330
F9
330
F8
330
F7
330
F6
330
F5
330
F4
330
F3
330
F2
330
F1
330
F0
330
EF
330
EE
330
ED
330
EC
330
EB
330
EA
330
E9
330
E8
  0
XRECORD
  5
422
102
{ACAD_REACTORS
330
421
102
}
330
421
100
AcDbXrecord
280
     1
102
SHADEPLOT
 70
     0
102
SHADEPLOTRESLEVEL
 70
     2
102
SHADEPLOTCUSTOMDPI
 70
   300
  0
XRECORD
  5
424
102
{ACAD_REACTORS
330
423
102
}
330
423
100
AcDbXrecord
280
     1
102
SHADEPLOT
 70
     0
102
SHADEPLOTRESLEVEL
 70
     2
102
SHADEPLOTCUSTOMDPI
 70
   300
  0
ENDSEC
  0
EOF
