  0
SECTION
  2
HEADER
  9
$ACADVER
  1
AC1014
  9
$ACADMAINTVER
 70
           0
  9
$DWGCODEPAGE
  3
DOS932
  9
$INSBASE
 10
0.0
 20
0.0
 30
0.0
  9
$EXTMIN
 10
1.000000000000E+20
 20
1.000000000000E+20
 30
1.000000000000E+20
  9
$EXTMAX
 10
-1.000000000000E+20
 20
-1.000000000000E+20
 30
-1.000000000000E+20
  9
$LIMMIN
 10
0.0
 20
0.0
  9
$LIMMAX
 10
0.0
 20
0.0
  9
$ORTHOMODE
 70
           0
  9
$REGENMODE
 70
           1
  9
$FILLMODE
 70
           1
  9
$QTEXTMODE
 70
           0
  9
$MIRRTEXT
 70
           1
  9
$DRAGMODE
 70
           2
  9
$LTSCALE
 40
1.0
  9
$OSMODE
 70
           0
  9
$ATTMODE
 70
           1
  9
$TEXTSIZE
 40
0.2
  9
$TRACEWID
 40
0.05
  9
$TEXTSTYLE
  7
STANDARD
  9
$CLAYER
  8
0
  9
$CELTYPE
  6
CONTINUOUS
  9
$CECOLOR
 62
         256
  9
$CELTSCALE
 40
1.0
  9
$DELOBJ
 70
           1
  9
$DISPSILH
 70
           0
  9
$DIMSCALE
 40
1.0
  9
$DIMASZ
 40
0.18
  9
$DIMEXO
 40
0.0625
  9
$DIMDLI
 40
0.38
  9
$DIMRND
 40
0.0
  9
$DIMDLE
 40
0.0
  9
$DIMEXE
 40
0.18
  9
$DIMTP
 40
0.0
  9
$DIMTM
 40
0.0
  9
$DIMTXT
 40
0.18
  9
$DIMCEN
 40
0.09
  9
$DIMTSZ
 40
0.0
  9
$DIMTOL
 70
           0
  9
$DIMLIM
 70
           0
  9
$DIMTIH
 70
           1
  9
$DIMTOH
 70
           1
  9
$DIMSE1
 70
           0
  9
$DIMSE2
 70
           0
  9
$DIMTAD
 70
           0
  9
$DIMZIN
 70
           0
  9
$DIMBLK
  1

  9
$DIMASO
 70
           1
  9
$DIMSHO
 70
           1
  9
$DIMPOST
  1

  9
$DIMAPOST
  1

  9
$DIMALT
 70
           0
  9
$DIMALTD
 70
           2
  9
$DIMALTF
 40
25.4
  9
$DIMLFAC
 40
1.0
  9
$DIMTOFL
 70
           0
  9
$DIMTVP
 40
0.0
  9
$DIMTIX
 70
           0
  9
$DIMSOXD
 70
           0
  9
$DIMSAH
 70
           0
  9
$DIMBLK1
  1

  9
$DIMBLK2
  1

  9
$DIMSTYLE
  2
STANDARD
  9
$DIMCLRD
 70
           0
  9
$DIMCLRE
 70
           0
  9
$DIMCLRT
 70
           0
  9
$DIMTFAC
 40
1.0
  9
$DIMGAP
 40
0.09
  9
$DIMJUST
 70
           0
  9
$DIMSD1
 70
           0
  9
$DIMSD2
 70
           0
  9
$DIMTOLJ
 70
           1
  9
$DIMTZIN
 70
           0
  9
$DIMALTZ
 70
           0
  9
$DIMALTTZ
 70
           0
  9
$DIMFIT
 70
           3
  9
$DIMUPT
 70
           0
  9
$DIMUNIT
 70
           2
  9
$DIMDEC
 70
           4
  9
$DIMTDEC
 70
           4
  9
$DIMALTU
 70
           2
  9
$DIMALTTD
 70
           2
  9
$DIMTXSTY
  7
STANDARD
  9
$DIMAUNIT
 70
           0
  9
$LUNITS
 70
           2
  9
$LUPREC
 70
           4
  9
$SKETCHINC
 40
0.1
  9
$FILLETRAD
 40
0.0
  9
$AUNITS
 70
           0
  9
$AUPREC
 70
           0
  9
$MENU
  1
acad
  9
$ELEVATION
 40
0.0
  9
$PELEVATION
 40
0.0
  9
$THICKNESS
 40
0.0
  9
$LIMCHECK
 70
           0
  9
$BLIPMODE
 70
           1
  9
$CHAMFERA
 40
0.0
  9
$CHAMFERB
 40
0.0
  9
$CHAMFERC
 40
0.0
  9
$CHAMFERD
 40
0.0
  9
$SKPOLY
 70
           0
  9
$TDCREATE
 40
0.000000000
  9
$TDUPDATE
 40
0.000000000
  9
$TDINDWG
 40
0.0000000000
  9
$TDUSRTIMER
 40
0.0000000000
  9
$USRTIMER
 70
           1
  9
$ANGBASE
 50
0.0
  9
$ANGDIR
 70
           0
  9
$PDMODE
 70
           0
  9
$PDSIZE
 40
0.0
  9
$PLINEWID
 40
0.0
  9
$COORDS
 70
           0
  9
$SPLFRAME
 70
           0
  9
$SPLINETYPE
 70
           6
  9
$SPLINESEGS
 70
           8
  9
$ATTDIA
 70
           0
  9
$ATTREQ
 70
           1
  9
$HANDLING
 70
           1
  9
$HANDSEED
  5
419
  9
$SURFTAB1
 70
           6
  9
$SURFTAB2
 70
           6
  9
$SURFTYPE
 70
           6
  9
$SURFU
 70
           6
  9
$SURFV
 70
           6
  9
$UCSNAME
  2

  9
$UCSORG
 10
0.0
 20
0.0
 30
0.0
  9
$UCSXDIR
 10
1.0
 20
0.0
 30
0.0
  9
$UCSYDIR
 10
0.0
 20
1.0
 30
0.0
  9
$PUCSNAME
  2

  9
$PUCSORG
 10
0.0
 20
0.0
 30
0.0
  9
$PUCSXDIR
 10
1.0
 20
0.0
 30
0.0
  9
$PUCSYDIR
 10
0.0
 20
1.0
 30
0.0
  9
$USERI1
 70
           0
  9
$USERI2
 70
           0
  9
$USERI3
 70
           0
  9
$USERI4
 70
           0
  9
$USERI5
 70
           0
  9
$USERR1
 40
0.0
  9
$USERR2
 40
0.0
  9
$USERR3
 40
0.0
  9
$USERR4
 40
0.0
  9
$USERR5
 40
0.0
  9
$WORLDVIEW
 70
           1
  9
$SHADEDGE
 70
           3
  9
$SHADEDIF
 70
          70
  9
$TILEMODE
 70
           1
  9
$MAXACTVP
 70
          16
  9
$PINSBASE
 10
0.0
 20
0.0
 30
0.0
  9
$PLIMCHECK
 70
           0
  9
$PEXTMIN
 10
1.000000000000E+20
 20
1.000000000000E+20
 30
1.000000000000E+20
  9
$PEXTMAX
 10
-1.000000000000E+20
 20
-1.000000000000E+20
 30
-1.000000000000E+20
  9
$PLIMMIN
 10
0.0
 20
0.0
  9
$PLIMMAX
 10
12.0
 20
9.0
  9
$UNITMODE
 70
           0
  9
$VISRETAIN
 70
           0
  9
$PLINEGEN
 70
           1
  9
$PSLTSCALE
 70
           0
  9
$TREEDEPTH
 70
        3020
  9
$PICKSTYLE
 70
           1
  9
$CMLSTYLE
  2
STANDARD
  9
$CMLJUST
 70
           0
  9
$CMLSCALE
 40
1.0
  9
$PROXYGRAPHICS
 70
           0
  9
$MEASUREMENT
 70
           1
  0
ENDSEC
  0
SECTION
  2
CLASSES
  0
CLASS
  1
LWPOLYLINE
  2
AcDbPolyline
  3
"AutoCAD"
 90
        0
280
           0
281
           1
  0
CLASS
  1
IMAGE
  2
AcDbRasterImage
  3
ISM
 90
      127
280
           0
281
           1
  0
CLASS
  1
OLE2FRAME
  2
AcDbOle2Frame
  3
""
 90
        0
280
           0
281
           1
  0
CLASS
  1
HATCH
  2
AcDbHatch
  3
"ACAD_SEDONA"
 90
        0
280
           0
281
           1
  0
CLASS
  1
DICTIONARYVAR
  2
AcDbDictionaryVar
  3
"AutoCAD"
 90
        0
280
           0
281
           0
  0
CLASS
  1
RASTERVARIABLES
  2
AcDbRasterVariables
  3
ISM
 90
        0
280
           0
281
           0
  0
CLASS
  1
IMAGEDEF
  2
AcDbRasterImageDef
  3
ISM
 90
        0
280
           0
281
           0
  0
CLASS
  1
IMAGEDEF_REACTOR
  2
AcDbRasterImageDefReactor
  3
ISM
 90
        1
280
           0
281
           0
  0
CLASS
  1
IDBUFFER
  2
AcDbIdBuffer
  3
"Acad"
 90
        0
280
           0
281
           0
  0
CLASS
  1
SPATIAL_FILTER
  2
AcDbSpatialFilter
  3
"Acad"
 90
        0
280
           0
281
           0
  0
CLASS
  1
XRECORD
  2
AcDbXrecord
  3
"<Built In>"
 90
        0
280
           0
281
           0
  0
CLASS
  1
SORTENTSTABLE
  2
AcDbSortentsTable
  3
"AutoCAD"
 90
        0
280
           0
281
           0
  0
CLASS
  1
LAYER_INDEX
  2
AcDbLayerIndex
  3
"Acad"
 90
        0
280
           0
281
           0
  0
CLASS
  1
SPATIAL_INDEX
  2
AcDbSpatialIndex
  3
"Acad"
 90
        0
280
           0
281
           0
  0
CLASS
  1
OBJECT_PTR
  2
CAseDLPNTableRecord
  3
"ASE-LPNTableRecord"
 90
        1
280
           0
281
           0
  0
CLASS
  1
LAYOUT
  2
AcDbLayout
  3
"AutoCAD 2000"
 90
        1
280
           0
281
           0
  0
CLASS
  1
PLOTSETTINGS
  2
AcDbPlotSettings
  3
"AutoCAD 2000"
 90
        1
280
           0
281
           0
  0
CLASS
  1
ACDBDICTIONARYWDFLT
  2
AcDbDictionaryWithDefault
  3
"AutoCAD 2000"
 90
        1
280
           0
281
           0
  0
CLASS
  1
ACDBPLACEHOLDER
  2
AcDbPlaceHolder
  3
"AutoCAD 2000"
 90
        1
280
           0
281
           0
  0
CLASS
  1
VBA_PROJECT
  2
AcDbVbaProject
  3
"acadvba"
 90
        1
280
           0
281
           0
  0
CLASS
  1
WIPEOUT
  2
AcDbWipeout
  3
WipeOut|AutoCAD Express Tool|expresstools@autodesk.com
 90
      127
280
           0
281
           1
  0
CLASS
  1
WIPEOUTVARIABLES
  2
AcDbWipeoutVariables
  3
WipeOut|AutoCAD Express Tool|expresstools@autodesk.com
 90
        0
280
           0
281
           0
  0
CLASS
  1
RTEXT
  2
RText
  3
RText|AutoCAD Express Tool|expresstools@autodesk.com
 90
        0
280
           0
281
           1
  0
CLASS
  1
ARCALIGNEDTEXT
  2
AcDbArcAlignedText
  3
ATEXT|AutoCAD Express Tool|expresstools@autodesk.com
 90
        0
280
           0
281
           1
  0
ENDSEC
  0
SECTION
  2
TABLES
  0
TABLE
  2
VPORT
  5
7
100
AcDbSymbolTable
 70
           1
  0
VPORT
  5
15
100
AcDbSymbolTableRecord
100
AcDbViewportTableRecord
  2
*ACTIVE
 70
           0
 10
0.0
 20
0.0
 11
1.0
 21
1.0
 12
6.591288
 22
4.579184
 13
0.0
 23
0.0
 14
1.0
 24
1.0
 15
0.0
 25
0.0
 16
0.0
 26
0.0
 36
1.0
 17
0.0
 27
0.0
 37
0.0
 40
9.158369
 41
0.688564
 42
50.0
 43
0.0
 44
0.0
 50
0.0
 51
0.0
 71
           0
 72
         100
 73
           1
 74
           1
 75
           0
 76
           0
 77
           0
 78
           0
  0
ENDTAB
  0
TABLE
  2
LTYPE
  5
4
100
AcDbSymbolTable
 70
          10
  0
LTYPE
  5
11
100
AcDbSymbolTableRecord
100
AcDbLinetypeTableRecord
  2
BYBLOCK
 70
          64
  3

 72
          65
 73
           0
 40
0.0
  0
LTYPE
  5
12
100
AcDbSymbolTableRecord
100
AcDbLinetypeTableRecord
  2
BYLAYER
 70
          64
  3

 72
          65
 73
           0
 40
0.0
  0
LTYPE
  5
13
100
AcDbSymbolTableRecord
100
AcDbLinetypeTableRecord
  2
CONTINUOUS
 70
          64
  3
Solid line
 72
          65
 73
           0
 40
0.0
  0
LTYPE
  5
1D
100
AcDbSymbolTableRecord
100
AcDbLinetypeTableRecord
  2
DASHED
 70
          64
  3
Dashed
 72
          65
 73
           2
 40
15.0
 49
12.0
 74
           0
 49
-3.0
 74
           0
  0
LTYPE
  5
1E
100
AcDbSymbolTableRecord
100
AcDbLinetypeTableRecord
  2
DOTTED
 70
          64
  3
Dotted
 72
          65
 73
           2
 40
3.5
 49
0.5
 74
           0
 49
-3.0
 74
           0
  0
LTYPE
  5
1F
100
AcDbSymbolTableRecord
100
AcDbLinetypeTableRecord
  2
DOT_CENTER
 70
          64
  3
Dot_Center
 72
          65
 73
           4
 40
2.0
 49
1.25
 74
           0
 49
-0.25
 74
           0
 49
0.25
 74
           0
 49
-0.25
 74
           0
  0
LTYPE
  5
20
100
AcDbSymbolTableRecord
100
AcDbLinetypeTableRecord
  2
LONG_DASHED
 70
          64
  3
Long_Dashed
 72
          65
 73
           2
 40
2.0
 49
1.5
 74
           0
 49
-0.5
 74
           0
  0
LTYPE
  5
21
100
AcDbSymbolTableRecord
100
AcDbLinetypeTableRecord
  2
DASH_CENTER
 70
          64
  3
Dash_Center
 72
          65
 73
           4
 40
36.0
 49
24.0
 74
           0
 49
-3.0
 74
           0
 49
6.0
 74
           0
 49
-3.0
 74
           0
  0
LTYPE
  5
22
100
AcDbSymbolTableRecord
100
AcDbLinetypeTableRecord
  2
PHANTOM
 70
          64
  3
Phantom
 72
          65
 73
           6
 40
2.5
 49
1.25
 74
           0
 49
-0.25
 74
           0
 49
0.25
 74
           0
 49
-0.25
 74
           0
 49
0.25
 74
           0
 49
-0.25
 74
           0
  0
LTYPE
  5
23
100
AcDbSymbolTableRecord
100
AcDbLinetypeTableRecord
  2
CENTER_DASH_DASH
 70
          64
  3
Center_Dash_Dash
 72
          65
 73
           6
 40
22.0
 49
12.0
 74
           0
 49
-3.0
 74
           0
 49
0.5
 74
           0
 49
-3.0
 74
           0
 49
0.5
 74
           0
 49
-3.0
 74
           0
  0
ENDTAB
  0
TABLE
  2
LAYER
  5
2
100
AcDbSymbolTable
 70
           2
  0
LAYER
  5
14
100
AcDbSymbolTableRecord
100
AcDbLayerTableRecord
  2
0
 70
           0
 62
           7
  6
CONTINUOUS
  0
LAYER
  5
24
100
AcDbSymbolTableRecord
100
AcDbLayerTableRecord
  2
1
 70
           0
 62
           7
  6
CONTINUOUS
  0
ENDTAB
  0
TABLE
  2
STYLE
  5
3
100
AcDbSymbolTable
 70
           3
  0
STYLE
  5
17
100
AcDbSymbolTableRecord
100
AcDbTextStyleTableRecord
  2
STANDARD
 70
           0
 40
0.0
 41
1.0
 50
0.0
 71
           0
 42
0.0
  3
txt
  4

  0
STYLE
  5
414
100
AcDbSymbolTableRecord
100
AcDbTextStyleTableRecord
  2
CONVERTER_1
 70
           0
 40
0.0
 41
0.72
 50
0.0
 71
           0
 42
0.0
  3
MS Gothic
  4

1001
ACAD
1000
MS Gothic
1071
    32785
  0
STYLE
  5
416
100
AcDbSymbolTableRecord
100
AcDbTextStyleTableRecord
  2
CONVERTER_2
 70
           0
 40
0.0
 41
1.125
 50
0.0
 71
           0
 42
0.0
  3
txt
  4

  0
ENDTAB
  0
TABLE
  2
VIEW
  5
5
100
AcDbSymbolTable
 70
           0
  0
ENDTAB
  0
TABLE
  2
UCS
  5
6
100
AcDbSymbolTable
 70
           0
  0
ENDTAB
  0
TABLE
  2
APPID
  5
8
100
AcDbSymbolTable
 70
           1
  0
APPID
  5
16
100
AcDbSymbolTableRecord
100
AcDbRegAppTableRecord
  2
ACAD
 70
           0
  0
ENDTAB
  0
TABLE
  2
DIMSTYLE
  5
9
100
AcDbSymbolTable
 70
           1
  0
DIMSTYLE
105
18
100
AcDbSymbolTableRecord
100
AcDbDimStyleTableRecord
  2
STANDARD
 70
           0
  3

  4

  5

  6

  7

 40
1.0
 41
0.18
 42
0.0625
 43
0.38
 44
0.18
 45
0.0
 46
0.0
 47
0.0
 48
0.0
 71
           0
 72
           0
 73
           1
 74
           1
 75
           0
 76
           0
 77
           0
 78
           0
140
0.18
141
0.09
142
0.0
143
25.4
144
1.0
145
0.0
146
1.0
147
0.09
170
           0
171
           2
172
           0
173
           0
174
           0
175
           0
176
           0
177
           0
178
           0
270
           2
271
           4
272
           4
273
           2
274
           2
275
           0
280
           0
281
           0
282
           0
283
           1
284
           0
285
           0
286
           0
287
           0
288
           0
340
17
  0
ENDTAB
  0
TABLE
  2
BLOCK_RECORD
  5
1
100
AcDbSymbolTable
 70
           0
  0
BLOCK_RECORD
  5
A
100
AcDbSymbolTableRecord
100
AcDbBlockTableRecord
  2
*MODEL_SPACE
  0
BLOCK_RECORD
  5
B
100
AcDbSymbolTableRecord
100
AcDbBlockTableRecord
  2
*PAPER_SPACE
  0
ENDTAB
  0
ENDSEC
  0
SECTION
  2
BLOCKS
  0
BLOCK
  5
D
100
AcDbEntity
  8
0
100
AcDbBlockBegin
  2
*MODEL_SPACE
 70
           0
 10
0.0
 20
0.0
 30
0.0
  3
*MODEL_SPACE
  1

  0
ENDBLK
  5
E
100
AcDbEntity
  8
0
100
AcDbBlockEnd
  0
BLOCK
  5
F
100
AcDbEntity
 67
           1
  8
0
100
AcDbBlockBegin
  2
*PAPER_SPACE
 70
           0
 10
0.0
 20
0.0
 30
0.0
  3
*PAPER_SPACE
  1

  0
ENDBLK
  5
10
100
AcDbEntity
 67
           1
  8
0
100
AcDbBlockEnd
  0
ENDSEC
  0
SECTION
  2
ENTITIES
  0
MTEXT
  5
417
100
AcDbEntity
  8
1
 62
           1
100
AcDbMText
 10
1032.148543460643
 20
10976.929157037541
 30
0.0
 40
7.799804672134
 41
0.0
 71
           5
 72
           1
  1
STV-3S
  7
CONVERTER_2
  0
MTEXT
  5
415
100
AcDbEntity
  8
1
 62
           1
100
AcDbMText
 10
1032.148543460643
 20
10959.279157037539
 30
0.0
 40
7.799804672134
 41
0.0
 71
           5
 72
           1
  1
Ｓ-ＴＶアーム ３軸・スタンド型
  7
CONVERTER_1
  0
CIRCLE
  5
413
100
AcDbEntity
  8
1
  6
DOTTED
 62
           1
100
AcDbCircle
 10
1019.983739285596
 20
10663.062950270471
 40
2.5
  0
CIRCLE
  5
412
100
AcDbEntity
  8
1
  6
DOTTED
 62
           1
100
AcDbCircle
 10
1049.983739285596
 20
10663.062950270471
 40
2.5
  0
CIRCLE
  5
411
100
AcDbEntity
  8
1
  6
DOTTED
 62
           1
100
AcDbCircle
 10
1049.983739285596
 20
10718.062950270471
 40
2.5
  0
CIRCLE
  5
410
100
AcDbEntity
  8
1
  6
DOTTED
 62
           1
100
AcDbCircle
 10
1019.983739285596
 20
10718.062950270471
 40
2.5
  0
CIRCLE
  5
40F
100
AcDbEntity
  8
1
  6
CONTINUOUS
 62
           3
100
AcDbCircle
 10
1049.983739285596
 20
10663.062950270471
 40
5.0
  0
CIRCLE
  5
40E
100
AcDbEntity
  8
1
  6
CONTINUOUS
 62
           3
100
AcDbCircle
 10
1019.983739285596
 20
10663.062950270471
 40
5.0
  0
CIRCLE
  5
40D
100
AcDbEntity
  8
1
  6
CONTINUOUS
 62
           3
100
AcDbCircle
 10
1019.983739285596
 20
10718.062950270471
 40
5.0
  0
CIRCLE
  5
40C
100
AcDbEntity
  8
1
  6
CONTINUOUS
 62
           3
100
AcDbCircle
 10
1049.983739285596
 20
10718.062950270471
 40
5.0
  0
CIRCLE
  5
40B
100
AcDbEntity
  8
1
  6
CONTINUOUS
 62
           3
100
AcDbCircle
 10
391.702341876124
 20
10510.062950270471
 40
15.0
  0
CIRCLE
  5
40A
100
AcDbEntity
  8
1
  6
CONTINUOUS
 62
           3
100
AcDbCircle
 10
406.702341876124
 20
10553.062950270471
 40
2.5
  0
CIRCLE
  5
409
100
AcDbEntity
  8
1
  6
CONTINUOUS
 62
           3
100
AcDbCircle
 10
376.702341876124
 20
10553.062950270471
 40
2.5
  0
CIRCLE
  5
408
100
AcDbEntity
  8
1
  6
CONTINUOUS
 62
           3
100
AcDbCircle
 10
376.702341876124
 20
10580.562950270471
 40
2.5
  0
CIRCLE
  5
407
100
AcDbEntity
  8
1
  6
CONTINUOUS
 62
           3
100
AcDbCircle
 10
406.702341876124
 20
10580.562950270471
 40
2.5
  0
CIRCLE
  5
406
100
AcDbEntity
  8
1
  6
CONTINUOUS
 62
           3
100
AcDbCircle
 10
376.702341876124
 20
10608.062950270471
 40
2.5
  0
CIRCLE
  5
405
100
AcDbEntity
  8
1
  6
CONTINUOUS
 62
           3
100
AcDbCircle
 10
406.702341876124
 20
10608.062950270471
 40
2.5
  0
CIRCLE
  5
404
100
AcDbEntity
  8
1
  6
CONTINUOUS
 62
           3
100
AcDbCircle
 10
376.702341876124
 20
10773.062950270471
 40
2.5
  0
CIRCLE
  5
403
100
AcDbEntity
  8
1
  6
CONTINUOUS
 62
           3
100
AcDbCircle
 10
406.702341876124
 20
10773.062950270471
 40
2.5
  0
CIRCLE
  5
402
100
AcDbEntity
  8
1
  6
CONTINUOUS
 62
           3
100
AcDbCircle
 10
822.155213027366
 20
10849.81313205366
 40
3.75
  0
CIRCLE
  5
401
100
AcDbEntity
  8
1
  6
CONTINUOUS
 62
           3
100
AcDbCircle
 10
877.155213027366
 20
10849.81313205366
 40
3.75
  0
CIRCLE
  5
400
100
AcDbEntity
  8
1
  6
CONTINUOUS
 62
           3
100
AcDbCircle
 10
877.155213027366
 20
10964.81313205366
 40
3.75
  0
CIRCLE
  5
3FF
100
AcDbEntity
  8
1
  6
CONTINUOUS
 62
           3
100
AcDbCircle
 10
822.155213027366
 20
10964.81313205366
 40
3.75
  0
CIRCLE
  5
3FE
100
AcDbEntity
  8
1
  6
DOTTED
 62
           1
100
AcDbCircle
 10
877.155213027366
 20
10907.31313205366
 40
3.75
  0
CIRCLE
  5
3FD
100
AcDbEntity
  8
1
  6
CONTINUOUS
 62
           3
100
AcDbCircle
 10
1049.983739285596
 20
10773.062950270471
 40
2.5
  0
CIRCLE
  5
3FC
100
AcDbEntity
  8
1
  6
CONTINUOUS
 62
           3
100
AcDbCircle
 10
1019.983739285596
 20
10773.062950270471
 40
2.5
  0
CIRCLE
  5
3FB
100
AcDbEntity
  8
1
  6
CONTINUOUS
 62
           3
100
AcDbCircle
 10
1049.983739285596
 20
10745.562950270471
 40
2.5
  0
CIRCLE
  5
3FA
100
AcDbEntity
  8
1
  6
CONTINUOUS
 62
           3
100
AcDbCircle
 10
1019.983739285596
 20
10745.562950270471
 40
2.5
  0
CIRCLE
  5
3F9
100
AcDbEntity
  8
1
  6
CONTINUOUS
 62
           3
100
AcDbCircle
 10
1049.983739285596
 20
10690.562950270471
 40
2.5
  0
CIRCLE
  5
3F8
100
AcDbEntity
  8
1
  6
CONTINUOUS
 62
           3
100
AcDbCircle
 10
1019.983739285596
 20
10690.562950270471
 40
2.5
  0
CIRCLE
  5
3F7
100
AcDbEntity
  8
1
  6
CONTINUOUS
 62
           3
100
AcDbCircle
 10
1049.983739285596
 20
10635.562950270471
 40
2.5
  0
CIRCLE
  5
3F6
100
AcDbEntity
  8
1
  6
CONTINUOUS
 62
           3
100
AcDbCircle
 10
1019.983739285596
 20
10635.562950270471
 40
2.5
  0
CIRCLE
  5
3F5
100
AcDbEntity
  8
1
  6
CONTINUOUS
 62
           3
100
AcDbCircle
 10
1049.983739285596
 20
10608.062950270471
 40
2.5
  0
CIRCLE
  5
3F4
100
AcDbEntity
  8
1
  6
CONTINUOUS
 62
           3
100
AcDbCircle
 10
1019.983739285596
 20
10608.062950270471
 40
2.5
  0
CIRCLE
  5
3F3
100
AcDbEntity
  8
1
  6
CONTINUOUS
 62
           3
100
AcDbCircle
 10
1049.983739285596
 20
10580.562950270471
 40
2.5
  0
CIRCLE
  5
3F2
100
AcDbEntity
  8
1
  6
CONTINUOUS
 62
           3
100
AcDbCircle
 10
1019.983739285596
 20
10580.562950270471
 40
2.5
  0
CIRCLE
  5
3F1
100
AcDbEntity
  8
1
  6
CONTINUOUS
 62
           3
100
AcDbCircle
 10
1019.983739285596
 20
10553.062950270471
 40
2.5
  0
CIRCLE
  5
3F0
100
AcDbEntity
  8
1
  6
CONTINUOUS
 62
           3
100
AcDbCircle
 10
1049.983739285596
 20
10553.062950270471
 40
2.5
  0
CIRCLE
  5
3EF
100
AcDbEntity
  8
1
  6
CONTINUOUS
 62
           3
100
AcDbCircle
 10
1034.983739285596
 20
10510.062950270471
 40
15.0
  0
CIRCLE
  5
3EE
100
AcDbEntity
  8
1
  6
CONTINUOUS
 62
           3
100
AcDbCircle
 10
381.702341876124
 20
10678.062950270471
 40
3.5
  0
CIRCLE
  5
3ED
100
AcDbEntity
  8
1
  6
CONTINUOUS
 62
           3
100
AcDbCircle
 10
401.702341876124
 20
10678.062950270471
 40
3.5
  0
CIRCLE
  5
3EC
100
AcDbEntity
  8
1
  6
CONTINUOUS
 62
           3
100
AcDbCircle
 10
401.702341876124
 20
10703.062950270471
 40
3.5
  0
CIRCLE
  5
3EB
100
AcDbEntity
  8
1
  6
CONTINUOUS
 62
           3
100
AcDbCircle
 10
381.702341876124
 20
10703.062950270471
 40
3.5
  0
CIRCLE
  5
3EA
100
AcDbEntity
  8
1
  6
CONTINUOUS
 62
           3
100
AcDbCircle
 10
429.202341876124
 20
10653.062950270471
 40
2.6
  0
CIRCLE
  5
3E9
100
AcDbEntity
  8
1
  6
CONTINUOUS
 62
           3
100
AcDbCircle
 10
441.702341876124
 20
10640.562950270471
 40
2.6
  0
CIRCLE
  5
3E8
100
AcDbEntity
  8
1
  6
PHANTOM
 62
           1
100
AcDbCircle
 10
856.167068570773
 20
10907.31313205366
 40
7.0
  0
CIRCLE
  5
3E7
100
AcDbEntity
  8
1
  6
PHANTOM
 62
           1
100
AcDbCircle
 10
883.156997501153
 20
10907.31313205366
 40
7.0
  0
CIRCLE
  5
3E6
100
AcDbEntity
  8
1
  6
CONTINUOUS
 62
           3
100
AcDbCircle
 10
711.156997501153
 20
10907.31313205366
 40
7.0
  0
CIRCLE
  5
3E5
100
AcDbEntity
  8
1
  6
CONTINUOUS
 62
           3
100
AcDbCircle
 10
539.156997501153
 20
10907.31313205366
 40
7.0
  0
CIRCLE
  5
3E4
100
AcDbEntity
  8
1
  6
CONTINUOUS
 62
           3
100
AcDbCircle
 10
406.702341876124
 20
10635.562950270471
 40
2.5
  0
CIRCLE
  5
3E3
100
AcDbEntity
  8
1
  6
CONTINUOUS
 62
           3
100
AcDbCircle
 10
376.702341876124
 20
10635.562950270471
 40
2.5
  0
CIRCLE
  5
3E2
100
AcDbEntity
  8
1
  6
DOTTED
 62
           1
100
AcDbCircle
 10
376.702341876124
 20
10663.062950270471
 40
2.5
  0
CIRCLE
  5
3E1
100
AcDbEntity
  8
1
  6
DOTTED
 62
           1
100
AcDbCircle
 10
406.702341876124
 20
10663.062950270471
 40
2.5
  0
CIRCLE
  5
3E0
100
AcDbEntity
  8
1
  6
DOTTED
 62
           1
100
AcDbCircle
 10
406.702341876124
 20
10690.562950270471
 40
2.5
  0
CIRCLE
  5
3DF
100
AcDbEntity
  8
1
  6
DOTTED
 62
           1
100
AcDbCircle
 10
376.702341876124
 20
10690.562950270471
 40
2.5
  0
CIRCLE
  5
3DE
100
AcDbEntity
  8
1
  6
DOTTED
 62
           1
100
AcDbCircle
 10
376.702341876124
 20
10718.062950270471
 40
2.5
  0
CIRCLE
  5
3DD
100
AcDbEntity
  8
1
  6
DOTTED
 62
           1
100
AcDbCircle
 10
406.702341876124
 20
10718.062950270471
 40
2.5
  0
CIRCLE
  5
3DC
100
AcDbEntity
  8
1
  6
CONTINUOUS
 62
           3
100
AcDbCircle
 10
406.702341876124
 20
10745.562950270471
 40
2.5
  0
CIRCLE
  5
3DB
100
AcDbEntity
  8
1
  6
CONTINUOUS
 62
           3
100
AcDbCircle
 10
376.702341876124
 20
10745.562950270471
 40
2.5
  0
CIRCLE
  5
3DA
100
AcDbEntity
  8
1
  6
PHANTOM
 62
           1
100
AcDbCircle
 10
869.662033035963
 20
10735.843350651559
 40
7.0
  0
CIRCLE
  5
3D9
100
AcDbEntity
  8
1
  6
CONTINUOUS
 62
           3
100
AcDbCircle
 10
984.983739285596
 20
10640.562950270471
 40
2.6
  0
CIRCLE
  5
3D8
100
AcDbEntity
  8
1
  6
CONTINUOUS
 62
           3
100
AcDbCircle
 10
997.483739285596
 20
10653.062950270471
 40
2.6
  0
ARC
  5
3D7
100
AcDbEntity
  8
1
  6
CONTINUOUS
 62
           3
100
AcDbCircle
 10
1048.983739285596
 20
10662.062950270471
 40
0.5
100
AcDbArc
 50
0.0
 51
90.0
  0
ARC
  5
3D6
100
AcDbEntity
  8
1
  6
CONTINUOUS
 62
           3
100
AcDbCircle
 10
1050.983739285596
 20
10662.062950270471
 40
0.5
100
AcDbArc
 50
90.0
 51
180.0
  0
ARC
  5
3D5
100
AcDbEntity
  8
1
  6
CONTINUOUS
 62
           3
100
AcDbCircle
 10
1050.983739285596
 20
10664.062950270471
 40
0.5
100
AcDbArc
 50
180.0
 51
-90.0
  0
ARC
  5
3D4
100
AcDbEntity
  8
1
  6
CONTINUOUS
 62
           3
100
AcDbCircle
 10
1048.983739285596
 20
10664.062950270471
 40
0.5
100
AcDbArc
 50
-90.0
 51
0.0
  0
ARC
  5
3D3
100
AcDbEntity
  8
1
  6
CONTINUOUS
 62
           3
100
AcDbCircle
 10
1020.983739285596
 20
10664.062950270471
 40
0.5
100
AcDbArc
 50
180.0
 51
-90.0
  0
ARC
  5
3D2
100
AcDbEntity
  8
1
  6
CONTINUOUS
 62
           3
100
AcDbCircle
 10
1018.983739285596
 20
10664.062950270471
 40
0.5
100
AcDbArc
 50
-90.0
 51
0.0
  0
ARC
  5
3D1
100
AcDbEntity
  8
1
  6
CONTINUOUS
 62
           3
100
AcDbCircle
 10
1018.983739285596
 20
10662.062950270471
 40
0.5
100
AcDbArc
 50
0.0
 51
90.0
  0
ARC
  5
3D0
100
AcDbEntity
  8
1
  6
CONTINUOUS
 62
           3
100
AcDbCircle
 10
1020.983739285596
 20
10662.062950270471
 40
0.5
100
AcDbArc
 50
90.0
 51
180.0
  0
ARC
  5
3CF
100
AcDbEntity
  8
1
  6
CONTINUOUS
 62
           3
100
AcDbCircle
 10
1020.983739285596
 20
10719.062950270471
 40
0.5
100
AcDbArc
 50
180.0
 51
-90.0
  0
ARC
  5
3CE
100
AcDbEntity
  8
1
  6
CONTINUOUS
 62
           3
100
AcDbCircle
 10
1018.983739285596
 20
10719.062950270471
 40
0.5
100
AcDbArc
 50
-90.0
 51
0.0
  0
ARC
  5
3CD
100
AcDbEntity
  8
1
  6
CONTINUOUS
 62
           3
100
AcDbCircle
 10
1018.983739285596
 20
10717.062950270471
 40
0.5
100
AcDbArc
 50
0.0
 51
90.0
  0
ARC
  5
3CC
100
AcDbEntity
  8
1
  6
CONTINUOUS
 62
           3
100
AcDbCircle
 10
1020.983739285596
 20
10717.062950270471
 40
0.5
100
AcDbArc
 50
90.0
 51
180.0
  0
ARC
  5
3CB
100
AcDbEntity
  8
1
  6
CONTINUOUS
 62
           3
100
AcDbCircle
 10
1048.983739285596
 20
10717.062950270471
 40
0.5
100
AcDbArc
 50
0.0
 51
90.0
  0
ARC
  5
3CA
100
AcDbEntity
  8
1
  6
CONTINUOUS
 62
           3
100
AcDbCircle
 10
1050.983739285596
 20
10717.062950270471
 40
0.5
100
AcDbArc
 50
90.0
 51
180.0
  0
ARC
  5
3C9
100
AcDbEntity
  8
1
  6
CONTINUOUS
 62
           3
100
AcDbCircle
 10
1050.983739285596
 20
10719.062950270471
 40
0.5
100
AcDbArc
 50
180.0
 51
-90.0
  0
ARC
  5
3C8
100
AcDbEntity
  8
1
  6
CONTINUOUS
 62
           3
100
AcDbCircle
 10
1048.983739285596
 20
10719.062950270471
 40
0.5
100
AcDbArc
 50
-90.0
 51
0.0
  0
ARC
  5
3C7
100
AcDbEntity
  8
1
  6
CONTINUOUS
 62
           3
100
AcDbCircle
 10
904.155213027366
 20
10934.31313205366
 40
3.0
100
AcDbArc
 50
0.0
 51
90.0
  0
ARC
  5
3C6
100
AcDbEntity
  8
1
  6
CONTINUOUS
 62
           3
100
AcDbCircle
 10
904.155213027366
 20
10880.31313205366
 40
3.0
100
AcDbArc
 50
-90.0
 51
0.0
  0
ARC
  5
3C5
100
AcDbEntity
  8
1
  6
CONTINUOUS
 62
           3
100
AcDbCircle
 10
812.155213027366
 20
10840.31313205366
 40
5.0
100
AcDbArc
 50
180.0
 51
-90.0
  0
ARC
  5
3C4
100
AcDbEntity
  8
1
  6
CONTINUOUS
 62
           3
100
AcDbCircle
 10
812.155213027366
 20
10974.31313205366
 40
5.0
100
AcDbArc
 50
90.0
 51
180.0
  0
ARC
  5
3C3
100
AcDbEntity
  8
1
  6
CONTINUOUS
 62
           3
100
AcDbCircle
 10
892.155213027366
 20
10974.31313205366
 40
5.0
100
AcDbArc
 50
0.0
 51
90.0
  0
ARC
  5
3C2
100
AcDbEntity
  8
1
  6
CONTINUOUS
 62
           3
100
AcDbCircle
 10
892.155213027366
 20
10840.31313205366
 40
5.0
100
AcDbArc
 50
-90.0
 51
0.0
  0
ARC
  5
3C1
100
AcDbEntity
  8
1
  6
CONTINUOUS
 62
           3
100
AcDbCircle
 10
904.155213027366
 20
10471.062950270471
 40
3.0
100
AcDbArc
 50
-90.0
 51
0.0
  0
ARC
  5
3C0
100
AcDbEntity
  8
1
  6
CONTINUOUS
 62
           3
100
AcDbCircle
 10
902.155213027366
 20
10778.062950270471
 40
5.0
100
AcDbArc
 50
90.0
 51
180.0
  0
ARC
  5
3BF
100
AcDbEntity
  8
1
  6
CONTINUOUS
 62
           6
100
AcDbCircle
 10
382.702341876124
 20
10677.062950270471
 40
0.5
100
AcDbArc
 50
90.0
 51
180.0
  0
ARC
  5
3BE
100
AcDbEntity
  8
1
  6
CONTINUOUS
 62
           6
100
AcDbCircle
 10
382.702341876124
 20
10679.062950270471
 40
0.5
100
AcDbArc
 50
180.0
 51
-90.0
  0
ARC
  5
3BD
100
AcDbEntity
  8
1
  6
CONTINUOUS
 62
           6
100
AcDbCircle
 10
380.702341876124
 20
10679.062950270471
 40
0.5
100
AcDbArc
 50
-90.0
 51
0.0
  0
ARC
  5
3BC
100
AcDbEntity
  8
1
  6
CONTINUOUS
 62
           6
100
AcDbCircle
 10
380.702341876124
 20
10677.062950270471
 40
0.5
100
AcDbArc
 50
0.0
 51
90.0
  0
ARC
  5
3BB
100
AcDbEntity
  8
1
  6
CONTINUOUS
 62
           6
100
AcDbCircle
 10
402.702341876124
 20
10677.062950270471
 40
0.5
100
AcDbArc
 50
90.0
 51
180.0
  0
ARC
  5
3BA
100
AcDbEntity
  8
1
  6
CONTINUOUS
 62
           6
100
AcDbCircle
 10
402.702341876124
 20
10679.062950270471
 40
0.5
100
AcDbArc
 50
180.0
 51
-90.0
  0
ARC
  5
3B9
100
AcDbEntity
  8
1
  6
CONTINUOUS
 62
           6
100
AcDbCircle
 10
400.702341876124
 20
10679.062950270471
 40
0.5
100
AcDbArc
 50
-90.0
 51
0.0
  0
ARC
  5
3B8
100
AcDbEntity
  8
1
  6
CONTINUOUS
 62
           6
100
AcDbCircle
 10
400.702341876124
 20
10677.062950270471
 40
0.5
100
AcDbArc
 50
0.0
 51
90.0
  0
ARC
  5
3B7
100
AcDbEntity
  8
1
  6
CONTINUOUS
 62
           6
100
AcDbCircle
 10
400.702341876124
 20
10704.062950270471
 40
0.5
100
AcDbArc
 50
-90.0
 51
0.0
  0
ARC
  5
3B6
100
AcDbEntity
  8
1
  6
CONTINUOUS
 62
           6
100
AcDbCircle
 10
400.702341876124
 20
10702.062950270471
 40
0.5
100
AcDbArc
 50
0.0
 51
90.0
  0
ARC
  5
3B5
100
AcDbEntity
  8
1
  6
CONTINUOUS
 62
           6
100
AcDbCircle
 10
402.702341876124
 20
10702.062950270471
 40
0.5
100
AcDbArc
 50
90.0
 51
180.0
  0
ARC
  5
3B4
100
AcDbEntity
  8
1
  6
CONTINUOUS
 62
           6
100
AcDbCircle
 10
402.702341876124
 20
10704.062950270471
 40
0.5
100
AcDbArc
 50
180.0
 51
-90.0
  0
ARC
  5
3B3
100
AcDbEntity
  8
1
  6
CONTINUOUS
 62
           6
100
AcDbCircle
 10
380.702341876124
 20
10704.062950270471
 40
0.5
100
AcDbArc
 50
-90.0
 51
0.0
  0
ARC
  5
3B2
100
AcDbEntity
  8
1
  6
CONTINUOUS
 62
           6
100
AcDbCircle
 10
380.702341876124
 20
10702.062950270471
 40
0.5
100
AcDbArc
 50
0.0
 51
90.0
  0
ARC
  5
3B1
100
AcDbEntity
  8
1
  6
CONTINUOUS
 62
           6
100
AcDbCircle
 10
382.702341876124
 20
10702.062950270471
 40
0.5
100
AcDbArc
 50
90.0
 51
180.0
  0
ARC
  5
3B0
100
AcDbEntity
  8
1
  6
CONTINUOUS
 62
           6
100
AcDbCircle
 10
382.702341876124
 20
10704.062950270471
 40
0.5
100
AcDbArc
 50
180.0
 51
-90.0
  0
ARC
  5
3AF
100
AcDbEntity
  8
1
  6
CONTINUOUS
 62
           3
100
AcDbCircle
 10
354.202341876123
 20
10656.46295027047
 40
2.6
100
AcDbArc
 50
90.000000000011
 51
180.0
  0
ARC
  5
3AE
100
AcDbEntity
  8
1
  6
CONTINUOUS
 62
           3
100
AcDbCircle
 10
354.202341876123
 20
10656.46295027047
 40
2.600000000001
100
AcDbArc
 50
0.0
 51
90.000000000011
  0
ARC
  5
3AD
100
AcDbEntity
  8
1
  6
CONTINUOUS
 62
           3
100
AcDbCircle
 10
354.202341876123
 20
10649.662950270471
 40
2.6
100
AcDbArc
 50
-90.0
 51
0.0
  0
ARC
  5
3AC
100
AcDbEntity
  8
1
  6
CONTINUOUS
 62
           3
100
AcDbCircle
 10
354.202341876123
 20
10649.662950270471
 40
2.6
100
AcDbArc
 50
180.0
 51
-90.0
  0
ARC
  5
3AB
100
AcDbEntity
  8
1
  6
CONTINUOUS
 62
           3
100
AcDbCircle
 10
341.702341876123
 20
10637.162950270471
 40
2.6
100
AcDbArc
 50
180.0
 51
-90.0
  0
ARC
  5
3AA
100
AcDbEntity
  8
1
  6
CONTINUOUS
 62
           3
100
AcDbCircle
 10
341.702341876123
 20
10637.162950270471
 40
2.6
100
AcDbArc
 50
-90.0
 51
0.0
  0
ARC
  5
3A9
100
AcDbEntity
  8
1
  6
CONTINUOUS
 62
           3
100
AcDbCircle
 10
341.702341876123
 20
10643.96295027047
 40
2.600000000001
100
AcDbArc
 50
0.0
 51
90.000000000011
  0
ARC
  5
3A8
100
AcDbEntity
  8
1
  6
CONTINUOUS
 62
           3
100
AcDbCircle
 10
341.702341876123
 20
10643.96295027047
 40
2.6
100
AcDbArc
 50
90.000000000011
 51
180.0
  0
ARC
  5
3A7
100
AcDbEntity
  8
1
  6
CONTINUOUS
 62
           3
100
AcDbCircle
 10
425.802341876124
 20
10728.062950270471
 40
2.6
100
AcDbArc
 50
90.0
 51
180.0
  0
ARC
  5
3A6
100
AcDbEntity
  8
1
  6
CONTINUOUS
 62
           3
100
AcDbCircle
 10
425.802341876124
 20
10728.062950270471
 40
2.6
100
AcDbArc
 50
180.0
 51
-90.0
  0
ARC
  5
3A5
100
AcDbEntity
  8
1
  6
CONTINUOUS
 62
           3
100
AcDbCircle
 10
432.602341876124
 20
10728.062950270471
 40
2.6
100
AcDbArc
 50
-90.0
 51
0.0
  0
ARC
  5
3A4
100
AcDbEntity
  8
1
  6
CONTINUOUS
 62
           3
100
AcDbCircle
 10
432.602341876124
 20
10728.062950270471
 40
2.599999999999
100
AcDbArc
 50
0.0
 51
90.0
  0
ARC
  5
3A3
100
AcDbEntity
  8
1
  6
CONTINUOUS
 62
           3
100
AcDbCircle
 10
356.606504932158
 20
10730.467113326509
 40
2.599999999997
100
AcDbArc
 50
44.999999999941
 51
135.000000000055
  0
ARC
  5
3A2
100
AcDbEntity
  8
1
  6
CONTINUOUS
 62
           3
100
AcDbCircle
 10
356.606504932158
 20
10730.467113326509
 40
2.600000000003
100
AcDbArc
 50
-45.000000000053
 51
44.999999999941
  0
ARC
  5
3A1
100
AcDbEntity
  8
1
  6
CONTINUOUS
 62
           3
100
AcDbCircle
 10
351.79817882009
 20
10725.658787214439
 40
2.600000000002
100
AcDbArc
 50
-134.999999999943
 51
-45.000000000066
  0
ARC
  5
3A0
100
AcDbEntity
  8
1
  6
CONTINUOUS
 62
           3
100
AcDbCircle
 10
351.79817882009
 20
10725.658787214439
 40
2.599999999997
100
AcDbArc
 50
135.000000000056
 51
-134.999999999943
  0
ARC
  5
39F
100
AcDbEntity
  8
1
  6
CONTINUOUS
 62
           3
100
AcDbCircle
 10
339.29817882009
 20
10738.158787214439
 40
2.599999999997
100
AcDbArc
 50
135.000000000056
 51
-134.999999999942
  0
ARC
  5
39E
100
AcDbEntity
  8
1
  6
CONTINUOUS
 62
           3
100
AcDbCircle
 10
339.29817882009
 20
10738.158787214439
 40
2.600000000002
100
AcDbArc
 50
-134.999999999942
 51
-45.000000000065
  0
ARC
  5
39D
100
AcDbEntity
  8
1
  6
CONTINUOUS
 62
           3
100
AcDbCircle
 10
344.106504932158
 20
10742.967113326509
 40
2.600000000003
100
AcDbArc
 50
-45.000000000051
 51
44.999999999941
  0
ARC
  5
39C
100
AcDbEntity
  8
1
  6
CONTINUOUS
 62
           3
100
AcDbCircle
 10
344.106504932158
 20
10742.967113326509
 40
2.599999999997
100
AcDbArc
 50
44.999999999941
 51
135.000000000055
  0
ARC
  5
39B
100
AcDbEntity
  8
1
  6
CONTINUOUS
 62
           3
100
AcDbCircle
 10
445.102341876124
 20
10740.562950270471
 40
2.6
100
AcDbArc
 50
-90.0
 51
90.0
  0
ARC
  5
39A
100
AcDbEntity
  8
1
  6
CONTINUOUS
 62
           3
100
AcDbCircle
 10
438.302341876124
 20
10740.562950270471
 40
2.6
100
AcDbArc
 50
180.0
 51
-90.0
  0
ARC
  5
399
100
AcDbEntity
  8
1
  6
CONTINUOUS
 62
           3
100
AcDbCircle
 10
438.302341876124
 20
10740.562950270471
 40
2.6
100
AcDbArc
 50
90.0
 51
180.0
  0
ARC
  5
398
100
AcDbEntity
  8
1
  6
CONTINUOUS
 62
           3
100
AcDbCircle
 10
595.756997501153
 20
10690.562950270471
 40
0.5
100
AcDbArc
 50
0.0
 51
90.0
  0
ARC
  5
397
100
AcDbEntity
  8
1
  6
CONTINUOUS
 62
           3
100
AcDbCircle
 10
586.556997501153
 20
10690.562950270471
 40
0.5
100
AcDbArc
 50
90.0
 51
180.0
  0
ARC
  5
396
100
AcDbEntity
  8
1
  6
CONTINUOUS
 62
           3
100
AcDbCircle
 10
595.656997501153
 20
10690.062950270471
 40
0.5
100
AcDbArc
 50
0.0
 51
90.0
  0
ARC
  5
395
100
AcDbEntity
  8
1
  6
CONTINUOUS
 62
           3
100
AcDbCircle
 10
586.656997501153
 20
10690.062950270471
 40
0.5
100
AcDbArc
 50
90.0
 51
180.0
  0
ARC
  5
394
100
AcDbEntity
  8
1
  6
CONTINUOUS
 62
           3
100
AcDbCircle
 10
586.656997501153
 20
10657.562950270471
 40
0.5
100
AcDbArc
 50
180.0
 51
-90.0
  0
ARC
  5
393
100
AcDbEntity
  8
1
  6
CONTINUOUS
 62
           3
100
AcDbCircle
 10
595.656997501153
 20
10657.562950270471
 40
0.5
100
AcDbArc
 50
-90.0
 51
0.0
  0
ARC
  5
392
100
AcDbEntity
  8
1
  6
CONTINUOUS
 62
           3
100
AcDbCircle
 10
482.156997501153
 20
10923.31313205366
 40
3.999999999997
100
AcDbArc
 50
138.590377890785
 51
180.0
  0
ARC
  5
391
100
AcDbEntity
  8
1
  6
CONTINUOUS
 62
           3
100
AcDbCircle
 10
526.156997501153
 20
10914.31313205366
 40
2.0
100
AcDbArc
 50
-90.0
 51
0.0
  0
ARC
  5
390
100
AcDbEntity
  8
1
  6
CONTINUOUS
 62
           3
100
AcDbCircle
 10
529.156997501153
 20
10915.31313205366
 40
1.0
100
AcDbArc
 50
90.0
 51
180.0
  0
ARC
  5
38F
100
AcDbEntity
  8
1
  6
CONTINUOUS
 62
           3
100
AcDbCircle
 10
529.156997501153
 20
10899.31313205366
 40
1.0
100
AcDbArc
 50
180.0
 51
-90.0
  0
ARC
  5
38E
100
AcDbEntity
  8
1
  6
CONTINUOUS
 62
           3
100
AcDbCircle
 10
526.156997501153
 20
10900.31313205366
 40
2.0
100
AcDbArc
 50
0.0
 51
90.0
  0
ARC
  5
38D
100
AcDbEntity
  8
1
  6
CONTINUOUS
 62
           3
100
AcDbCircle
 10
527.656997501153
 20
10902.81313205366
 40
0.5
100
AcDbArc
 50
-90.0
 51
0.0
  0
ARC
  5
38C
100
AcDbEntity
  8
1
  6
CONTINUOUS
 62
           3
100
AcDbCircle
 10
527.656997501153
 20
10911.81313205366
 40
0.5
100
AcDbArc
 50
0.0
 51
90.0
  0
ARC
  5
38B
100
AcDbEntity
  8
1
  6
CONTINUOUS
 62
           3
100
AcDbCircle
 10
528.656997501153
 20
10681.062950270471
 40
0.5
100
AcDbArc
 50
180.0
 51
-90.0
  0
ARC
  5
38A
100
AcDbEntity
  8
1
  6
CONTINUOUS
 62
           3
100
AcDbCircle
 10
528.656997501153
 20
10700.062950270471
 40
0.5
100
AcDbArc
 50
90.0
 51
180.0
  0
ARC
  5
389
100
AcDbEntity
  8
1
  6
CONTINUOUS
 62
           3
100
AcDbCircle
 10
530.156997501153
 20
10678.562950270471
 40
2.0
100
AcDbArc
 50
90.0
 51
180.0
  0
ARC
  5
388
100
AcDbEntity
  8
1
  6
CONTINUOUS
 62
           3
100
AcDbCircle
 10
530.156997501153
 20
10702.562950270471
 40
2.0
100
AcDbArc
 50
180.0
 51
-90.0
  0
ARC
  5
387
100
AcDbEntity
  8
1
  6
CONTINUOUS
 62
           3
100
AcDbCircle
 10
526.656997501153
 20
10706.562950270471
 40
1.5
100
AcDbArc
 50
0.0
 51
90.0
  0
ARC
  5
386
100
AcDbEntity
  8
1
  6
CONTINUOUS
 62
           3
100
AcDbCircle
 10
526.656997501153
 20
10674.562950270471
 40
1.5
100
AcDbArc
 50
-90.0
 51
0.0
  0
ARC
  5
385
100
AcDbEntity
  8
1
  6
CONTINUOUS
 62
           3
100
AcDbCircle
 10
891.156997501153
 20
10702.562950270471
 40
1.0
100
AcDbArc
 50
-90.0
 51
0.0
  0
ARC
  5
384
100
AcDbEntity
  8
1
  6
CONTINUOUS
 62
           3
100
AcDbCircle
 10
891.156997501153
 20
10710.562950270471
 40
1.0
100
AcDbArc
 50
0.0
 51
90.0
  0
ARC
  5
383
100
AcDbEntity
  8
1
  6
CONTINUOUS
 62
           3
100
AcDbCircle
 10
891.156997501153
 20
10678.562950270471
 40
1.0
100
AcDbArc
 50
0.0
 51
90.0
  0
ARC
  5
382
100
AcDbEntity
  8
1
  6
CONTINUOUS
 62
           3
100
AcDbCircle
 10
892.655213027366
 20
10702.062950270471
 40
1.5
100
AcDbArc
 50
-90.0
 51
0.0
  0
ARC
  5
381
100
AcDbEntity
  8
1
  6
CONTINUOUS
 62
           3
100
AcDbCircle
 10
892.655213027366
 20
10679.062950270471
 40
1.5
100
AcDbArc
 50
0.0
 51
90.0
  0
ARC
  5
380
100
AcDbEntity
  8
1
  6
CONTINUOUS
 62
           3
100
AcDbCircle
 10
874.655213027366
 20
10700.062950270471
 40
0.5
100
AcDbArc
 50
90.0
 51
180.0
  0
ARC
  5
37F
100
AcDbEntity
  8
1
  6
CONTINUOUS
 62
           3
100
AcDbCircle
 10
874.655213027366
 20
10681.062950270471
 40
0.5
100
AcDbArc
 50
180.0
 51
-90.0
  0
ARC
  5
37E
100
AcDbEntity
  8
1
  6
CONTINUOUS
 62
           3
100
AcDbCircle
 10
891.156997501153
 20
10670.562950270471
 40
1.0
100
AcDbArc
 50
-90.0
 51
0.0
  0
ARC
  5
37D
100
AcDbEntity
  8
1
  6
CONTINUOUS
 62
           3
100
AcDbCircle
 10
703.156997501153
 20
10670.562950270471
 40
1.0
100
AcDbArc
 50
180.0
 51
-90.0
  0
ARC
  5
37C
100
AcDbEntity
  8
1
  6
CONTINUOUS
 62
           3
100
AcDbCircle
 10
719.65878197494
 20
10681.062950270471
 40
0.5
100
AcDbArc
 50
-90.0
 51
0.0
  0
ARC
  5
37B
100
AcDbEntity
  8
1
  6
CONTINUOUS
 62
           3
100
AcDbCircle
 10
719.65878197494
 20
10700.062950270471
 40
0.5
100
AcDbArc
 50
0.0
 51
90.0
  0
ARC
  5
37A
100
AcDbEntity
  8
1
  6
CONTINUOUS
 62
           3
100
AcDbCircle
 10
703.156997501153
 20
10678.562950270471
 40
1.0
100
AcDbArc
 50
90.0
 51
180.0
  0
ARC
  5
379
100
AcDbEntity
  8
1
  6
CONTINUOUS
 62
           3
100
AcDbCircle
 10
703.156997501153
 20
10710.562950270471
 40
1.0
100
AcDbArc
 50
90.0
 51
180.0
  0
ARC
  5
378
100
AcDbEntity
  8
1
  6
CONTINUOUS
 62
           3
100
AcDbCircle
 10
703.156997501153
 20
10702.562950270471
 40
1.0
100
AcDbArc
 50
180.0
 51
-90.0
  0
ARC
  5
377
100
AcDbEntity
  8
1
  6
CONTINUOUS
 62
           3
100
AcDbCircle
 10
531.156997501153
 20
10702.562950270471
 40
1.0
100
AcDbArc
 50
180.0
 51
-90.0
  0
ARC
  5
376
100
AcDbEntity
  8
1
  6
CONTINUOUS
 62
           3
100
AcDbCircle
 10
531.156997501153
 20
10710.562950270471
 40
1.0
100
AcDbArc
 50
90.0
 51
180.0
  0
ARC
  5
375
100
AcDbEntity
  8
1
  6
CONTINUOUS
 62
           3
100
AcDbCircle
 10
531.156997501153
 20
10678.562950270471
 40
1.0
100
AcDbArc
 50
90.0
 51
180.0
  0
ARC
  5
374
100
AcDbEntity
  8
1
  6
CONTINUOUS
 62
           3
100
AcDbCircle
 10
547.65878197494
 20
10700.062950270471
 40
0.5
100
AcDbArc
 50
0.0
 51
90.0
  0
ARC
  5
373
100
AcDbEntity
  8
1
  6
CONTINUOUS
 62
           3
100
AcDbCircle
 10
547.65878197494
 20
10681.062950270471
 40
0.5
100
AcDbArc
 50
-90.0
 51
0.0
  0
ARC
  5
372
100
AcDbEntity
  8
1
  6
CONTINUOUS
 62
           3
100
AcDbCircle
 10
531.156997501153
 20
10670.562950270471
 40
1.0
100
AcDbArc
 50
180.0
 51
-90.0
  0
ARC
  5
371
100
AcDbEntity
  8
1
  6
CONTINUOUS
 62
           3
100
AcDbCircle
 10
549.15878197494
 20
10700.562950270471
 40
1.0
100
AcDbArc
 50
0.0
 51
90.0
  0
ARC
  5
370
100
AcDbEntity
  8
1
  6
CONTINUOUS
 62
           3
100
AcDbCircle
 10
549.15878197494
 20
10680.562950270471
 40
1.0
100
AcDbArc
 50
-90.0
 51
0.0
  0
ARC
  5
36F
100
AcDbEntity
  8
1
  6
CONTINUOUS
 62
           3
100
AcDbCircle
 10
552.477505576842
 20
10701.562950270471
 40
10.000000000005
100
AcDbArc
 50
60.000000000016
 51
90.0
  0
ARC
  5
36E
100
AcDbEntity
  8
1
  6
CONTINUOUS
 62
           3
100
AcDbCircle
 10
576.889048308722
 20
10670.562950270471
 40
10.0
100
AcDbArc
 50
90.0
 51
120.000000000015
  0
ARC
  5
36D
100
AcDbEntity
  8
1
  6
CONTINUOUS
 62
           3
100
AcDbCircle
 10
576.889048308722
 20
10710.562950270471
 40
9.999999999997
100
AcDbArc
 50
-120.00000000001
 51
-90.0
  0
ARC
  5
36C
100
AcDbEntity
  8
1
  6
CONTINUOUS
 62
           3
100
AcDbCircle
 10
805.156997501153
 20
10682.562950270471
 40
3.0
100
AcDbArc
 50
180.0
 51
-90.0
  0
ARC
  5
36B
100
AcDbEntity
  8
1
  6
CONTINUOUS
 62
           3
100
AcDbCircle
 10
805.156997501153
 20
10698.562950270471
 40
3.0
100
AcDbArc
 50
90.0
 51
180.0
  0
ARC
  5
36A
100
AcDbEntity
  8
1
  6
CONTINUOUS
 62
           3
100
AcDbCircle
 10
789.156997501153
 20
10698.562950270471
 40
3.0
100
AcDbArc
 50
0.0
 51
90.0
  0
ARC
  5
369
100
AcDbEntity
  8
1
  6
CONTINUOUS
 62
           3
100
AcDbCircle
 10
789.156997501153
 20
10682.562950270471
 40
3.0
100
AcDbArc
 50
-90.0
 51
0.0
  0
ARC
  5
368
100
AcDbEntity
  8
1
  6
CONTINUOUS
 62
           3
100
AcDbCircle
 10
855.156997501153
 20
10682.562950270471
 40
3.0
100
AcDbArc
 50
-90.0
 51
0.0
  0
ARC
  5
367
100
AcDbEntity
  8
1
  6
CONTINUOUS
 62
           3
100
AcDbCircle
 10
855.156997501153
 20
10698.562950270471
 40
3.0
100
AcDbArc
 50
0.0
 51
90.0
  0
ARC
  5
366
100
AcDbEntity
  8
1
  6
CONTINUOUS
 62
           3
100
AcDbCircle
 10
871.156997501153
 20
10698.562950270471
 40
3.0
100
AcDbArc
 50
90.0
 51
180.0
  0
ARC
  5
365
100
AcDbEntity
  8
1
  6
CONTINUOUS
 62
           3
100
AcDbCircle
 10
871.156997501153
 20
10682.562950270471
 40
3.0
100
AcDbArc
 50
180.0
 51
-90.0
  0
ARC
  5
364
100
AcDbEntity
  8
1
  6
CONTINUOUS
 62
           3
100
AcDbCircle
 10
867.656997501153
 20
10679.062950270471
 40
0.5
100
AcDbArc
 50
0.0
 51
90.0
  0
ARC
  5
363
100
AcDbEntity
  8
1
  6
CONTINUOUS
 62
           3
100
AcDbCircle
 10
858.656997501153
 20
10679.062950270471
 40
0.5
100
AcDbArc
 50
90.0
 51
180.0
  0
ARC
  5
362
100
AcDbEntity
  8
1
  6
CONTINUOUS
 62
           3
100
AcDbCircle
 10
552.477505576842
 20
10679.562950270471
 40
10.0
100
AcDbArc
 50
-90.0
 51
-59.999999999995
  0
ARC
  5
361
100
AcDbEntity
  8
1
  6
CONTINUOUS
 62
           3
100
AcDbCircle
 10
858.656997501153
 20
10646.562950270471
 40
0.5
100
AcDbArc
 50
180.0
 51
-90.0
  0
ARC
  5
360
100
AcDbEntity
  8
1
  6
CONTINUOUS
 62
           3
100
AcDbCircle
 10
867.656997501153
 20
10646.562950270471
 40
0.5
100
AcDbArc
 50
-90.0
 51
0.0
  0
ARC
  5
35F
100
AcDbEntity
  8
1
  6
CONTINUOUS
 62
           3
100
AcDbCircle
 10
735.656997501153
 20
10646.562950270471
 40
0.5
100
AcDbArc
 50
-90.0
 51
0.0
  0
ARC
  5
35E
100
AcDbEntity
  8
1
  6
CONTINUOUS
 62
           3
100
AcDbCircle
 10
726.656997501153
 20
10646.562950270471
 40
0.5
100
AcDbArc
 50
180.0
 51
-90.0
  0
ARC
  5
35D
100
AcDbEntity
  8
1
  6
CONTINUOUS
 62
           3
100
AcDbCircle
 10
726.656997501153
 20
10679.062950270471
 40
0.5
100
AcDbArc
 50
90.0
 51
180.0
  0
ARC
  5
35C
100
AcDbEntity
  8
1
  6
CONTINUOUS
 62
           3
100
AcDbCircle
 10
735.656997501153
 20
10679.062950270471
 40
0.5
100
AcDbArc
 50
0.0
 51
90.0
  0
ARC
  5
35B
100
AcDbEntity
  8
1
  6
CONTINUOUS
 62
           3
100
AcDbCircle
 10
895.655213027366
 20
10883.81313205366
 40
1.5
100
AcDbArc
 50
180.0
 51
-90.0
  0
ARC
  5
35A
100
AcDbEntity
  8
1
  6
CONTINUOUS
 62
           3
100
AcDbCircle
 10
895.655213027366
 20
10930.81313205366
 40
1.5
100
AcDbArc
 50
90.0
 51
180.0
  0
ARC
  5
359
100
AcDbEntity
  8
1
  6
CONTINUOUS
 62
           3
100
AcDbCircle
 10
895.655213027366
 20
10726.562950270471
 40
1.5
100
AcDbArc
 50
90.0
 51
180.0
  0
ARC
  5
358
100
AcDbEntity
  8
1
  6
CONTINUOUS
 62
           3
100
AcDbCircle
 10
895.655213027366
 20
10654.562950270471
 40
1.5
100
AcDbArc
 50
180.0
 51
-90.0
  0
ARC
  5
357
100
AcDbEntity
  8
1
  6
PHANTOM
 62
           1
100
AcDbCircle
 10
889.155213027366
 20
10921.31313205366
 40
5.0
100
AcDbArc
 50
-90.0
 51
0.0
  0
ARC
  5
356
100
AcDbEntity
  8
1
  6
PHANTOM
 62
           1
100
AcDbCircle
 10
889.155213027366
 20
10893.31313205366
 40
5.0
100
AcDbArc
 50
0.0
 51
62.895394751659
  0
ARC
  5
355
100
AcDbEntity
  8
1
  6
CONTINUOUS
 62
           3
100
AcDbCircle
 10
480.156997501153
 20
10672.062950270471
 40
1.0
100
AcDbArc
 50
180.0
 51
-90.0
  0
ARC
  5
354
100
AcDbEntity
  8
1
  6
CONTINUOUS
 62
           3
100
AcDbCircle
 10
480.156997501153
 20
10709.062950270471
 40
1.0
100
AcDbArc
 50
90.0
 51
180.0
  0
ARC
  5
353
100
AcDbEntity
  8
1
  6
CONTINUOUS
 62
           3
100
AcDbCircle
 10
525.656997501153
 20
10868.31313205366
 40
2.0
100
AcDbArc
 50
-90.0
 51
0.0
  0
ARC
  5
352
100
AcDbEntity
  8
1
  6
CONTINUOUS
 62
           3
100
AcDbCircle
 10
481.156997501153
 20
10868.31313205366
 40
2.0
100
AcDbArc
 50
180.0
 51
-90.0
  0
ARC
  5
351
100
AcDbEntity
  8
1
  6
CONTINUOUS
 62
           3
100
AcDbCircle
 10
526.656997501153
 20
10900.31313205366
 40
1.0
100
AcDbArc
 50
0.0
 51
90.0
  0
ARC
  5
350
100
AcDbEntity
  8
1
  6
CONTINUOUS
 62
           3
100
AcDbCircle
 10
525.656997501153
 20
10946.31313205366
 40
2.0
100
AcDbArc
 50
0.0
 51
90.0
  0
ARC
  5
34F
100
AcDbEntity
  8
1
  6
CONTINUOUS
 62
           3
100
AcDbCircle
 10
481.156997501153
 20
10946.31313205366
 40
2.0
100
AcDbArc
 50
90.0
 51
180.0
  0
ARC
  5
34E
100
AcDbEntity
  8
1
  6
CONTINUOUS
 62
           3
100
AcDbCircle
 10
526.656997501153
 20
10914.31313205366
 40
1.0
100
AcDbArc
 50
-90.0
 51
0.0
  0
ARC
  5
34D
100
AcDbEntity
  8
1
  6
CONTINUOUS
 62
           3
100
AcDbCircle
 10
482.156997501153
 20
10891.31313205366
 40
4.0
100
AcDbArc
 50
180.0
 51
-138.590377890785
  0
ARC
  5
34C
100
AcDbEntity
  8
1
  6
PHANTOM
 62
           1
100
AcDbCircle
 10
799.167068570774
 20
10891.31313205366
 40
4.0
100
AcDbArc
 50
180.0
 51
-138.590377890788
  0
ARC
  5
34B
100
AcDbEntity
  8
1
  6
PHANTOM
 62
           1
100
AcDbCircle
 10
843.667068570773
 20
10914.31313205366
 40
1.0
100
AcDbArc
 50
-90.0
 51
0.0
  0
ARC
  5
34A
100
AcDbEntity
  8
1
  6
PHANTOM
 62
           1
100
AcDbCircle
 10
798.167068570773
 20
10946.31313205366
 40
2.0
100
AcDbArc
 50
90.0
 51
180.0
  0
ARC
  5
349
100
AcDbEntity
  8
1
  6
PHANTOM
 62
           1
100
AcDbCircle
 10
842.667068570773
 20
10946.31313205366
 40
2.0
100
AcDbArc
 50
0.0
 51
90.0
  0
ARC
  5
348
100
AcDbEntity
  8
1
  6
PHANTOM
 62
           1
100
AcDbCircle
 10
843.667068570773
 20
10900.31313205366
 40
1.0
100
AcDbArc
 50
0.0
 51
90.0
  0
ARC
  5
347
100
AcDbEntity
  8
1
  6
PHANTOM
 62
           1
100
AcDbCircle
 10
798.167068570773
 20
10868.31313205366
 40
2.0
100
AcDbArc
 50
180.0
 51
-90.0
  0
ARC
  5
346
100
AcDbEntity
  8
1
  6
PHANTOM
 62
           1
100
AcDbCircle
 10
842.667068570773
 20
10868.31313205366
 40
2.0
100
AcDbArc
 50
-90.0
 51
0.0
  0
ARC
  5
345
100
AcDbEntity
  8
1
  6
PHANTOM
 62
           1
100
AcDbCircle
 10
844.667068570774
 20
10911.81313205366
 40
0.5
100
AcDbArc
 50
0.0
 51
90.0
  0
ARC
  5
344
100
AcDbEntity
  8
1
  6
PHANTOM
 62
           1
100
AcDbCircle
 10
844.667068570774
 20
10902.81313205366
 40
0.5
100
AcDbArc
 50
-90.0
 51
0.0
  0
ARC
  5
343
100
AcDbEntity
  8
1
  6
PHANTOM
 62
           1
100
AcDbCircle
 10
843.167068570774
 20
10900.31313205366
 40
2.0
100
AcDbArc
 50
0.0
 51
90.0
  0
ARC
  5
342
100
AcDbEntity
  8
1
  6
PHANTOM
 62
           1
100
AcDbCircle
 10
846.167068570774
 20
10899.31313205366
 40
1.0
100
AcDbArc
 50
180.0
 51
-90.0
  0
ARC
  5
341
100
AcDbEntity
  8
1
  6
PHANTOM
 62
           1
100
AcDbCircle
 10
846.167068570774
 20
10915.31313205366
 40
1.0
100
AcDbArc
 50
90.0
 51
180.0
  0
ARC
  5
340
100
AcDbEntity
  8
1
  6
PHANTOM
 62
           1
100
AcDbCircle
 10
843.167068570774
 20
10914.31313205366
 40
2.0
100
AcDbArc
 50
-90.0
 51
0.0
  0
ARC
  5
33F
100
AcDbEntity
  8
1
  6
PHANTOM
 62
           1
100
AcDbCircle
 10
799.167068570774
 20
10923.31313205366
 40
3.999999999997
100
AcDbArc
 50
138.590377890779
 51
180.0
  0
ARC
  5
33E
100
AcDbEntity
  8
1
  6
CONTINUOUS
 62
           3
100
AcDbCircle
 10
902.405213027369
 20
10663.062950270471
 40
7.249999999998
100
AcDbArc
 50
-43.60281897272
 51
43.60281897272
  0
ARC
  5
33D
100
AcDbEntity
  8
1
  6
CONTINUOUS
 62
           3
100
AcDbCircle
 10
902.405213027369
 20
10718.062950270471
 40
7.249999999998
100
AcDbArc
 50
-43.60281897272
 51
43.60281897272
  0
ARC
  5
33C
100
AcDbEntity
  8
1
  6
CONTINUOUS
 62
           3
100
AcDbCircle
 10
419.553253154716
 20
10470.21203899188
 40
4.410000000001
100
AcDbArc
 50
101.125016666867
 51
168.874983335533
  0
ARC
  5
33B
100
AcDbEntity
  8
1
  6
CONTINUOUS
 62
           3
100
AcDbCircle
 10
363.851430597532
 20
10470.21203899188
 40
4.41
100
AcDbArc
 50
11.125016666849
 51
78.874983333128
  0
ARC
  5
33A
100
AcDbEntity
  8
1
  6
CONTINUOUS
 62
           3
100
AcDbCircle
 10
906.039370664505
 20
10469.178792633331
 40
5.01
100
AcDbArc
 50
112.091040129159
 51
-167.130980034827
  0
ARC
  5
339
100
AcDbEntity
  8
1
  6
CONTINUOUS
 62
           3
100
AcDbCircle
 10
906.039370664505
 20
10469.178792633331
 40
5.010000000318
100
AcDbArc
 50
77.130980034836
 51
112.091040129136
  0
ARC
  5
338
100
AcDbEntity
  8
1
  6
CONTINUOUS
 62
           3
100
AcDbCircle
 10
1062.834650564188
 20
10470.21203899188
 40
4.410000000001
100
AcDbArc
 50
101.125016666867
 51
168.874983335532
  0
ARC
  5
337
100
AcDbEntity
  8
1
  6
CONTINUOUS
 62
           3
100
AcDbCircle
 10
1007.132828007004
 20
10470.21203899188
 40
4.410000000916
100
AcDbArc
 50
-29.164696536497
 51
11.125016666893
  0
ARC
  5
336
100
AcDbEntity
  8
1
  6
CONTINUOUS
 62
           3
100
AcDbCircle
 10
1007.132828007004
 20
10470.21203899188
 40
4.41
100
AcDbArc
 50
11.125016666849
 51
78.874983333134
  0
ARC
  5
335
100
AcDbEntity
  8
1
  6
CONTINUOUS
 62
           3
100
AcDbCircle
 10
1062.834650564188
 20
10470.21203899188
 40
4.410000000914
100
AcDbArc
 50
60.835303463511
 51
101.12501666687
  0
ARC
  5
334
100
AcDbEntity
  8
1
  6
CONTINUOUS
 62
           3
100
AcDbCircle
 10
1007.132828007004
 20
10470.21203899188
 40
4.410000000001
100
AcDbArc
 50
78.874983333134
 51
119.164696536497
  0
ARC
  5
333
100
AcDbEntity
  8
1
  6
CONTINUOUS
 62
           3
100
AcDbCircle
 10
1062.834650564188
 20
10470.21203899188
 40
4.410000000914
100
AcDbArc
 50
168.874983335488
 51
-150.835303463503
  0
ARC
  5
332
100
AcDbEntity
  8
1
  6
CONTINUOUS
 62
           3
100
AcDbCircle
 10
431.702341876124
 20
10690.562950270471
 40
10.000000000003
100
AcDbArc
 50
145.59659825616
 51
-145.596598256205
  0
ARC
  5
331
100
AcDbEntity
  8
1
  6
CONTINUOUS
 62
           3
100
AcDbCircle
 10
441.702341876124
 20
10740.562950270471
 40
9.999999999998
100
AcDbArc
 50
-34.403401743797
 51
124.40340174382
  0
ARC
  5
330
100
AcDbEntity
  8
1
  6
CONTINUOUS
 62
           3
100
AcDbCircle
 10
441.702341876124
 20
10640.562950270471
 40
9.999999999999
100
AcDbArc
 50
-124.403401743825
 51
34.403401743802
  0
ARC
  5
32F
100
AcDbEntity
  8
1
  6
CONTINUOUS
 62
           3
100
AcDbCircle
 10
391.702341876124
 20
10650.562950270471
 40
9.999999999999
100
AcDbArc
 50
55.596598256174
 51
124.403401743826
  0
ARC
  5
32E
100
AcDbEntity
  8
1
  6
CONTINUOUS
 62
           3
100
AcDbCircle
 10
341.702341876124
 20
10640.562950270471
 40
10.000000000003
100
AcDbArc
 50
145.59659825616
 51
-55.596598256168
  0
ARC
  5
32D
100
AcDbEntity
  8
1
  6
CONTINUOUS
 62
           3
100
AcDbCircle
 10
351.702341876124
 20
10690.562950270471
 40
9.999999999998
100
AcDbArc
 50
-34.403401743797
 51
34.403401743843
  0
ARC
  5
32C
100
AcDbEntity
  8
1
  6
CONTINUOUS
 62
           3
100
AcDbCircle
 10
341.702341876124
 20
10740.562950270471
 40
9.999999999999
100
AcDbArc
 50
55.596598256174
 51
-145.596598256208
  0
ARC
  5
32B
100
AcDbEntity
  8
1
  6
CONTINUOUS
 62
           3
100
AcDbCircle
 10
391.702341876124
 20
10730.562950270471
 40
9.999999999999
100
AcDbArc
 50
-124.403401743826
 51
-55.596598256174
  0
ARC
  5
32A
100
AcDbEntity
  8
1
  6
CONTINUOUS
 62
           3
100
AcDbCircle
 10
883.156997501153
 20
10662.812950270471
 40
49.25
100
AcDbArc
 50
81.82876644005
 51
98.17123355995
  0
ARC
  5
329
100
AcDbEntity
  8
1
  6
CONTINUOUS
 62
           3
100
AcDbCircle
 10
711.156997501153
 20
10662.812950270471
 40
49.25
100
AcDbArc
 50
81.82876644005
 51
98.17123355995
  0
ARC
  5
328
100
AcDbEntity
  8
1
  6
CONTINUOUS
 62
           3
100
AcDbCircle
 10
539.156997501153
 20
10662.812950270471
 40
49.25
100
AcDbArc
 50
81.82876644005
 51
98.17123355995
  0
ARC
  5
327
100
AcDbEntity
  8
1
  6
CONTINUOUS
 62
           3
100
AcDbCircle
 10
711.156997501153
 20
10907.31313205366
 40
9.0
100
AcDbArc
 50
90.0
 51
-90.0
  0
ARC
  5
326
100
AcDbEntity
  8
1
  6
CONTINUOUS
 62
           3
100
AcDbCircle
 10
539.156997501153
 20
10907.31313205366
 40
9.0
100
AcDbArc
 50
180.0
 51
-90.0
  0
ARC
  5
325
100
AcDbEntity
  8
1
  6
CONTINUOUS
 62
           3
100
AcDbCircle
 10
539.156997501153
 20
10907.31313205366
 40
9.0
100
AcDbArc
 50
90.0
 51
180.0
  0
ARC
  5
324
100
AcDbEntity
  8
1
  6
PHANTOM
 62
           1
100
AcDbCircle
 10
856.167068570773
 20
10907.31313205366
 40
9.0
100
AcDbArc
 50
4.5
 51
-175.500000000011
  0
ARC
  5
323
100
AcDbEntity
  8
1
  6
PHANTOM
 62
           1
100
AcDbCircle
 10
869.662033035963
 20
10735.843350651559
 40
8.999999999999
100
AcDbArc
 50
-88.499999999998
 51
1.500000000001
  0
ARC
  5
322
100
AcDbEntity
  8
1
  6
PHANTOM
 62
           1
100
AcDbCircle
 10
869.662033035963
 20
10735.843350651559
 40
8.999999999999
100
AcDbArc
 50
-178.50000000001
 51
-88.499999999998
  0
ARC
  5
321
100
AcDbEntity
  8
1
  6
PHANTOM
 62
           1
100
AcDbCircle
 10
883.156997501153
 20
10907.31313205366
 40
8.999999999999
100
AcDbArc
 50
-4.499999999989
 51
175.499999999999
  0
ARC
  5
320
100
AcDbEntity
  8
1
  6
CONTINUOUS
 62
           3
100
AcDbCircle
 10
508.156997501153
 20
10690.562950270471
 40
19.5
100
AcDbArc
 50
63.823047828332
 51
90.0
  0
ARC
  5
31F
100
AcDbEntity
  8
1
  6
CONTINUOUS
 62
           3
100
AcDbCircle
 10
508.156997501153
 20
10690.562950270471
 40
19.5
100
AcDbArc
 50
-63.823047828332
 51
63.823047828332
  0
ARC
  5
31E
100
AcDbEntity
  8
1
  6
CONTINUOUS
 62
           3
100
AcDbCircle
 10
508.156997501153
 20
10690.562950270471
 40
19.5
100
AcDbArc
 50
-90.0
 51
-63.823047828332
  0
ARC
  5
31D
100
AcDbEntity
  8
1
  6
CONTINUOUS
 62
           3
100
AcDbCircle
 10
1084.983739285596
 20
10740.562950270471
 40
9.999999999999
100
AcDbArc
 50
-34.403401743791
 51
124.403401743822
  0
ARC
  5
31C
100
AcDbEntity
  8
1
  6
CONTINUOUS
 62
           3
100
AcDbCircle
 10
1074.983739285596
 20
10690.562950270471
 40
10.000000000002
100
AcDbArc
 50
145.596598256155
 51
-145.596598256202
  0
ARC
  5
31B
100
AcDbEntity
  8
1
  6
CONTINUOUS
 62
           3
100
AcDbCircle
 10
1084.983739285596
 20
10640.562950270471
 40
9.999999999999
100
AcDbArc
 50
-124.403401743831
 51
34.403401743837
  0
ARC
  5
31A
100
AcDbEntity
  8
1
  6
CONTINUOUS
 62
           3
100
AcDbCircle
 10
984.983739285596
 20
10640.562950270471
 40
9.999999999996
100
AcDbArc
 50
145.596598256197
 51
-55.596598256175
  0
ARC
  5
319
100
AcDbEntity
  8
1
  6
CONTINUOUS
 62
           3
100
AcDbCircle
 10
984.983739285596
 20
10740.562950270471
 40
9.999999999998
100
AcDbArc
 50
55.596598256179
 51
-145.596598256202
  0
ARC
  5
318
100
AcDbEntity
  8
1
  6
CONTINUOUS
 62
           3
100
AcDbCircle
 10
994.983739285596
 20
10690.562950270471
 40
9.999999999999
100
AcDbArc
 50
-34.403401743792
 51
34.403401743838
  0
ARC
  5
317
100
AcDbEntity
  8
1
  6
CONTINUOUS
 62
           3
100
AcDbCircle
 10
988.383739285596
 20
10740.562950270471
 40
2.600000000002
100
AcDbArc
 50
0.0
 51
90.0
  0
ARC
  5
316
100
AcDbEntity
  8
1
  6
CONTINUOUS
 62
           3
100
AcDbCircle
 10
988.383739285596
 20
10740.562950270471
 40
2.6
100
AcDbArc
 50
-90.0
 51
0.0
  0
ARC
  5
315
100
AcDbEntity
  8
1
  6
CONTINUOUS
 62
           3
100
AcDbCircle
 10
981.583739285596
 20
10740.562950270471
 40
2.599999999999
100
AcDbArc
 50
180.0
 51
-90.0
  0
ARC
  5
314
100
AcDbEntity
  8
1
  6
CONTINUOUS
 62
           3
100
AcDbCircle
 10
981.583739285596
 20
10740.562950270471
 40
2.6
100
AcDbArc
 50
90.0
 51
180.0
  0
ARC
  5
313
100
AcDbEntity
  8
1
  6
CONTINUOUS
 62
           3
100
AcDbCircle
 10
1082.579576229562
 20
10742.967113326509
 40
2.599999999997
100
AcDbArc
 50
44.999999999943
 51
135.000000000056
  0
ARC
  5
312
100
AcDbEntity
  8
1
  6
CONTINUOUS
 62
           3
100
AcDbCircle
 10
1082.579576229562
 20
10742.967113326509
 40
2.599999999997
100
AcDbArc
 50
135.000000000056
 51
-134.999999999943
  0
ARC
  5
311
100
AcDbEntity
  8
1
  6
CONTINUOUS
 62
           3
100
AcDbCircle
 10
1087.38790234163
 20
10738.158787214439
 40
2.600000000002
100
AcDbArc
 50
-134.999999999929
 51
-45.000000000057
  0
ARC
  5
310
100
AcDbEntity
  8
1
  6
CONTINUOUS
 62
           3
100
AcDbCircle
 10
1087.38790234163
 20
10738.158787214439
 40
2.600000000002
100
AcDbArc
 50
-45.000000000057
 51
44.999999999943
  0
ARC
  5
30F
100
AcDbEntity
  8
1
  6
CONTINUOUS
 62
           3
100
AcDbCircle
 10
1074.88790234163
 20
10725.658787214439
 40
2.600000000002
100
AcDbArc
 50
-45.000000000057
 51
44.999999999943
  0
ARC
  5
30E
100
AcDbEntity
  8
1
  6
CONTINUOUS
 62
           3
100
AcDbCircle
 10
1074.88790234163
 20
10725.658787214439
 40
2.600000000002
100
AcDbArc
 50
-134.999999999929
 51
-45.000000000057
  0
ARC
  5
30D
100
AcDbEntity
  8
1
  6
CONTINUOUS
 62
           3
100
AcDbCircle
 10
1070.079576229562
 20
10730.467113326509
 40
2.599999999997
100
AcDbArc
 50
135.000000000056
 51
-134.999999999943
  0
ARC
  5
30C
100
AcDbEntity
  8
1
  6
CONTINUOUS
 62
           3
100
AcDbCircle
 10
1070.079576229562
 20
10730.467113326509
 40
2.599999999997
100
AcDbArc
 50
44.999999999943
 51
135.000000000056
  0
ARC
  5
30B
100
AcDbEntity
  8
1
  6
CONTINUOUS
 62
           3
100
AcDbCircle
 10
994.083739285596
 20
10728.062950270471
 40
2.6
100
AcDbArc
 50
90.0
 51
180.0
  0
ARC
  5
30A
100
AcDbEntity
  8
1
  6
CONTINUOUS
 62
           3
100
AcDbCircle
 10
994.083739285596
 20
10728.062950270471
 40
2.599999999999
100
AcDbArc
 50
180.0
 51
-90.0
  0
ARC
  5
309
100
AcDbEntity
  8
1
  6
CONTINUOUS
 62
           3
100
AcDbCircle
 10
1000.883739285596
 20
10728.062950270471
 40
2.6
100
AcDbArc
 50
-90.0
 51
0.0
  0
ARC
  5
308
100
AcDbEntity
  8
1
  6
CONTINUOUS
 62
           3
100
AcDbCircle
 10
1000.883739285596
 20
10728.062950270471
 40
2.600000000002
100
AcDbArc
 50
0.0
 51
90.0
  0
ARC
  5
307
100
AcDbEntity
  8
1
  6
CONTINUOUS
 62
           3
100
AcDbCircle
 10
1084.983739285597
 20
10643.96295027047
 40
2.599999999999
100
AcDbArc
 50
0.0
 51
89.99999999998
  0
ARC
  5
306
100
AcDbEntity
  8
1
  6
CONTINUOUS
 62
           3
100
AcDbCircle
 10
1084.983739285597
 20
10643.96295027047
 40
2.6
100
AcDbArc
 50
89.99999999998
 51
180.0
  0
ARC
  5
305
100
AcDbEntity
  8
1
  6
CONTINUOUS
 62
           3
100
AcDbCircle
 10
1084.983739285597
 20
10637.162950270471
 40
2.600000000001
100
AcDbArc
 50
180.0
 51
-90.0
  0
ARC
  5
304
100
AcDbEntity
  8
1
  6
CONTINUOUS
 62
           3
100
AcDbCircle
 10
1084.983739285597
 20
10637.162950270471
 40
2.6
100
AcDbArc
 50
-90.0
 51
0.0
  0
ARC
  5
303
100
AcDbEntity
  8
1
  6
CONTINUOUS
 62
           3
100
AcDbCircle
 10
1072.483739285597
 20
10649.662950270471
 40
2.6
100
AcDbArc
 50
-90.0
 51
0.0
  0
ARC
  5
302
100
AcDbEntity
  8
1
  6
CONTINUOUS
 62
           3
100
AcDbCircle
 10
1072.483739285597
 20
10649.662950270471
 40
2.6
100
AcDbArc
 50
180.0
 51
-90.0
  0
ARC
  5
301
100
AcDbEntity
  8
1
  6
CONTINUOUS
 62
           3
100
AcDbCircle
 10
1072.483739285597
 20
10656.46295027047
 40
2.6
100
AcDbArc
 50
89.99999999998
 51
180.0
  0
ARC
  5
300
100
AcDbEntity
  8
1
  6
CONTINUOUS
 62
           3
100
AcDbCircle
 10
1072.483739285597
 20
10656.46295027047
 40
2.599999999999
100
AcDbArc
 50
0.0
 51
89.99999999998
  0
LINE
  5
2FF
100
AcDbEntity
  8
1
  6
CONTINUOUS
 62
           3
100
AcDbLine
 10
904.155213027366
 20
10894.81313205366
 11
904.155213027366
 21
10880.31313205366
  0
LINE
  5
2FE
100
AcDbEntity
  8
1
  6
CONTINUOUS
 62
           3
100
AcDbLine
 10
904.155213027366
 20
10894.81313205366
 11
904.155213027366
 21
10919.81313205366
  0
LINE
  5
2FD
100
AcDbEntity
  8
1
  6
DOT_CENTER
 62
           1
100
AcDbLine
 10
904.155213027366
 20
10894.81313205366
 11
912.115213027366
 21
10894.81313205366
  0
LINE
  5
2FC
100
AcDbEntity
  8
1
  6
CONTINUOUS
 62
           3
100
AcDbLine
 10
904.155213027366
 20
10919.81313205366
 11
904.155213027366
 21
10894.81313205366
  0
LINE
  5
2FB
100
AcDbEntity
  8
1
  6
CONTINUOUS
 62
           3
100
AcDbLine
 10
904.155213027366
 20
10919.81313205366
 11
904.155213027366
 21
10932.31313205366
  0
LINE
  5
2FA
100
AcDbEntity
  8
1
  6
DOT_CENTER
 62
           1
100
AcDbLine
 10
904.155213027366
 20
10919.81313205366
 11
913.025213027366
 21
10919.81313205366
  0
LINE
  5
2F9
100
AcDbEntity
  8
1
  6
CONTINUOUS
 62
           3
100
AcDbLine
 10
1061.983739285596
 20
10783.062950270471
 11
1004.983739285596
 21
10783.062950270471
  0
LINE
  5
2F8
100
AcDbEntity
  8
1
  6
DOT_CENTER
 62
           1
100
AcDbLine
 10
1049.983739285596
 20
10543.612458097279
 11
1049.983739285596
 21
10785.970318490041
  0
LINE
  5
2F7
100
AcDbEntity
  8
1
  6
DOT_CENTER
 62
           1
100
AcDbLine
 10
391.702341876124
 20
10790.08788922127
 11
391.702341876124
 21
10454.700908769661
  0
LINE
  5
2F6
100
AcDbEntity
  8
1
  6
CONTINUOUS
 62
           3
100
AcDbLine
 10
364.702341876124
 20
10783.062950270471
 11
364.702341876124
 21
10736.93255327234
  0
LINE
  5
2F5
100
AcDbEntity
  8
1
  6
CONTINUOUS
 62
           3
100
AcDbLine
 10
361.702341876124
 20
10783.062950270471
 11
361.702341876124
 21
10738.986957775151
  0
LINE
  5
2F4
100
AcDbEntity
  8
1
  6
CONTINUOUS
 62
           3
100
AcDbLine
 10
907.155213027366
 20
10668.062950270471
 11
907.655213027366
 21
10668.062950270471
  0
LINE
  5
2F3
100
AcDbEntity
  8
1
  6
CONTINUOUS
 62
           3
100
AcDbLine
 10
907.155213027366
 20
10658.062950270471
 11
907.655213027366
 21
10658.062950270471
  0
LINE
  5
2F2
100
AcDbEntity
  8
1
  6
CONTINUOUS
 62
           1
100
AcDbLine
 10
907.655213027366
 20
10668.062950270471
 11
907.655213027366
 21
10658.062950270471
  0
LINE
  5
2F1
100
AcDbEntity
  8
1
  6
CONTINUOUS
 62
           1
100
AcDbLine
 10
907.655213027366
 20
10723.062950270471
 11
907.655213027366
 21
10713.062950270471
  0
LINE
  5
2F0
100
AcDbEntity
  8
1
  6
CONTINUOUS
 62
           3
100
AcDbLine
 10
907.155213027366
 20
10713.062950270471
 11
907.655213027366
 21
10713.062950270471
  0
LINE
  5
2EF
100
AcDbEntity
  8
1
  6
CONTINUOUS
 62
           3
100
AcDbLine
 10
907.155213027366
 20
10723.062950270471
 11
907.655213027366
 21
10723.062950270471
  0
LINE
  5
2EE
100
AcDbEntity
  8
1
  6
CONTINUOUS
 62
           3
100
AcDbLine
 10
907.155213027366
 20
10783.062950270471
 11
907.155213027366
 21
10471.062950270471
  0
LINE
  5
2ED
100
AcDbEntity
  8
1
  6
DOT_CENTER
 62
           1
100
AcDbLine
 10
1054.500616996168
 20
10718.062950270471
 11
1014.741842044542
 21
10718.062950270471
  0
LINE
  5
2EC
100
AcDbEntity
  8
1
  6
DOT_CENTER
 62
           1
100
AcDbLine
 10
1054.500616996168
 20
10663.062950270471
 11
1014.741842044542
 21
10663.062950270471
  0
LINE
  5
2EB
100
AcDbEntity
  8
1
  6
CONTINUOUS
 62
           3
100
AcDbLine
 10
1050.483739285596
 20
10661.062950270471
 11
1049.483739285596
 21
10661.062950270471
  0
LINE
  5
2EA
100
AcDbEntity
  8
1
  6
CONTINUOUS
 62
           3
100
AcDbLine
 10
1050.483739285596
 20
10662.062950270471
 11
1050.483739285596
 21
10661.062950270471
  0
LINE
  5
2E9
100
AcDbEntity
  8
1
  6
CONTINUOUS
 62
           3
100
AcDbLine
 10
1049.483739285596
 20
10665.062950270471
 11
1050.483739285596
 21
10665.062950270471
  0
LINE
  5
2E8
100
AcDbEntity
  8
1
  6
CONTINUOUS
 62
           3
100
AcDbLine
 10
1049.483739285596
 20
10664.062950270471
 11
1049.483739285596
 21
10665.062950270471
  0
LINE
  5
2E7
100
AcDbEntity
  8
1
  6
CONTINUOUS
 62
           3
100
AcDbLine
 10
1048.983739285596
 20
10662.562950270471
 11
1047.983739285596
 21
10662.562950270471
  0
LINE
  5
2E6
100
AcDbEntity
  8
1
  6
CONTINUOUS
 62
           3
100
AcDbLine
 10
1051.983739285596
 20
10663.562950270471
 11
1051.983739285596
 21
10662.562950270471
  0
LINE
  5
2E5
100
AcDbEntity
  8
1
  6
CONTINUOUS
 62
           3
100
AcDbLine
 10
1050.983739285596
 20
10663.562950270471
 11
1051.983739285596
 21
10663.562950270471
  0
LINE
  5
2E4
100
AcDbEntity
  8
1
  6
CONTINUOUS
 62
           3
100
AcDbLine
 10
1047.983739285596
 20
10662.562950270471
 11
1047.983739285596
 21
10663.562950270471
  0
LINE
  5
2E3
100
AcDbEntity
  8
1
  6
CONTINUOUS
 62
           3
100
AcDbLine
 10
1049.483739285596
 20
10661.062950270471
 11
1049.483739285596
 21
10662.062950270471
  0
LINE
  5
2E2
100
AcDbEntity
  8
1
  6
CONTINUOUS
 62
           3
100
AcDbLine
 10
1051.983739285596
 20
10662.562950270471
 11
1050.983739285596
 21
10662.562950270471
  0
LINE
  5
2E1
100
AcDbEntity
  8
1
  6
CONTINUOUS
 62
           3
100
AcDbLine
 10
1047.983739285596
 20
10663.562950270471
 11
1048.983739285596
 21
10663.562950270471
  0
LINE
  5
2E0
100
AcDbEntity
  8
1
  6
CONTINUOUS
 62
           3
100
AcDbLine
 10
1050.483739285596
 20
10665.062950270471
 11
1050.483739285596
 21
10664.062950270471
  0
LINE
  5
2DF
100
AcDbEntity
  8
1
  6
CONTINUOUS
 62
           3
100
AcDbLine
 10
1019.483739285596
 20
10664.062950270471
 11
1019.483739285596
 21
10665.062950270471
  0
LINE
  5
2DE
100
AcDbEntity
  8
1
  6
CONTINUOUS
 62
           3
100
AcDbLine
 10
1020.983739285596
 20
10663.562950270471
 11
1021.983739285596
 21
10663.562950270471
  0
LINE
  5
2DD
100
AcDbEntity
  8
1
  6
CONTINUOUS
 62
           3
100
AcDbLine
 10
1018.983739285596
 20
10662.562950270471
 11
1017.983739285596
 21
10662.562950270471
  0
LINE
  5
2DC
100
AcDbEntity
  8
1
  6
CONTINUOUS
 62
           3
100
AcDbLine
 10
1020.483739285596
 20
10662.062950270471
 11
1020.483739285596
 21
10661.062950270471
  0
LINE
  5
2DB
100
AcDbEntity
  8
1
  6
CONTINUOUS
 62
           3
100
AcDbLine
 10
1021.983739285596
 20
10663.562950270471
 11
1021.983739285596
 21
10662.562950270471
  0
LINE
  5
2DA
100
AcDbEntity
  8
1
  6
CONTINUOUS
 62
           3
100
AcDbLine
 10
1017.983739285596
 20
10663.562950270471
 11
1018.983739285596
 21
10663.562950270471
  0
LINE
  5
2D9
100
AcDbEntity
  8
1
  6
CONTINUOUS
 62
           3
100
AcDbLine
 10
1017.983739285596
 20
10662.562950270471
 11
1017.983739285596
 21
10663.562950270471
  0
LINE
  5
2D8
100
AcDbEntity
  8
1
  6
CONTINUOUS
 62
           3
100
AcDbLine
 10
1021.983739285596
 20
10662.562950270471
 11
1020.983739285596
 21
10662.562950270471
  0
LINE
  5
2D7
100
AcDbEntity
  8
1
  6
CONTINUOUS
 62
           3
100
AcDbLine
 10
1020.483739285596
 20
10665.062950270471
 11
1020.483739285596
 21
10664.062950270471
  0
LINE
  5
2D6
100
AcDbEntity
  8
1
  6
CONTINUOUS
 62
           3
100
AcDbLine
 10
1019.483739285596
 20
10665.062950270471
 11
1020.483739285596
 21
10665.062950270471
  0
LINE
  5
2D5
100
AcDbEntity
  8
1
  6
CONTINUOUS
 62
           3
100
AcDbLine
 10
1019.483739285596
 20
10661.062950270471
 11
1019.483739285596
 21
10662.062950270471
  0
LINE
  5
2D4
100
AcDbEntity
  8
1
  6
CONTINUOUS
 62
           3
100
AcDbLine
 10
1020.483739285596
 20
10661.062950270471
 11
1019.483739285596
 21
10661.062950270471
  0
LINE
  5
2D3
100
AcDbEntity
  8
1
  6
CONTINUOUS
 62
           3
100
AcDbLine
 10
1019.483739285596
 20
10720.062950270471
 11
1020.483739285596
 21
10720.062950270471
  0
LINE
  5
2D2
100
AcDbEntity
  8
1
  6
CONTINUOUS
 62
           3
100
AcDbLine
 10
1019.483739285596
 20
10719.062950270471
 11
1019.483739285596
 21
10720.062950270471
  0
LINE
  5
2D1
100
AcDbEntity
  8
1
  6
CONTINUOUS
 62
           3
100
AcDbLine
 10
1020.483739285596
 20
10716.062950270471
 11
1019.483739285596
 21
10716.062950270471
  0
LINE
  5
2D0
100
AcDbEntity
  8
1
  6
CONTINUOUS
 62
           3
100
AcDbLine
 10
1020.483739285596
 20
10717.062950270471
 11
1020.483739285596
 21
10716.062950270471
  0
LINE
  5
2CF
100
AcDbEntity
  8
1
  6
CONTINUOUS
 62
           3
100
AcDbLine
 10
1020.983739285596
 20
10718.562950270471
 11
1021.983739285596
 21
10718.562950270471
  0
LINE
  5
2CE
100
AcDbEntity
  8
1
  6
CONTINUOUS
 62
           3
100
AcDbLine
 10
1017.983739285596
 20
10717.562950270471
 11
1017.983739285596
 21
10718.562950270471
  0
LINE
  5
2CD
100
AcDbEntity
  8
1
  6
CONTINUOUS
 62
           3
100
AcDbLine
 10
1018.983739285596
 20
10717.562950270471
 11
1017.983739285596
 21
10717.562950270471
  0
LINE
  5
2CC
100
AcDbEntity
  8
1
  6
CONTINUOUS
 62
           3
100
AcDbLine
 10
1021.983739285596
 20
10718.562950270471
 11
1021.983739285596
 21
10717.562950270471
  0
LINE
  5
2CB
100
AcDbEntity
  8
1
  6
CONTINUOUS
 62
           3
100
AcDbLine
 10
1020.483739285596
 20
10720.062950270471
 11
1020.483739285596
 21
10719.062950270471
  0
LINE
  5
2CA
100
AcDbEntity
  8
1
  6
CONTINUOUS
 62
           3
100
AcDbLine
 10
1017.983739285596
 20
10718.562950270471
 11
1018.983739285596
 21
10718.562950270471
  0
LINE
  5
2C9
100
AcDbEntity
  8
1
  6
CONTINUOUS
 62
           3
100
AcDbLine
 10
1021.983739285596
 20
10717.562950270471
 11
1020.983739285596
 21
10717.562950270471
  0
LINE
  5
2C8
100
AcDbEntity
  8
1
  6
CONTINUOUS
 62
           3
100
AcDbLine
 10
1019.483739285596
 20
10716.062950270471
 11
1019.483739285596
 21
10717.062950270471
  0
LINE
  5
2C7
100
AcDbEntity
  8
1
  6
CONTINUOUS
 62
           3
100
AcDbLine
 10
1050.483739285596
 20
10717.062950270471
 11
1050.483739285596
 21
10716.062950270471
  0
LINE
  5
2C6
100
AcDbEntity
  8
1
  6
CONTINUOUS
 62
           3
100
AcDbLine
 10
1048.983739285596
 20
10717.562950270471
 11
1047.983739285596
 21
10717.562950270471
  0
LINE
  5
2C5
100
AcDbEntity
  8
1
  6
CONTINUOUS
 62
           3
100
AcDbLine
 10
1050.983739285596
 20
10718.562950270471
 11
1051.983739285596
 21
10718.562950270471
  0
LINE
  5
2C4
100
AcDbEntity
  8
1
  6
CONTINUOUS
 62
           3
100
AcDbLine
 10
1049.483739285596
 20
10719.062950270471
 11
1049.483739285596
 21
10720.062950270471
  0
LINE
  5
2C3
100
AcDbEntity
  8
1
  6
CONTINUOUS
 62
           3
100
AcDbLine
 10
1047.983739285596
 20
10717.562950270471
 11
1047.983739285596
 21
10718.562950270471
  0
LINE
  5
2C2
100
AcDbEntity
  8
1
  6
CONTINUOUS
 62
           3
100
AcDbLine
 10
1051.983739285596
 20
10717.562950270471
 11
1050.983739285596
 21
10717.562950270471
  0
LINE
  5
2C1
100
AcDbEntity
  8
1
  6
CONTINUOUS
 62
           3
100
AcDbLine
 10
1051.983739285596
 20
10718.562950270471
 11
1051.983739285596
 21
10717.562950270471
  0
LINE
  5
2C0
100
AcDbEntity
  8
1
  6
CONTINUOUS
 62
           3
100
AcDbLine
 10
1047.983739285596
 20
10718.562950270471
 11
1048.983739285596
 21
10718.562950270471
  0
LINE
  5
2BF
100
AcDbEntity
  8
1
  6
CONTINUOUS
 62
           3
100
AcDbLine
 10
1049.483739285596
 20
10716.062950270471
 11
1049.483739285596
 21
10717.062950270471
  0
LINE
  5
2BE
100
AcDbEntity
  8
1
  6
CONTINUOUS
 62
           3
100
AcDbLine
 10
1050.483739285596
 20
10716.062950270471
 11
1049.483739285596
 21
10716.062950270471
  0
LINE
  5
2BD
100
AcDbEntity
  8
1
  6
CONTINUOUS
 62
           3
100
AcDbLine
 10
1050.483739285596
 20
10720.062950270471
 11
1050.483739285596
 21
10719.062950270471
  0
LINE
  5
2BC
100
AcDbEntity
  8
1
  6
CONTINUOUS
 62
           3
100
AcDbLine
 10
1049.483739285596
 20
10720.062950270471
 11
1050.483739285596
 21
10720.062950270471
  0
LINE
  5
2BB
100
AcDbEntity
  8
1
  6
CONTINUOUS
 62
           3
100
AcDbLine
 10
368.178560130602
 20
10471.062950270471
 11
415.226123620714
 21
10471.062950270471
  0
LINE
  5
2BA
100
AcDbEntity
  8
1
  6
CONTINUOUS
 62
           3
100
AcDbLine
 10
415.226123620714
 20
10471.062950270471
 11
463.702341876124
 21
10471.062950270471
  0
LINE
  5
2B9
100
AcDbEntity
  8
1
  6
CONTINUOUS
 62
           3
100
AcDbLine
 10
319.702341876124
 20
10471.062950270471
 11
368.178560130602
 21
10471.062950270471
  0
LINE
  5
2B8
100
AcDbEntity
  8
1
  6
CONTINUOUS
 62
           3
100
AcDbLine
 10
463.702341876124
 20
10471.062950270471
 11
463.702341876124
 21
10468.062950270471
  0
LINE
  5
2B7
100
AcDbEntity
  8
1
  6
CONTINUOUS
 62
           3
100
AcDbLine
 10
463.702341876124
 20
10468.062950270471
 11
421.702341876124
 21
10468.062950270471
  0
LINE
  5
2B6
100
AcDbEntity
  8
1
  6
CONTINUOUS
 62
           3
100
AcDbLine
 10
319.702341876124
 20
10468.062950270471
 11
319.702341876124
 21
10471.062950270471
  0
LINE
  5
2B5
100
AcDbEntity
  8
1
  6
CONTINUOUS
 62
           3
100
AcDbLine
 10
421.702341876124
 20
10471.062950270471
 11
421.702341876124
 21
10642.13894276579
  0
LINE
  5
2B4
100
AcDbEntity
  8
1
  6
CONTINUOUS
 62
           3
100
AcDbLine
 10
421.702341876124
 20
10783.062950270471
 11
418.702341876124
 21
10783.062950270471
  0
LINE
  5
2B3
100
AcDbEntity
  8
1
  6
CONTINUOUS
 62
           3
100
AcDbLine
 10
361.702341876124
 20
10468.062950270471
 11
319.702341876124
 21
10468.062950270471
  0
LINE
  5
2B2
100
AcDbEntity
  8
1
  6
CONTINUOUS
 62
           3
100
AcDbLine
 10
421.702341876124
 20
10468.062950270471
 11
418.702341876124
 21
10468.062950270471
  0
LINE
  5
2B1
100
AcDbEntity
  8
1
  6
CONTINUOUS
 62
           3
100
AcDbLine
 10
364.702341876124
 20
10468.062950270471
 11
361.702341876124
 21
10468.062950270471
  0
LINE
  5
2B0
100
AcDbEntity
  8
1
  6
CONTINUOUS
 62
           3
100
AcDbLine
 10
418.702341876124
 20
10468.062950270471
 11
415.702341876124
 21
10468.062950270471
  0
LINE
  5
2AF
100
AcDbEntity
  8
1
  6
CONTINUOUS
 62
           3
100
AcDbLine
 10
418.702341876124
 20
10474.539168524951
 11
418.702341876124
 21
10468.062950270471
  0
LINE
  5
2AE
100
AcDbEntity
  8
1
  6
CONTINUOUS
 62
           3
100
AcDbLine
 10
364.702341876124
 20
10474.539168524951
 11
364.702341876124
 21
10468.062950270471
  0
LINE
  5
2AD
100
AcDbEntity
  8
1
  6
CONTINUOUS
 62
           3
100
AcDbLine
 10
415.702341876124
 20
10468.062950270471
 11
404.202341876124
 21
10468.062950270471
  0
LINE
  5
2AC
100
AcDbEntity
  8
1
  6
CONTINUOUS
 62
           3
100
AcDbLine
 10
367.702341876124
 20
10468.062950270471
 11
364.702341876124
 21
10468.062950270471
  0
LINE
  5
2AB
100
AcDbEntity
  8
1
  6
CONTINUOUS
 62
           3
100
AcDbLine
 10
379.202341876124
 20
10468.062950270471
 11
379.202341876124
 21
10471.062950270471
  0
LINE
  5
2AA
100
AcDbEntity
  8
1
  6
CONTINUOUS
 62
           3
100
AcDbLine
 10
379.202341876124
 20
10468.062950270471
 11
367.702341876124
 21
10468.062950270471
  0
LINE
  5
2A9
100
AcDbEntity
  8
1
  6
CONTINUOUS
 62
           3
100
AcDbLine
 10
379.202341876124
 20
10478.062950270471
 11
404.202341876124
 21
10478.062950270471
  0
LINE
  5
2A8
100
AcDbEntity
  8
1
  6
CONTINUOUS
 62
           3
100
AcDbLine
 10
404.202341876124
 20
10478.062950270471
 11
404.202341876124
 21
10471.062950270471
  0
LINE
  5
2A7
100
AcDbEntity
  8
1
  6
CONTINUOUS
 62
           3
100
AcDbLine
 10
404.202341876124
 20
10468.062950270471
 11
379.202341876124
 21
10468.062950270471
  0
LINE
  5
2A6
100
AcDbEntity
  8
1
  6
CONTINUOUS
 62
           3
100
AcDbLine
 10
404.202341876124
 20
10471.062950270471
 11
404.202341876124
 21
10468.062950270471
  0
LINE
  5
2A5
100
AcDbEntity
  8
1
  6
CONTINUOUS
 62
           3
100
AcDbLine
 10
379.202341876124
 20
10471.062950270471
 11
379.202341876124
 21
10478.062950270471
  0
LINE
  5
2A4
100
AcDbEntity
  8
1
  6
CONTINUOUS
 62
           3
100
AcDbLine
 10
379.202341876124
 20
10471.062950270471
 11
404.202341876124
 21
10471.062950270471
  0
LINE
  5
2A3
100
AcDbEntity
  8
1
  6
CONTINUOUS
 62
           3
100
AcDbLine
 10
418.702341876124
 20
10474.539168524951
 11
418.702341876124
 21
10644.1933472686
  0
LINE
  5
2A2
100
AcDbEntity
  8
1
  6
DOT_CENTER
 62
           1
100
AcDbLine
 10
370.583305117668
 20
10510.062950270471
 11
413.043999396906
 21
10510.062950270471
  0
LINE
  5
2A1
100
AcDbEntity
  8
1
  6
DOT_CENTER
 62
           1
100
AcDbLine
 10
371.46044463507
 20
10553.062950270471
 11
411.219219586696
 21
10553.062950270471
  0
LINE
  5
2A0
100
AcDbEntity
  8
1
  6
DOT_CENTER
 62
           1
100
AcDbLine
 10
371.46044463507
 20
10580.562950270471
 11
411.219219586696
 21
10580.562950270471
  0
LINE
  5
29F
100
AcDbEntity
  8
1
  6
DOT_CENTER
 62
           1
100
AcDbLine
 10
371.46044463507
 20
10608.062950270471
 11
411.219219586696
 21
10608.062950270471
  0
LINE
  5
29E
100
AcDbEntity
  8
1
  6
DOT_CENTER
 62
           1
100
AcDbLine
 10
371.46044463507
 20
10773.062950270471
 11
411.219219586696
 21
10773.062950270471
  0
LINE
  5
29D
100
AcDbEntity
  8
1
  6
DOT_CENTER
 62
           1
100
AcDbLine
 10
376.702341876124
 20
10785.970318490041
 11
376.702341876124
 21
10543.612458097279
  0
LINE
  5
29C
100
AcDbEntity
  8
1
  6
DOT_CENTER
 62
           1
100
AcDbLine
 10
406.702341876124
 20
10543.612458097279
 11
406.702341876124
 21
10785.970318490041
  0
LINE
  5
29B
100
AcDbEntity
  8
1
  6
DOT_CENTER
 62
           1
100
AcDbLine
 10
334.202341876124
 20
10478.062950270471
 11
334.202341876124
 21
10463.76163180119
  0
LINE
  5
29A
100
AcDbEntity
  8
1
  6
DOTTED
 62
           1
100
AcDbLine
 10
330.452341876124
 20
10468.062950270471
 11
330.452341876124
 21
10471.062950270471
  0
LINE
  5
299
100
AcDbEntity
  8
1
  6
DOTTED
 62
           1
100
AcDbLine
 10
337.952341876124
 20
10468.062950270471
 11
337.952341876124
 21
10471.062950270471
  0
LINE
  5
298
100
AcDbEntity
  8
1
  6
DOTTED
 62
           1
100
AcDbLine
 10
445.452341876123
 20
10471.062950270471
 11
445.452341876123
 21
10468.062950270471
  0
LINE
  5
297
100
AcDbEntity
  8
1
  6
DOTTED
 62
           1
100
AcDbLine
 10
452.952341876123
 20
10471.062950270471
 11
452.952341876123
 21
10468.062950270471
  0
LINE
  5
296
100
AcDbEntity
  8
1
  6
DOT_CENTER
 62
           1
100
AcDbLine
 10
449.202341876123
 20
10463.76163180119
 11
449.202341876123
 21
10478.062950270471
  0
LINE
  5
295
100
AcDbEntity
  8
1
  6
DOTTED
 62
           1
100
AcDbLine
 10
395.452341876124
 20
10471.062950270471
 11
395.452341876124
 21
10468.062950270471
  0
LINE
  5
294
100
AcDbEntity
  8
1
  6
DOTTED
 62
           1
100
AcDbLine
 10
387.952341876124
 20
10471.062950270471
 11
387.952341876124
 21
10468.062950270471
  0
LINE
  5
293
100
AcDbEntity
  8
1
  6
DOT_CENTER
 62
           1
100
AcDbLine
 10
970.983739285596
 20
10690.562950270471
 11
1102.724336157632
 21
10690.562950270471
  0
LINE
  5
292
100
AcDbEntity
  8
1
  6
CONTINUOUS
 62
           3
100
AcDbLine
 10
807.155213027366
 20
10918.31313205366
 11
807.155213027366
 21
10974.31313205366
  0
LINE
  5
291
100
AcDbEntity
  8
1
  6
DOTTED
 62
           1
100
AcDbLine
 10
904.155213027366
 20
10919.81313205366
 11
897.155213027366
 21
10919.81313205366
  0
LINE
  5
290
100
AcDbEntity
  8
1
  6
DOTTED
 62
           1
100
AcDbLine
 10
904.155213027366
 20
10894.81313205366
 11
897.155213027366
 21
10894.81313205366
  0
LINE
  5
28F
100
AcDbEntity
  8
1
  6
DOTTED
 62
           1
100
AcDbLine
 10
897.155213027366
 20
10919.81313205366
 11
897.155213027366
 21
10894.81313205366
  0
LINE
  5
28E
100
AcDbEntity
  8
1
  6
CONTINUOUS
 62
           3
100
AcDbLine
 10
807.155213027366
 20
10840.31313205366
 11
807.155213027366
 21
10896.31313205366
  0
LINE
  5
28D
100
AcDbEntity
  8
1
  6
CONTINUOUS
 62
           3
100
AcDbLine
 10
812.155213027366
 20
10979.31313205366
 11
892.155213027366
 21
10979.31313205366
  0
LINE
  5
28C
100
AcDbEntity
  8
1
  6
CONTINUOUS
 62
           3
100
AcDbLine
 10
892.155213027366
 20
10835.31313205366
 11
812.155213027366
 21
10835.31313205366
  0
LINE
  5
28B
100
AcDbEntity
  8
1
  6
DOT_CENTER
 62
           1
100
AcDbLine
 10
822.155213027366
 20
10841.05620273947
 11
822.155213027366
 21
10973.671823658049
  0
LINE
  5
28A
100
AcDbEntity
  8
1
  6
DOT_CENTER
 62
           1
100
AcDbLine
 10
877.155213027366
 20
10840.39422792623
 11
877.155213027366
 21
10973.89248192913
  0
LINE
  5
289
100
AcDbEntity
  8
1
  6
DOT_CENTER
 62
           1
100
AcDbLine
 10
813.404145392985
 20
10849.81313205366
 11
885.338741764796
 21
10849.81313205366
  0
LINE
  5
288
100
AcDbEntity
  8
1
  6
DOT_CENTER
 62
           1
100
AcDbLine
 10
813.404145392985
 20
10964.81313205366
 11
885.338741764796
 21
10964.81313205366
  0
LINE
  5
287
100
AcDbEntity
  8
1
  6
CONTINUOUS
 62
           3
100
AcDbLine
 10
894.155213027366
 20
10877.31313205366
 11
894.155213027366
 21
10880.31313205366
  0
LINE
  5
286
100
AcDbEntity
  8
1
  6
CONTINUOUS
 62
           3
100
AcDbLine
 10
859.155213027366
 20
10937.31313205366
 11
897.155213027366
 21
10937.31313205366
  0
LINE
  5
285
100
AcDbEntity
  8
1
  6
CONTINUOUS
 62
           3
100
AcDbLine
 10
907.155213027366
 20
10934.31313205366
 11
907.155213027366
 21
10880.31313205366
  0
LINE
  5
284
100
AcDbEntity
  8
1
  6
CONTINUOUS
 62
           3
100
AcDbLine
 10
904.155213027366
 20
10877.31313205366
 11
897.155213027366
 21
10877.31313205366
  0
LINE
  5
283
100
AcDbEntity
  8
1
  6
CONTINUOUS
 62
           3
100
AcDbLine
 10
859.155213027366
 20
10934.31313205366
 11
904.155213027366
 21
10934.31313205366
  0
LINE
  5
282
100
AcDbEntity
  8
1
  6
CONTINUOUS
 62
           3
100
AcDbLine
 10
904.155213027366
 20
10934.31313205366
 11
904.155213027366
 21
10919.81313205366
  0
LINE
  5
281
100
AcDbEntity
  8
1
  6
CONTINUOUS
 62
           3
100
AcDbLine
 10
904.155213027366
 20
10880.31313205366
 11
859.155213027366
 21
10880.31313205366
  0
LINE
  5
280
100
AcDbEntity
  8
1
  6
CONTINUOUS
 62
           3
100
AcDbLine
 10
894.155213027366
 20
10934.31313205366
 11
894.155213027366
 21
10937.31313205366
  0
LINE
  5
27F
100
AcDbEntity
  8
1
  6
CONTINUOUS
 62
           3
100
AcDbLine
 10
897.155213027366
 20
10877.31313205366
 11
897.155213027366
 21
10840.31313205366
  0
LINE
  5
27E
100
AcDbEntity
  8
1
  6
CONTINUOUS
 62
           3
100
AcDbLine
 10
897.155213027366
 20
10974.31313205366
 11
897.155213027366
 21
10937.31313205366
  0
LINE
  5
27D
100
AcDbEntity
  8
1
  6
CONTINUOUS
 62
           3
100
AcDbLine
 10
897.155213027366
 20
10937.31313205366
 11
904.155213027366
 21
10937.31313205366
  0
LINE
  5
27C
100
AcDbEntity
  8
1
  6
CONTINUOUS
 62
           3
100
AcDbLine
 10
897.155213027366
 20
10877.31313205366
 11
859.155213027366
 21
10877.31313205366
  0
LINE
  5
27B
100
AcDbEntity
  8
1
  6
CONTINUOUS
 62
           3
100
AcDbLine
 10
859.155213027366
 20
10877.31313205366
 11
859.155213027366
 21
10880.31313205366
  0
LINE
  5
27A
100
AcDbEntity
  8
1
  6
CONTINUOUS
 62
           3
100
AcDbLine
 10
859.155213027366
 20
10934.31313205366
 11
859.155213027366
 21
10937.31313205366
  0
LINE
  5
279
100
AcDbEntity
  8
1
  6
DOTTED
 62
           1
100
AcDbLine
 10
904.155213027366
 20
10770.562950270471
 11
907.155213027366
 21
10770.562950270471
  0
LINE
  5
278
100
AcDbEntity
  8
1
  6
DOTTED
 62
           1
100
AcDbLine
 10
904.155213027366
 20
10775.562950270471
 11
907.155213027366
 21
10775.562950270471
  0
LINE
  5
277
100
AcDbEntity
  8
1
  6
DOT_CENTER
 62
           1
100
AcDbLine
 10
900.226727646495
 20
10773.062950270471
 11
912.846727646495
 21
10773.062950270471
  0
LINE
  5
276
100
AcDbEntity
  8
1
  6
DOTTED
 62
           1
100
AcDbLine
 10
904.155213027366
 20
10743.062950270471
 11
907.155213027366
 21
10743.062950270471
  0
LINE
  5
275
100
AcDbEntity
  8
1
  6
DOTTED
 62
           1
100
AcDbLine
 10
904.155213027366
 20
10748.062950270471
 11
907.155213027366
 21
10748.062950270471
  0
LINE
  5
274
100
AcDbEntity
  8
1
  6
DOT_CENTER
 62
           1
100
AcDbLine
 10
900.226727646495
 20
10745.562950270471
 11
912.846727646495
 21
10745.562950270471
  0
LINE
  5
273
100
AcDbEntity
  8
1
  6
DOTTED
 62
           1
100
AcDbLine
 10
904.155213027366
 20
10715.562950270471
 11
907.155213027366
 21
10715.562950270471
  0
LINE
  5
272
100
AcDbEntity
  8
1
  6
DOTTED
 62
           1
100
AcDbLine
 10
904.155213027366
 20
10720.562950270471
 11
907.155213027366
 21
10720.562950270471
  0
LINE
  5
271
100
AcDbEntity
  8
1
  6
DOT_CENTER
 62
           1
100
AcDbLine
 10
900.226727646495
 20
10718.062950270471
 11
918.860572268808
 21
10718.062950270471
  0
LINE
  5
270
100
AcDbEntity
  8
1
  6
DOTTED
 62
           1
100
AcDbLine
 10
904.155213027366
 20
10688.062950270471
 11
907.155213027366
 21
10688.062950270471
  0
LINE
  5
26F
100
AcDbEntity
  8
1
  6
DOTTED
 62
           1
100
AcDbLine
 10
904.155213027366
 20
10693.062950270471
 11
907.155213027366
 21
10693.062950270471
  0
LINE
  5
26E
100
AcDbEntity
  8
1
  6
DOTTED
 62
           1
100
AcDbLine
 10
904.155213027366
 20
10660.562950270471
 11
907.155213027366
 21
10660.562950270471
  0
LINE
  5
26D
100
AcDbEntity
  8
1
  6
DOTTED
 62
           1
100
AcDbLine
 10
904.155213027366
 20
10665.562950270471
 11
907.155213027366
 21
10665.562950270471
  0
LINE
  5
26C
100
AcDbEntity
  8
1
  6
DOT_CENTER
 62
           1
100
AcDbLine
 10
900.226727646495
 20
10663.062950270471
 11
918.860572268808
 21
10663.062950270471
  0
LINE
  5
26B
100
AcDbEntity
  8
1
  6
DOTTED
 62
           1
100
AcDbLine
 10
904.155213027366
 20
10633.062950270471
 11
907.155213027366
 21
10633.062950270471
  0
LINE
  5
26A
100
AcDbEntity
  8
1
  6
DOTTED
 62
           1
100
AcDbLine
 10
904.155213027366
 20
10638.062950270471
 11
907.155213027366
 21
10638.062950270471
  0
LINE
  5
269
100
AcDbEntity
  8
1
  6
DOT_CENTER
 62
           1
100
AcDbLine
 10
900.226727646495
 20
10635.562950270471
 11
912.846727646495
 21
10635.562950270471
  0
LINE
  5
268
100
AcDbEntity
  8
1
  6
DOTTED
 62
           1
100
AcDbLine
 10
904.155213027366
 20
10605.562950270471
 11
907.155213027366
 21
10605.562950270471
  0
LINE
  5
267
100
AcDbEntity
  8
1
  6
DOTTED
 62
           1
100
AcDbLine
 10
904.155213027366
 20
10610.562950270471
 11
907.155213027366
 21
10610.562950270471
  0
LINE
  5
266
100
AcDbEntity
  8
1
  6
DOT_CENTER
 62
           1
100
AcDbLine
 10
900.226727646495
 20
10608.062950270471
 11
912.846727646495
 21
10608.062950270471
  0
LINE
  5
265
100
AcDbEntity
  8
1
  6
DOTTED
 62
           1
100
AcDbLine
 10
904.155213027366
 20
10578.062950270471
 11
907.155213027366
 21
10578.062950270471
  0
LINE
  5
264
100
AcDbEntity
  8
1
  6
DOTTED
 62
           1
100
AcDbLine
 10
904.155213027366
 20
10583.062950270471
 11
907.155213027366
 21
10583.062950270471
  0
LINE
  5
263
100
AcDbEntity
  8
1
  6
DOT_CENTER
 62
           1
100
AcDbLine
 10
900.226727646495
 20
10580.562950270471
 11
912.846727646495
 21
10580.562950270471
  0
LINE
  5
262
100
AcDbEntity
  8
1
  6
DOT_CENTER
 62
           1
100
AcDbLine
 10
893.251302238624
 20
10510.062950270471
 11
915.861302238624
 21
10510.062950270471
  0
LINE
  5
261
100
AcDbEntity
  8
1
  6
DOT_CENTER
 62
           1
100
AcDbLine
 10
900.226727646495
 20
10553.062950270471
 11
912.846727646495
 21
10553.062950270471
  0
LINE
  5
260
100
AcDbEntity
  8
1
  6
DOTTED
 62
           1
100
AcDbLine
 10
904.155213027366
 20
10555.562950270471
 11
907.155213027366
 21
10555.562950270471
  0
LINE
  5
25F
100
AcDbEntity
  8
1
  6
DOTTED
 62
           1
100
AcDbLine
 10
904.155213027366
 20
10550.562950270471
 11
907.155213027366
 21
10550.562950270471
  0
LINE
  5
25E
100
AcDbEntity
  8
1
  6
DOTTED
 62
           1
100
AcDbLine
 10
904.155213027366
 20
10525.062950270471
 11
907.155213027366
 21
10525.062950270471
  0
LINE
  5
25D
100
AcDbEntity
  8
1
  6
DOTTED
 62
           1
100
AcDbLine
 10
904.155213027366
 20
10495.062950270471
 11
907.155213027366
 21
10495.062950270471
  0
LINE
  5
25C
100
AcDbEntity
  8
1
  6
DOTTED
 62
           1
100
AcDbLine
 10
818.405213027366
 20
10468.062950270471
 11
818.405213027366
 21
10471.062950270471
  0
LINE
  5
25B
100
AcDbEntity
  8
1
  6
DOTTED
 62
           1
100
AcDbLine
 10
825.905213027366
 20
10468.062950270471
 11
825.905213027366
 21
10471.062950270471
  0
LINE
  5
25A
100
AcDbEntity
  8
1
  6
DOTTED
 62
           1
100
AcDbLine
 10
880.905213027366
 20
10468.062950270471
 11
880.905213027366
 21
10471.062950270471
  0
LINE
  5
259
100
AcDbEntity
  8
1
  6
DOTTED
 62
           1
100
AcDbLine
 10
873.405213027366
 20
10468.062950270471
 11
873.405213027366
 21
10471.062950270471
  0
LINE
  5
258
100
AcDbEntity
  8
1
  6
DOT_CENTER
 62
           1
100
AcDbLine
 10
877.155213027366
 20
10461.265183680491
 11
877.155213027366
 21
10485.482047376619
  0
LINE
  5
257
100
AcDbEntity
  8
1
  6
CONTINUOUS
 62
           3
100
AcDbLine
 10
807.155213027366
 20
10471.062950270471
 11
865.155213027366
 21
10471.062950270471
  0
LINE
  5
256
100
AcDbEntity
  8
1
  6
CONTINUOUS
 62
           3
100
AcDbLine
 10
865.155213027366
 20
10471.062950270471
 11
865.155213027366
 21
10480.062950270471
  0
LINE
  5
255
100
AcDbEntity
  8
1
  6
CONTINUOUS
 62
           3
100
AcDbLine
 10
865.155213027366
 20
10480.062950270471
 11
897.155213027366
 21
10523.062950270471
  0
LINE
  5
254
100
AcDbEntity
  8
1
  6
DOT_CENTER
 62
           1
100
AcDbLine
 10
822.155213027366
 20
10461.265183680491
 11
822.155213027366
 21
10485.482047376619
  0
LINE
  5
253
100
AcDbEntity
  8
1
  6
CONTINUOUS
 62
           3
100
AcDbLine
 10
902.155213027366
 20
10783.062950270471
 11
904.155213027366
 21
10783.062950270471
  0
LINE
  5
252
100
AcDbEntity
  8
1
  6
CONTINUOUS
 62
           3
100
AcDbLine
 10
865.155213027366
 20
10471.062950270471
 11
907.155213027366
 21
10471.062950270471
  0
LINE
  5
251
100
AcDbEntity
  8
1
  6
CONTINUOUS
 62
           3
100
AcDbLine
 10
897.155213027366
 20
10778.062950270471
 11
897.155213027366
 21
10728.062950270471
  0
LINE
  5
250
100
AcDbEntity
  8
1
  6
DOTTED
 62
           1
100
AcDbLine
 10
904.155213027366
 20
10783.062950270471
 11
904.155213027366
 21
10473.820995773911
  0
LINE
  5
24F
100
AcDbEntity
  8
1
  6
CONTINUOUS
 62
           3
100
AcDbLine
 10
904.155213027366
 20
10473.820995773911
 11
904.155213027366
 21
10471.062950270471
  0
LINE
  5
24E
100
AcDbEntity
  8
1
  6
CONTINUOUS
 62
           3
100
AcDbLine
 10
904.155213027366
 20
10783.062950270471
 11
907.155213027366
 21
10783.062950270471
  0
LINE
  5
24D
100
AcDbEntity
  8
1
  6
CONTINUOUS
 62
           3
100
AcDbLine
 10
904.155213027366
 20
10468.062950270471
 11
901.155213027366
 21
10468.062950270471
  0
LINE
  5
24C
100
AcDbEntity
  8
1
  6
CONTINUOUS
 62
           3
100
AcDbLine
 10
897.155213027366
 20
10471.062950270471
 11
897.155213027366
 21
10468.062950270471
  0
LINE
  5
24B
100
AcDbEntity
  8
1
  6
CONTINUOUS
 62
           3
100
AcDbLine
 10
807.155213027366
 20
10468.062950270471
 11
807.155213027366
 21
10471.062950270471
  0
LINE
  5
24A
100
AcDbEntity
  8
1
  6
CONTINUOUS
 62
           3
100
AcDbLine
 10
901.155213027366
 20
10468.062950270471
 11
807.155213027366
 21
10468.062950270471
  0
LINE
  5
249
100
AcDbEntity
  8
1
  6
DOTTED
 62
           1
100
AcDbLine
 10
1031.233739285596
 20
10471.062950270471
 11
1031.233739285596
 21
10468.062950270471
  0
LINE
  5
248
100
AcDbEntity
  8
1
  6
DOTTED
 62
           1
100
AcDbLine
 10
1038.733739285596
 20
10471.062950270471
 11
1038.733739285596
 21
10468.062950270471
  0
LINE
  5
247
100
AcDbEntity
  8
1
  6
DOT_CENTER
 62
           1
100
AcDbLine
 10
1092.483739285596
 20
10463.76163180119
 11
1092.483739285596
 21
10478.062950270471
  0
LINE
  5
246
100
AcDbEntity
  8
1
  6
DOTTED
 62
           1
100
AcDbLine
 10
1096.233739285596
 20
10471.062950270471
 11
1096.233739285596
 21
10468.062950270471
  0
LINE
  5
245
100
AcDbEntity
  8
1
  6
DOTTED
 62
           1
100
AcDbLine
 10
1088.733739285596
 20
10471.062950270471
 11
1088.733739285596
 21
10468.062950270471
  0
LINE
  5
244
100
AcDbEntity
  8
1
  6
DOTTED
 62
           1
100
AcDbLine
 10
981.233739285596
 20
10468.062950270471
 11
981.233739285596
 21
10471.062950270471
  0
LINE
  5
243
100
AcDbEntity
  8
1
  6
DOTTED
 62
           1
100
AcDbLine
 10
973.733739285596
 20
10468.062950270471
 11
973.733739285596
 21
10471.062950270471
  0
LINE
  5
242
100
AcDbEntity
  8
1
  6
DOT_CENTER
 62
           1
100
AcDbLine
 10
977.483739285596
 20
10478.062950270471
 11
977.483739285596
 21
10463.76163180119
  0
LINE
  5
241
100
AcDbEntity
  8
1
  6
DOT_CENTER
 62
           1
100
AcDbLine
 10
1019.983739285596
 20
10785.970318490041
 11
1019.983739285596
 21
10543.612458097279
  0
LINE
  5
240
100
AcDbEntity
  8
1
  6
DOT_CENTER
 62
           1
100
AcDbLine
 10
1014.741842044542
 20
10773.062950270471
 11
1054.500616996168
 21
10773.062950270471
  0
LINE
  5
23F
100
AcDbEntity
  8
1
  6
DOT_CENTER
 62
           1
100
AcDbLine
 10
1014.741842044542
 20
10745.562950270471
 11
1054.500616996168
 21
10745.562950270471
  0
LINE
  5
23E
100
AcDbEntity
  8
1
  6
DOT_CENTER
 62
           1
100
AcDbLine
 10
1014.741842044542
 20
10635.562950270471
 11
1054.500616996168
 21
10635.562950270471
  0
LINE
  5
23D
100
AcDbEntity
  8
1
  6
DOT_CENTER
 62
           1
100
AcDbLine
 10
1014.741842044542
 20
10608.062950270471
 11
1054.500616996168
 21
10608.062950270471
  0
LINE
  5
23C
100
AcDbEntity
  8
1
  6
DOT_CENTER
 62
           1
100
AcDbLine
 10
1014.741842044542
 20
10580.562950270471
 11
1054.500616996168
 21
10580.562950270471
  0
LINE
  5
23B
100
AcDbEntity
  8
1
  6
DOT_CENTER
 62
           1
100
AcDbLine
 10
1014.741842044542
 20
10553.062950270471
 11
1054.500616996168
 21
10553.062950270471
  0
LINE
  5
23A
100
AcDbEntity
  8
1
  6
DOT_CENTER
 62
           1
100
AcDbLine
 10
1013.86470252714
 20
10510.062950270471
 11
1056.325396806378
 21
10510.062950270471
  0
LINE
  5
239
100
AcDbEntity
  8
1
  6
DOTTED
 62
           1
100
AcDbLine
 10
1061.983739285596
 20
10474.539168524951
 11
1061.983739285596
 21
10783.062950270471
  0
LINE
  5
238
100
AcDbEntity
  8
1
  6
DOTTED
 62
           1
100
AcDbLine
 10
1007.983739285596
 20
10783.062950270471
 11
1007.983739285596
 21
10474.539168524951
  0
LINE
  5
237
100
AcDbEntity
  8
1
  6
CONTINUOUS
 62
           3
100
AcDbLine
 10
1022.483739285596
 20
10471.062950270471
 11
1047.483739285596
 21
10471.062950270471
  0
LINE
  5
236
100
AcDbEntity
  8
1
  6
DOTTED
 62
           1
100
AcDbLine
 10
1011.459957540074
 20
10471.062950270471
 11
1022.483739285596
 21
10471.062950270471
  0
LINE
  5
235
100
AcDbEntity
  8
1
  6
CONTINUOUS
 62
           3
100
AcDbLine
 10
1022.483739285596
 20
10471.062950270471
 11
1022.483739285596
 21
10478.062950270471
  0
LINE
  5
234
100
AcDbEntity
  8
1
  6
CONTINUOUS
 62
           3
100
AcDbLine
 10
1058.507521030186
 20
10471.062950270471
 11
1064.983739285596
 21
10471.062950270471
  0
LINE
  5
233
100
AcDbEntity
  8
1
  6
CONTINUOUS
 62
           3
100
AcDbLine
 10
1047.483739285596
 20
10471.062950270471
 11
1047.483739285596
 21
10468.062950270471
  0
LINE
  5
232
100
AcDbEntity
  8
1
  6
DOTTED
 62
           1
100
AcDbLine
 10
1047.483739285596
 20
10471.062950270471
 11
1058.507521030186
 21
10471.062950270471
  0
LINE
  5
231
100
AcDbEntity
  8
1
  6
CONTINUOUS
 62
           3
100
AcDbLine
 10
1047.483739285596
 20
10468.062950270471
 11
1022.483739285596
 21
10468.062950270471
  0
LINE
  5
230
100
AcDbEntity
  8
1
  6
CONTINUOUS
 62
           3
100
AcDbLine
 10
1047.483739285596
 20
10478.062950270471
 11
1047.483739285596
 21
10471.062950270471
  0
LINE
  5
22F
100
AcDbEntity
  8
1
  6
CONTINUOUS
 62
           3
100
AcDbLine
 10
1022.483739285596
 20
10478.062950270471
 11
1047.483739285596
 21
10478.062950270471
  0
LINE
  5
22E
100
AcDbEntity
  8
1
  6
CONTINUOUS
 62
           3
100
AcDbLine
 10
1022.483739285596
 20
10468.062950270471
 11
1010.983739285596
 21
10468.062950270471
  0
LINE
  5
22D
100
AcDbEntity
  8
1
  6
CONTINUOUS
 62
           3
100
AcDbLine
 10
1022.483739285596
 20
10468.062950270471
 11
1022.483739285596
 21
10471.062950270471
  0
LINE
  5
22C
100
AcDbEntity
  8
1
  6
CONTINUOUS
 62
           3
100
AcDbLine
 10
1064.983739285596
 20
10471.062950270471
 11
1106.983739285596
 21
10471.062950270471
  0
LINE
  5
22B
100
AcDbEntity
  8
1
  6
CONTINUOUS
 62
           3
100
AcDbLine
 10
1064.983739285596
 20
10474.062950270471
 11
1064.983739285596
 21
10783.062950270471
  0
LINE
  5
22A
100
AcDbEntity
  8
1
  6
CONTINUOUS
 62
           3
100
AcDbLine
 10
1010.983739285596
 20
10468.062950270471
 11
1007.983739285596
 21
10468.062950270471
  0
LINE
  5
229
100
AcDbEntity
  8
1
  6
CONTINUOUS
 62
           3
100
AcDbLine
 10
1058.983739285596
 20
10468.062950270471
 11
1047.483739285596
 21
10468.062950270471
  0
LINE
  5
228
100
AcDbEntity
  8
1
  6
CONTINUOUS
 62
           3
100
AcDbLine
 10
1007.983739285596
 20
10474.539168524951
 11
1007.983739285596
 21
10468.062950270471
  0
LINE
  5
227
100
AcDbEntity
  8
1
  6
CONTINUOUS
 62
           3
100
AcDbLine
 10
1061.983739285596
 20
10474.539168524951
 11
1061.983739285596
 21
10468.062950270471
  0
LINE
  5
226
100
AcDbEntity
  8
1
  6
CONTINUOUS
 62
           3
100
AcDbLine
 10
1061.983739285596
 20
10468.062950270471
 11
1058.983739285596
 21
10468.062950270471
  0
LINE
  5
225
100
AcDbEntity
  8
1
  6
CONTINUOUS
 62
           3
100
AcDbLine
 10
1007.983739285596
 20
10468.062950270471
 11
1004.983739285596
 21
10468.062950270471
  0
LINE
  5
224
100
AcDbEntity
  8
1
  6
CONTINUOUS
 62
           3
100
AcDbLine
 10
1064.983739285596
 20
10468.062950270471
 11
1061.983739285596
 21
10468.062950270471
  0
LINE
  5
223
100
AcDbEntity
  8
1
  6
CONTINUOUS
 62
           3
100
AcDbLine
 10
1004.983739285596
 20
10468.062950270471
 11
962.983739285596
 21
10468.062950270471
  0
LINE
  5
222
100
AcDbEntity
  8
1
  6
CONTINUOUS
 62
           3
100
AcDbLine
 10
1064.983739285596
 20
10783.062950270471
 11
1061.983739285596
 21
10783.062950270471
  0
LINE
  5
221
100
AcDbEntity
  8
1
  6
CONTINUOUS
 62
           3
100
AcDbLine
 10
1064.983739285596
 20
10471.062950270471
 11
1064.983739285596
 21
10474.062950270471
  0
LINE
  5
220
100
AcDbEntity
  8
1
  6
CONTINUOUS
 62
           3
100
AcDbLine
 10
962.983739285596
 20
10468.062950270471
 11
962.983739285596
 21
10471.062950270471
  0
LINE
  5
21F
100
AcDbEntity
  8
1
  6
CONTINUOUS
 62
           3
100
AcDbLine
 10
1106.983739285596
 20
10468.062950270471
 11
1064.983739285596
 21
10468.062950270471
  0
LINE
  5
21E
100
AcDbEntity
  8
1
  6
CONTINUOUS
 62
           3
100
AcDbLine
 10
1106.983739285596
 20
10471.062950270471
 11
1106.983739285596
 21
10468.062950270471
  0
LINE
  5
21D
100
AcDbEntity
  8
1
  6
CONTINUOUS
 62
           3
100
AcDbLine
 10
962.983739285596
 20
10471.062950270471
 11
1004.983739285596
 21
10471.062950270471
  0
LINE
  5
21C
100
AcDbEntity
  8
1
  6
DOT_CENTER
 62
           1
100
AcDbLine
 10
464.505770866299
 20
10690.562950270471
 11
926.01529336074
 21
10690.562950270471
  0
LINE
  5
21B
100
AcDbEntity
  8
1
  6
DOT_CENTER
 62
           1
100
AcDbLine
 10
450.92125981999
 20
10907.31313205366
 11
769.848442804025
 21
10907.31313205366
  0
LINE
  5
21A
100
AcDbEntity
  8
1
  6
CONTINUOUS
 62
           3
100
AcDbLine
 10
904.155213027366
 20
10882.31313205366
 11
904.155213027366
 21
10894.81313205366
  0
LINE
  5
219
100
AcDbEntity
  8
1
  6
PHANTOM
 62
           1
100
AcDbLine
 10
869.662033035963
 20
10850.5528042402
 11
871.463267342774
 21
10873.439656120359
  0
LINE
  5
218
100
AcDbEntity
  8
1
  6
DOT_CENTER
 62
           1
100
AcDbLine
 10
371.279187102282
 20
10678.062950270471
 11
412.416185570947
 21
10678.062950270471
  0
LINE
  5
217
100
AcDbEntity
  8
1
  6
DOT_CENTER
 62
           1
100
AcDbLine
 10
371.687832782435
 20
10703.062950270471
 11
412.961046477817
 21
10703.062950270471
  0
LINE
  5
216
100
AcDbEntity
  8
1
  6
DOT_CENTER
 62
           1
100
AcDbLine
 10
401.702341876124
 20
10710.38579067972
 11
401.702341876124
 21
10669.65743789121
  0
LINE
  5
215
100
AcDbEntity
  8
1
  6
DOT_CENTER
 62
           1
100
AcDbLine
 10
381.702341876124
 20
10709.70471454614
 11
381.702341876124
 21
10670.883374931669
  0
LINE
  5
214
100
AcDbEntity
  8
1
  6
CONTINUOUS
 62
           6
100
AcDbLine
 10
382.202341876124
 20
10680.062950270471
 11
382.202341876124
 21
10679.062950270471
  0
LINE
  5
213
100
AcDbEntity
  8
1
  6
CONTINUOUS
 62
           6
100
AcDbLine
 10
379.702341876124
 20
10678.562950270471
 11
380.702341876124
 21
10678.562950270471
  0
LINE
  5
212
100
AcDbEntity
  8
1
  6
CONTINUOUS
 62
           6
100
AcDbLine
 10
383.702341876124
 20
10677.562950270471
 11
382.702341876124
 21
10677.562950270471
  0
LINE
  5
211
100
AcDbEntity
  8
1
  6
CONTINUOUS
 62
           6
100
AcDbLine
 10
381.202341876124
 20
10676.062950270471
 11
381.202341876124
 21
10677.062950270471
  0
LINE
  5
210
100
AcDbEntity
  8
1
  6
CONTINUOUS
 62
           6
100
AcDbLine
 10
379.702341876124
 20
10677.562950270471
 11
379.702341876124
 21
10678.562950270471
  0
LINE
  5
20F
100
AcDbEntity
  8
1
  6
CONTINUOUS
 62
           6
100
AcDbLine
 10
382.702341876124
 20
10678.562950270471
 11
383.702341876124
 21
10678.562950270471
  0
LINE
  5
20E
100
AcDbEntity
  8
1
  6
CONTINUOUS
 62
           6
100
AcDbLine
 10
383.702341876124
 20
10678.562950270471
 11
383.702341876124
 21
10677.562950270471
  0
LINE
  5
20D
100
AcDbEntity
  8
1
  6
CONTINUOUS
 62
           6
100
AcDbLine
 10
380.702341876124
 20
10677.562950270471
 11
379.702341876124
 21
10677.562950270471
  0
LINE
  5
20C
100
AcDbEntity
  8
1
  6
CONTINUOUS
 62
           6
100
AcDbLine
 10
381.202341876124
 20
10679.062950270471
 11
381.202341876124
 21
10680.062950270471
  0
LINE
  5
20B
100
AcDbEntity
  8
1
  6
CONTINUOUS
 62
           6
100
AcDbLine
 10
381.202341876124
 20
10680.062950270471
 11
382.202341876124
 21
10680.062950270471
  0
LINE
  5
20A
100
AcDbEntity
  8
1
  6
CONTINUOUS
 62
           6
100
AcDbLine
 10
382.202341876124
 20
10677.062950270471
 11
382.202341876124
 21
10676.062950270471
  0
LINE
  5
209
100
AcDbEntity
  8
1
  6
CONTINUOUS
 62
           6
100
AcDbLine
 10
382.202341876124
 20
10676.062950270471
 11
381.202341876124
 21
10676.062950270471
  0
LINE
  5
208
100
AcDbEntity
  8
1
  6
CONTINUOUS
 62
           6
100
AcDbLine
 10
402.202341876124
 20
10676.062950270471
 11
401.202341876124
 21
10676.062950270471
  0
LINE
  5
207
100
AcDbEntity
  8
1
  6
CONTINUOUS
 62
           6
100
AcDbLine
 10
401.202341876124
 20
10676.062950270471
 11
401.202341876124
 21
10677.062950270471
  0
LINE
  5
206
100
AcDbEntity
  8
1
  6
CONTINUOUS
 62
           6
100
AcDbLine
 10
401.202341876124
 20
10680.062950270471
 11
402.202341876124
 21
10680.062950270471
  0
LINE
  5
205
100
AcDbEntity
  8
1
  6
CONTINUOUS
 62
           6
100
AcDbLine
 10
402.202341876124
 20
10680.062950270471
 11
402.202341876124
 21
10679.062950270471
  0
LINE
  5
204
100
AcDbEntity
  8
1
  6
CONTINUOUS
 62
           6
100
AcDbLine
 10
403.702341876124
 20
10677.562950270471
 11
402.702341876124
 21
10677.562950270471
  0
LINE
  5
203
100
AcDbEntity
  8
1
  6
CONTINUOUS
 62
           6
100
AcDbLine
 10
399.702341876124
 20
10677.562950270471
 11
399.702341876124
 21
10678.562950270471
  0
LINE
  5
202
100
AcDbEntity
  8
1
  6
CONTINUOUS
 62
           6
100
AcDbLine
 10
399.702341876124
 20
10678.562950270471
 11
400.702341876124
 21
10678.562950270471
  0
LINE
  5
201
100
AcDbEntity
  8
1
  6
CONTINUOUS
 62
           6
100
AcDbLine
 10
403.702341876124
 20
10678.562950270471
 11
403.702341876124
 21
10677.562950270471
  0
LINE
  5
200
100
AcDbEntity
  8
1
  6
CONTINUOUS
 62
           6
100
AcDbLine
 10
402.202341876124
 20
10677.062950270471
 11
402.202341876124
 21
10676.062950270471
  0
LINE
  5
1FF
100
AcDbEntity
  8
1
  6
CONTINUOUS
 62
           6
100
AcDbLine
 10
400.702341876124
 20
10677.562950270471
 11
399.702341876124
 21
10677.562950270471
  0
LINE
  5
1FE
100
AcDbEntity
  8
1
  6
CONTINUOUS
 62
           6
100
AcDbLine
 10
402.702341876124
 20
10678.562950270471
 11
403.702341876124
 21
10678.562950270471
  0
LINE
  5
1FD
100
AcDbEntity
  8
1
  6
CONTINUOUS
 62
           6
100
AcDbLine
 10
401.202341876124
 20
10679.062950270471
 11
401.202341876124
 21
10680.062950270471
  0
LINE
  5
1FC
100
AcDbEntity
  8
1
  6
CONTINUOUS
 62
           6
100
AcDbLine
 10
401.202341876124
 20
10701.062950270471
 11
401.202341876124
 21
10702.062950270471
  0
LINE
  5
1FB
100
AcDbEntity
  8
1
  6
CONTINUOUS
 62
           6
100
AcDbLine
 10
403.702341876124
 20
10702.562950270471
 11
402.702341876124
 21
10702.562950270471
  0
LINE
  5
1FA
100
AcDbEntity
  8
1
  6
CONTINUOUS
 62
           6
100
AcDbLine
 10
399.702341876124
 20
10703.562950270471
 11
400.702341876124
 21
10703.562950270471
  0
LINE
  5
1F9
100
AcDbEntity
  8
1
  6
CONTINUOUS
 62
           6
100
AcDbLine
 10
402.202341876124
 20
10705.062950270471
 11
402.202341876124
 21
10704.062950270471
  0
LINE
  5
1F8
100
AcDbEntity
  8
1
  6
CONTINUOUS
 62
           6
100
AcDbLine
 10
403.702341876124
 20
10703.562950270471
 11
403.702341876124
 21
10702.562950270471
  0
LINE
  5
1F7
100
AcDbEntity
  8
1
  6
CONTINUOUS
 62
           6
100
AcDbLine
 10
400.702341876124
 20
10702.562950270471
 11
399.702341876124
 21
10702.562950270471
  0
LINE
  5
1F6
100
AcDbEntity
  8
1
  6
CONTINUOUS
 62
           6
100
AcDbLine
 10
399.702341876124
 20
10702.562950270471
 11
399.702341876124
 21
10703.562950270471
  0
LINE
  5
1F5
100
AcDbEntity
  8
1
  6
CONTINUOUS
 62
           6
100
AcDbLine
 10
402.702341876124
 20
10703.562950270471
 11
403.702341876124
 21
10703.562950270471
  0
LINE
  5
1F4
100
AcDbEntity
  8
1
  6
CONTINUOUS
 62
           6
100
AcDbLine
 10
402.202341876124
 20
10702.062950270471
 11
402.202341876124
 21
10701.062950270471
  0
LINE
  5
1F3
100
AcDbEntity
  8
1
  6
CONTINUOUS
 62
           6
100
AcDbLine
 10
402.202341876124
 20
10701.062950270471
 11
401.202341876124
 21
10701.062950270471
  0
LINE
  5
1F2
100
AcDbEntity
  8
1
  6
CONTINUOUS
 62
           6
100
AcDbLine
 10
401.202341876124
 20
10704.062950270471
 11
401.202341876124
 21
10705.062950270471
  0
LINE
  5
1F1
100
AcDbEntity
  8
1
  6
CONTINUOUS
 62
           6
100
AcDbLine
 10
401.202341876124
 20
10705.062950270471
 11
402.202341876124
 21
10705.062950270471
  0
LINE
  5
1F0
100
AcDbEntity
  8
1
  6
CONTINUOUS
 62
           6
100
AcDbLine
 10
381.202341876124
 20
10705.062950270471
 11
382.202341876124
 21
10705.062950270471
  0
LINE
  5
1EF
100
AcDbEntity
  8
1
  6
CONTINUOUS
 62
           6
100
AcDbLine
 10
382.202341876124
 20
10705.062950270471
 11
382.202341876124
 21
10704.062950270471
  0
LINE
  5
1EE
100
AcDbEntity
  8
1
  6
CONTINUOUS
 62
           6
100
AcDbLine
 10
382.202341876124
 20
10701.062950270471
 11
381.202341876124
 21
10701.062950270471
  0
LINE
  5
1ED
100
AcDbEntity
  8
1
  6
CONTINUOUS
 62
           6
100
AcDbLine
 10
381.202341876124
 20
10701.062950270471
 11
381.202341876124
 21
10702.062950270471
  0
LINE
  5
1EC
100
AcDbEntity
  8
1
  6
CONTINUOUS
 62
           6
100
AcDbLine
 10
379.702341876124
 20
10703.562950270471
 11
380.702341876124
 21
10703.562950270471
  0
LINE
  5
1EB
100
AcDbEntity
  8
1
  6
CONTINUOUS
 62
           6
100
AcDbLine
 10
383.702341876124
 20
10703.562950270471
 11
383.702341876124
 21
10702.562950270471
  0
LINE
  5
1EA
100
AcDbEntity
  8
1
  6
CONTINUOUS
 62
           6
100
AcDbLine
 10
383.702341876124
 20
10702.562950270471
 11
382.702341876124
 21
10702.562950270471
  0
LINE
  5
1E9
100
AcDbEntity
  8
1
  6
CONTINUOUS
 62
           6
100
AcDbLine
 10
379.702341876124
 20
10702.562950270471
 11
379.702341876124
 21
10703.562950270471
  0
LINE
  5
1E8
100
AcDbEntity
  8
1
  6
CONTINUOUS
 62
           6
100
AcDbLine
 10
381.202341876124
 20
10704.062950270471
 11
381.202341876124
 21
10705.062950270471
  0
LINE
  5
1E7
100
AcDbEntity
  8
1
  6
CONTINUOUS
 62
           6
100
AcDbLine
 10
382.702341876124
 20
10703.562950270471
 11
383.702341876124
 21
10703.562950270471
  0
LINE
  5
1E6
100
AcDbEntity
  8
1
  6
CONTINUOUS
 62
           6
100
AcDbLine
 10
380.702341876124
 20
10702.562950270471
 11
379.702341876124
 21
10702.562950270471
  0
LINE
  5
1E5
100
AcDbEntity
  8
1
  6
CONTINUOUS
 62
           6
100
AcDbLine
 10
382.202341876124
 20
10702.062950270471
 11
382.202341876124
 21
10701.062950270471
  0
LINE
  5
1E4
100
AcDbEntity
  8
1
  6
DOT_CENTER
 62
           1
100
AcDbLine
 10
354.202341876124
 20
10736.73420956645
 11
354.202341876124
 21
10719.083352607609
  0
LINE
  5
1E3
100
AcDbEntity
  8
1
  6
DOT_CENTER
 62
           1
100
AcDbLine
 10
343.91662388245
 20
10728.062950270471
 11
363.19679071441
 21
10728.062950270471
  0
LINE
  5
1E2
100
AcDbEntity
  8
1
  6
DOT_CENTER
 62
           1
100
AcDbLine
 10
333.507144137495
 20
10740.562950270471
 11
350.614897805291
 21
10740.562950270471
  0
LINE
  5
1E1
100
AcDbEntity
  8
1
  6
DOT_CENTER
 62
           1
100
AcDbLine
 10
341.702341876124
 20
10747.95834424796
 11
341.702341876124
 21
10731.574728301561
  0
LINE
  5
1E0
100
AcDbEntity
  8
1
  6
DOT_CENTER
 62
           1
100
AcDbLine
 10
429.202341876124
 20
10661.532856153841
 11
429.202341876124
 21
10643.95472440433
  0
LINE
  5
1DF
100
AcDbEntity
  8
1
  6
DOT_CENTER
 62
           1
100
AcDbLine
 10
441.702341876124
 20
10647.81333869081
 11
441.702341876124
 21
10632.950528105859
  0
LINE
  5
1DE
100
AcDbEntity
  8
1
  6
DOT_CENTER
 62
           1
100
AcDbLine
 10
433.341789172142
 20
10640.562950270471
 11
449.63371615949
 21
10640.562950270471
  0
LINE
  5
1DD
100
AcDbEntity
  8
1
  6
DOT_CENTER
 62
           1
100
AcDbLine
 10
420.551197370671
 20
10653.062950270471
 11
436.700212717779
 21
10653.062950270471
  0
LINE
  5
1DC
100
AcDbEntity
  8
1
  6
DOT_CENTER
 62
           1
100
AcDbLine
 10
347.968512259365
 20
10653.062950270471
 11
361.009651683284
 21
10653.062950270471
  0
LINE
  5
1DB
100
AcDbEntity
  8
1
  6
DOT_CENTER
 62
           1
100
AcDbLine
 10
349.360879758495
 20
10656.46295027047
 11
358.729929734405
 21
10656.46295027047
  0
LINE
  5
1DA
100
AcDbEntity
  8
1
  6
DOT_CENTER
 62
           1
100
AcDbLine
 10
349.308244646274
 20
10649.662950270471
 11
358.993105295525
 21
10649.662950270471
  0
LINE
  5
1D9
100
AcDbEntity
  8
1
  6
DOT_CENTER
 62
           1
100
AcDbLine
 10
354.202341876123
 20
10644.5176586096
 11
354.202341876124
 21
10661.887245643589
  0
LINE
  5
1D8
100
AcDbEntity
  8
1
  6
CONTINUOUS
 62
           3
100
AcDbLine
 10
356.802341876124
 20
10656.46295027047
 11
356.802341876123
 21
10649.662950270471
  0
LINE
  5
1D7
100
AcDbEntity
  8
1
  6
CONTINUOUS
 62
           3
100
AcDbLine
 10
351.602341876123
 20
10649.662950270471
 11
351.602341876124
 21
10656.46295027047
  0
LINE
  5
1D6
100
AcDbEntity
  8
1
  6
CONTINUOUS
 62
           3
100
AcDbLine
 10
339.102341876123
 20
10637.162950270471
 11
339.102341876124
 21
10643.96295027047
  0
LINE
  5
1D5
100
AcDbEntity
  8
1
  6
CONTINUOUS
 62
           3
100
AcDbLine
 10
344.302341876124
 20
10643.96295027047
 11
344.302341876124
 21
10637.162950270471
  0
LINE
  5
1D4
100
AcDbEntity
  8
1
  6
DOT_CENTER
 62
           1
100
AcDbLine
 10
341.702341876123
 20
10632.0176586096
 11
341.702341876124
 21
10649.387245643589
  0
LINE
  5
1D3
100
AcDbEntity
  8
1
  6
DOT_CENTER
 62
           1
100
AcDbLine
 10
336.808244646274
 20
10637.162950270471
 11
346.493105295525
 21
10637.162950270471
  0
LINE
  5
1D2
100
AcDbEntity
  8
1
  6
DOT_CENTER
 62
           1
100
AcDbLine
 10
336.860879758495
 20
10643.96295027047
 11
346.229929734405
 21
10643.96295027047
  0
LINE
  5
1D1
100
AcDbEntity
  8
1
  6
DOT_CENTER
 62
           1
100
AcDbLine
 10
335.468512259365
 20
10640.562950270471
 11
348.509651683284
 21
10640.562950270471
  0
LINE
  5
1D0
100
AcDbEntity
  8
1
  6
CONTINUOUS
 62
           3
100
AcDbLine
 10
425.802341876124
 20
10730.662950270471
 11
432.602341876124
 21
10730.662950270471
  0
LINE
  5
1CF
100
AcDbEntity
  8
1
  6
CONTINUOUS
 62
           3
100
AcDbLine
 10
432.602341876124
 20
10725.46295027047
 11
425.802341876124
 21
10725.46295027047
  0
LINE
  5
1CE
100
AcDbEntity
  8
1
  6
DOT_CENTER
 62
           1
100
AcDbLine
 10
420.657050215256
 20
10728.062950270471
 11
438.026637249239
 21
10728.062950270471
  0
LINE
  5
1CD
100
AcDbEntity
  8
1
  6
DOT_CENTER
 62
           1
100
AcDbLine
 10
425.802341876124
 20
10732.95704750032
 11
425.802341876124
 21
10723.272186851071
  0
LINE
  5
1CC
100
AcDbEntity
  8
1
  6
DOT_CENTER
 62
           1
100
AcDbLine
 10
432.602341876124
 20
10732.904412388099
 11
432.602341876124
 21
10723.535362412191
  0
LINE
  5
1CB
100
AcDbEntity
  8
1
  6
DOT_CENTER
 62
           1
100
AcDbLine
 10
429.202341876124
 20
10734.296779887231
 11
429.202341876124
 21
10721.255640463311
  0
LINE
  5
1CA
100
AcDbEntity
  8
1
  6
DOT_CENTER
 62
           1
100
AcDbLine
 10
349.794358681352
 20
10732.47093346524
 11
359.015836802405
 21
10723.24945534419
  0
LINE
  5
1C9
100
AcDbEntity
  8
1
  6
DOT_CENTER
 62
           1
100
AcDbLine
 10
353.183074237925
 20
10733.89054402074
 11
359.807993009166
 21
10727.2656252495
  0
LINE
  5
1C8
100
AcDbEntity
  8
1
  6
DOT_CENTER
 62
           1
100
AcDbLine
 10
348.337529481077
 20
10729.11943655345
 11
355.185760121009
 21
10722.271205913519
  0
LINE
  5
1C7
100
AcDbEntity
  8
1
  6
DOT_CENTER
 62
           1
100
AcDbLine
 10
348.159908195507
 20
10722.02051658985
 11
360.442060973646
 21
10734.302669368
  0
LINE
  5
1C6
100
AcDbEntity
  8
1
  6
CONTINUOUS
 62
           3
100
AcDbLine
 10
358.444982563243
 20
10728.628635695421
 11
353.636656451174
 21
10723.820309583351
  0
LINE
  5
1C5
100
AcDbEntity
  8
1
  6
CONTINUOUS
 62
           3
100
AcDbLine
 10
349.959701189005
 20
10727.49726484552
 11
354.768027301073
 21
10732.305590957591
  0
LINE
  5
1C4
100
AcDbEntity
  8
1
  6
CONTINUOUS
 62
           3
100
AcDbLine
 10
337.459701189005
 20
10739.99726484552
 11
342.268027301073
 21
10744.805590957591
  0
LINE
  5
1C3
100
AcDbEntity
  8
1
  6
CONTINUOUS
 62
           3
100
AcDbLine
 10
345.944982563243
 20
10741.128635695421
 11
341.136656451174
 21
10736.320309583351
  0
LINE
  5
1C2
100
AcDbEntity
  8
1
  6
DOT_CENTER
 62
           1
100
AcDbLine
 10
335.659908195507
 20
10734.52051658985
 11
347.942060973646
 21
10746.802669368
  0
LINE
  5
1C1
100
AcDbEntity
  8
1
  6
DOT_CENTER
 62
           1
100
AcDbLine
 10
335.837529481077
 20
10741.61943655345
 11
342.685760121009
 21
10734.771205913519
  0
LINE
  5
1C0
100
AcDbEntity
  8
1
  6
DOT_CENTER
 62
           1
100
AcDbLine
 10
340.683074237925
 20
10746.39054402074
 11
347.307993009166
 21
10739.7656252495
  0
LINE
  5
1BF
100
AcDbEntity
  8
1
  6
DOT_CENTER
 62
           1
100
AcDbLine
 10
337.294358681352
 20
10744.97093346524
 11
346.515836802405
 21
10735.74945534419
  0
LINE
  5
1BE
100
AcDbEntity
  8
1
  6
DOT_CENTER
 62
           1
100
AcDbLine
 10
441.702341876124
 20
10746.796779887231
 11
441.702341876124
 21
10733.755640463311
  0
LINE
  5
1BD
100
AcDbEntity
  8
1
  6
DOT_CENTER
 62
           1
100
AcDbLine
 10
445.102341876124
 20
10745.404412388099
 11
445.102341876124
 21
10736.035362412191
  0
LINE
  5
1BC
100
AcDbEntity
  8
1
  6
DOT_CENTER
 62
           1
100
AcDbLine
 10
438.302341876124
 20
10745.45704750032
 11
438.302341876124
 21
10735.772186851071
  0
LINE
  5
1BB
100
AcDbEntity
  8
1
  6
DOT_CENTER
 62
           1
100
AcDbLine
 10
433.157050215256
 20
10740.562950270471
 11
450.526637249239
 21
10740.562950270471
  0
LINE
  5
1BA
100
AcDbEntity
  8
1
  6
CONTINUOUS
 62
           3
100
AcDbLine
 10
445.102341876124
 20
10737.96295027047
 11
438.302341876124
 21
10737.96295027047
  0
LINE
  5
1B9
100
AcDbEntity
  8
1
  6
CONTINUOUS
 62
           3
100
AcDbLine
 10
438.302341876124
 20
10743.162950270471
 11
445.102341876124
 21
10743.162950270471
  0
LINE
  5
1B8
100
AcDbEntity
  8
1
  6
CONTINUOUS
 62
           3
100
AcDbLine
 10
423.451542338002
 20
10696.2131101781
 11
449.953141414246
 21
10734.912790362851
  0
LINE
  5
1B7
100
AcDbEntity
  8
1
  6
CONTINUOUS
 62
           3
100
AcDbLine
 10
449.953141414246
 20
10646.2131101781
 11
423.451542338002
 21
10684.912790362851
  0
LINE
  5
1B6
100
AcDbEntity
  8
1
  6
CONTINUOUS
 62
           3
100
AcDbLine
 10
397.352501783749
 20
10658.813749808591
 11
418.702341876124
 21
10644.1933472686
  0
LINE
  5
1B5
100
AcDbEntity
  8
1
  6
CONTINUOUS
 62
           3
100
AcDbLine
 10
347.352501783748
 20
10632.31215073235
 11
361.702341876124
 21
10642.13894276579
  0
LINE
  5
1B4
100
AcDbEntity
  8
1
  6
CONTINUOUS
 62
           3
100
AcDbLine
 10
359.953141414246
 20
10684.912790362851
 11
333.451542338002
 21
10646.2131101781
  0
LINE
  5
1B3
100
AcDbEntity
  8
1
  6
CONTINUOUS
 62
           3
100
AcDbLine
 10
333.451542338002
 20
10734.912790362851
 11
359.953141414246
 21
10696.2131101781
  0
LINE
  5
1B2
100
AcDbEntity
  8
1
  6
CONTINUOUS
 62
           3
100
AcDbLine
 10
386.052181968499
 20
10722.31215073235
 11
364.702341876124
 21
10736.93255327234
  0
LINE
  5
1B1
100
AcDbEntity
  8
1
  6
CONTINUOUS
 62
           3
100
AcDbLine
 10
436.052181968501
 20
10748.813749808591
 11
421.702341876124
 21
10738.986957775151
  0
LINE
  5
1B0
100
AcDbEntity
  8
1
  6
DOTTED
 62
           1
100
AcDbLine
 10
586.156997501153
 20
10680.562950270471
 11
596.156997501153
 21
10680.562950270471
  0
LINE
  5
1AF
100
AcDbEntity
  8
1
  6
CONTINUOUS
 62
           3
100
AcDbLine
 10
596.156997501153
 20
10690.062950270471
 11
596.156997501153
 21
10657.562950270471
  0
LINE
  5
1AE
100
AcDbEntity
  8
1
  6
CONTINUOUS
 62
           3
100
AcDbLine
 10
586.156997501153
 20
10680.562950270471
 11
578.15878197494
 21
10680.562950270471
  0
LINE
  5
1AD
100
AcDbEntity
  8
1
  6
CONTINUOUS
 62
           3
100
AcDbLine
 10
586.556997501153
 20
10691.062950270471
 11
595.756997501153
 21
10691.062950270471
  0
LINE
  5
1AC
100
AcDbEntity
  8
1
  6
CONTINUOUS
 62
           3
100
AcDbLine
 10
586.156997501153
 20
10657.562950270471
 11
586.156997501153
 21
10690.062950270471
  0
LINE
  5
1AB
100
AcDbEntity
  8
1
  6
CONTINUOUS
 62
           3
100
AcDbLine
 10
586.656997501153
 20
10690.562950270471
 11
595.656997501153
 21
10690.562950270471
  0
LINE
  5
1AA
100
AcDbEntity
  8
1
  6
DOTTED
 62
           1
100
AcDbLine
 10
586.156997501153
 20
10660.562950270471
 11
596.156997501153
 21
10660.562950270471
  0
LINE
  5
1A9
100
AcDbEntity
  8
1
  6
CONTINUOUS
 62
           3
100
AcDbLine
 10
586.656997501153
 20
10657.062950270471
 11
595.656997501153
 21
10657.062950270471
  0
LINE
  5
1A8
100
AcDbEntity
  8
1
  6
CONTINUOUS
 62
           3
100
AcDbLine
 10
586.056997501153
 20
10680.562950270471
 11
586.056997501153
 21
10690.562950270471
  0
LINE
  5
1A7
100
AcDbEntity
  8
1
  6
CONTINUOUS
 62
           3
100
AcDbLine
 10
596.256997501153
 20
10690.562950270471
 11
596.256997501153
 21
10680.562950270471
  0
LINE
  5
1A6
100
AcDbEntity
  8
1
  6
DOT_CENTER
 62
           1
100
AcDbLine
 10
539.156997501153
 20
10661.44612486784
 11
539.156997501153
 21
10718.520407765331
  0
LINE
  5
1A5
100
AcDbEntity
  8
1
  6
CONTINUOUS
 62
           3
100
AcDbLine
 10
531.156997501153
 20
10711.562950270471
 11
552.477505576842
 21
10711.562950270471
  0
LINE
  5
1A4
100
AcDbEntity
  8
1
  6
DOT_CENTER
 62
           1
100
AcDbLine
 10
711.156997501153
 20
10889.744153049551
 11
711.156997501153
 21
10925.02415304955
  0
LINE
  5
1A3
100
AcDbEntity
  8
1
  6
CONTINUOUS
 62
           3
100
AcDbLine
 10
711.156997501153
 20
10916.31313205366
 11
786.615867910169
 21
10916.31313205366
  0
LINE
  5
1A2
100
AcDbEntity
  8
1
  6
CONTINUOUS
 62
           3
100
AcDbLine
 10
476.156997501153
 20
10893.81313205366
 11
476.156997501153
 21
10900.81313205366
  0
LINE
  5
1A1
100
AcDbEntity
  8
1
  6
DOTTED
 62
           1
100
AcDbLine
 10
478.156997501153
 20
10854.713132053659
 11
476.156997501153
 21
10854.713132053659
  0
LINE
  5
1A0
100
AcDbEntity
  8
1
  6
DOTTED
 62
           1
100
AcDbLine
 10
478.156997501153
 20
10859.91313205366
 11
476.156997501153
 21
10859.91313205366
  0
LINE
  5
19F
100
AcDbEntity
  8
1
  6
DOT_CENTER
 62
           1
100
AcDbLine
 10
486.923045269591
 20
10857.31313205366
 11
470.383045269591
 21
10857.31313205366
  0
LINE
  5
19E
100
AcDbEntity
  8
1
  6
DOT_CENTER
 62
           1
100
AcDbLine
 10
470.383045269591
 20
10957.31313205366
 11
486.923045269591
 21
10957.31313205366
  0
LINE
  5
19D
100
AcDbEntity
  8
1
  6
DOTTED
 62
           1
100
AcDbLine
 10
476.156997501153
 20
10954.713132053659
 11
478.156997501153
 21
10954.713132053659
  0
LINE
  5
19C
100
AcDbEntity
  8
1
  6
DOTTED
 62
           1
100
AcDbLine
 10
476.156997501153
 20
10959.91313205366
 11
478.156997501153
 21
10959.91313205366
  0
LINE
  5
19B
100
AcDbEntity
  8
1
  6
CONTINUOUS
 62
           3
100
AcDbLine
 10
478.156997501153
 20
10842.31313205366
 11
476.156997501153
 21
10842.31313205366
  0
LINE
  5
19A
100
AcDbEntity
  8
1
  6
CONTINUOUS
 62
           3
100
AcDbLine
 10
476.156997501153
 20
10842.31313205366
 11
476.156997501153
 21
10972.31313205366
  0
LINE
  5
199
100
AcDbEntity
  8
1
  6
CONTINUOUS
 62
           3
100
AcDbLine
 10
476.156997501153
 20
10972.31313205366
 11
478.156997501153
 21
10972.31313205366
  0
LINE
  5
198
100
AcDbEntity
  8
1
  6
CONTINUOUS
 62
           3
100
AcDbLine
 10
478.156997501153
 20
10972.31313205366
 11
478.156997501153
 21
10842.31313205366
  0
LINE
  5
197
100
AcDbEntity
  8
1
  6
DOT_CENTER
 62
           1
100
AcDbLine
 10
539.156997501153
 20
10928.56614181391
 11
539.156997501153
 21
10916.31313205366
  0
LINE
  5
196
100
AcDbEntity
  8
1
  6
CONTINUOUS
 62
           3
100
AcDbLine
 10
528.156997501153
 20
10900.31313205366
 11
528.156997501153
 21
10899.31313205366
  0
LINE
  5
195
100
AcDbEntity
  8
1
  6
CONTINUOUS
 62
           3
100
AcDbLine
 10
523.156997501153
 20
10912.31313205366
 11
527.656997501153
 21
10912.31313205366
  0
LINE
  5
194
100
AcDbEntity
  8
1
  6
CONTINUOUS
 62
           3
100
AcDbLine
 10
490.656997501153
 20
10902.31313205366
 11
490.656997501153
 21
10912.31313205366
  0
LINE
  5
193
100
AcDbEntity
  8
1
  6
CONTINUOUS
 62
           3
100
AcDbLine
 10
493.156997501153
 20
10902.31313205366
 11
490.656997501153
 21
10902.31313205366
  0
LINE
  5
192
100
AcDbEntity
  8
1
  6
CONTINUOUS
 62
           3
100
AcDbLine
 10
528.156997501153
 20
10911.81313205366
 11
528.156997501153
 21
10903.14155917841
  0
LINE
  5
191
100
AcDbEntity
  8
1
  6
CONTINUOUS
 62
           3
100
AcDbLine
 10
528.156997501153
 20
10915.31313205366
 11
528.156997501153
 21
10914.31313205366
  0
LINE
  5
190
100
AcDbEntity
  8
1
  6
CONTINUOUS
 62
           3
100
AcDbLine
 10
523.156997501153
 20
10902.31313205366
 11
523.156997501153
 21
10901.31313205366
  0
LINE
  5
18F
100
AcDbEntity
  8
1
  6
CONTINUOUS
 62
           3
100
AcDbLine
 10
527.656997501153
 20
10902.31313205366
 11
523.156997501153
 21
10902.31313205366
  0
LINE
  5
18E
100
AcDbEntity
  8
1
  6
CONTINUOUS
 62
           3
100
AcDbLine
 10
493.156997501153
 20
10912.31313205366
 11
523.156997501153
 21
10912.31313205366
  0
LINE
  5
18D
100
AcDbEntity
  8
1
  6
CONTINUOUS
 62
           3
100
AcDbLine
 10
493.156997501153
 20
10902.31313205366
 11
493.156997501153
 21
10901.31313205366
  0
LINE
  5
18C
100
AcDbEntity
  8
1
  6
CONTINUOUS
 62
           3
100
AcDbLine
 10
523.156997501153
 20
10902.31313205366
 11
493.156997501153
 21
10902.31313205366
  0
LINE
  5
18B
100
AcDbEntity
  8
1
  6
CONTINUOUS
 62
           3
100
AcDbLine
 10
490.656997501153
 20
10912.31313205366
 11
493.156997501153
 21
10912.31313205366
  0
LINE
  5
18A
100
AcDbEntity
  8
1
  6
CONTINUOUS
 62
           3
100
AcDbLine
 10
476.156997501153
 20
10625.562950270471
 11
476.156997501153
 21
10755.562950270471
  0
LINE
  5
189
100
AcDbEntity
  8
1
  6
CONTINUOUS
 62
           3
100
AcDbLine
 10
528.156997501153
 20
10674.562950270471
 11
528.156997501153
 21
10678.562950270471
  0
LINE
  5
188
100
AcDbEntity
  8
1
  6
CONTINUOUS
 62
           3
100
AcDbLine
 10
526.656997501153
 20
10708.062950270471
 11
516.759322768196
 21
10708.062950270471
  0
LINE
  5
187
100
AcDbEntity
  8
1
  6
CONTINUOUS
 62
           3
100
AcDbLine
 10
526.656997501153
 20
10673.062950270471
 11
516.759322768196
 21
10673.062950270471
  0
LINE
  5
186
100
AcDbEntity
  8
1
  6
CONTINUOUS
 62
           3
100
AcDbLine
 10
528.656997501153
 20
10700.562950270471
 11
534.656997501153
 21
10700.562950270471
  0
LINE
  5
185
100
AcDbEntity
  8
1
  6
CONTINUOUS
 62
           3
100
AcDbLine
 10
528.156997501153
 20
10702.562950270471
 11
528.156997501153
 21
10706.562950270471
  0
LINE
  5
184
100
AcDbEntity
  8
1
  6
CONTINUOUS
 62
           3
100
AcDbLine
 10
528.156997501153
 20
10700.062950270471
 11
528.156997501153
 21
10681.062950270471
  0
LINE
  5
183
100
AcDbEntity
  8
1
  6
CONTINUOUS
 62
           3
100
AcDbLine
 10
534.656997501153
 20
10680.562950270471
 11
528.656997501153
 21
10680.562950270471
  0
LINE
  5
182
100
AcDbEntity
  8
1
  6
DOT_CENTER
 62
           1
100
AcDbLine
 10
508.156997501153
 20
10718.520407765331
 11
508.156997501153
 21
10661.44612486784
  0
LINE
  5
181
100
AcDbEntity
  8
1
  6
CONTINUOUS
 62
           3
100
AcDbLine
 10
478.156997501153
 20
10755.562950270471
 11
478.156997501153
 21
10708.062950270471
  0
LINE
  5
180
100
AcDbEntity
  8
1
  6
CONTINUOUS
 62
           3
100
AcDbLine
 10
478.156997501153
 20
10625.562950270471
 11
476.156997501153
 21
10625.562950270471
  0
LINE
  5
17F
100
AcDbEntity
  8
1
  6
CONTINUOUS
 62
           3
100
AcDbLine
 10
476.156997501153
 20
10755.562950270471
 11
478.156997501153
 21
10755.562950270471
  0
LINE
  5
17E
100
AcDbEntity
  8
1
  6
CONTINUOUS
 62
           3
100
AcDbLine
 10
478.156997501153
 20
10708.062950270471
 11
478.156997501153
 21
10673.062950270471
  0
LINE
  5
17D
100
AcDbEntity
  8
1
  6
CONTINUOUS
 62
           3
100
AcDbLine
 10
478.156997501153
 20
10673.062950270471
 11
478.156997501153
 21
10625.562950270471
  0
LINE
  5
17C
100
AcDbEntity
  8
1
  6
DOTTED
 62
           1
100
AcDbLine
 10
478.156997501153
 20
10637.96295027047
 11
476.156997501153
 21
10637.96295027047
  0
LINE
  5
17B
100
AcDbEntity
  8
1
  6
DOTTED
 62
           1
100
AcDbLine
 10
478.156997501153
 20
10643.162950270471
 11
476.156997501153
 21
10643.162950270471
  0
LINE
  5
17A
100
AcDbEntity
  8
1
  6
DOT_CENTER
 62
           1
100
AcDbLine
 10
486.923045269591
 20
10640.562950270471
 11
470.383045269591
 21
10640.562950270471
  0
LINE
  5
179
100
AcDbEntity
  8
1
  6
DOT_CENTER
 62
           1
100
AcDbLine
 10
470.383045269591
 20
10733.55768711258
 11
486.923045269591
 21
10733.55768711258
  0
LINE
  5
178
100
AcDbEntity
  8
1
  6
DOTTED
 62
           1
100
AcDbLine
 10
476.156997501153
 20
10730.957687112579
 11
478.156997501153
 21
10730.957687112579
  0
LINE
  5
177
100
AcDbEntity
  8
1
  6
DOTTED
 62
           1
100
AcDbLine
 10
476.156997501153
 20
10736.15768711258
 11
478.156997501153
 21
10736.15768711258
  0
LINE
  5
176
100
AcDbEntity
  8
1
  6
CONTINUOUS
 62
           3
100
AcDbLine
 10
894.155213027366
 20
10654.562950270471
 11
894.155213027366
 21
10726.562950270471
  0
LINE
  5
175
100
AcDbEntity
  8
1
  6
CONTINUOUS
 62
           3
100
AcDbLine
 10
874.155213027366
 20
10700.562950270471
 11
892.156997501153
 21
10700.562950270471
  0
LINE
  5
174
100
AcDbEntity
  8
1
  6
CONTINUOUS
 62
           3
100
AcDbLine
 10
892.655213027366
 20
10680.562950270471
 11
892.156997501153
 21
10680.562950270471
  0
LINE
  5
173
100
AcDbEntity
  8
1
  6
CONTINUOUS
 62
           3
100
AcDbLine
 10
874.155213027366
 20
10681.062950270471
 11
874.155213027366
 21
10700.062950270471
  0
LINE
  5
172
100
AcDbEntity
  8
1
  6
CONTINUOUS
 62
           3
100
AcDbLine
 10
703.156997501153
 20
10711.562950270471
 11
891.156997501153
 21
10711.562950270471
  0
LINE
  5
171
100
AcDbEntity
  8
1
  6
CONTINUOUS
 62
           3
100
AcDbLine
 10
892.156997501153
 20
10710.562950270471
 11
892.156997501153
 21
10702.562950270471
  0
LINE
  5
170
100
AcDbEntity
  8
1
  6
CONTINUOUS
 62
           3
100
AcDbLine
 10
892.156997501153
 20
10701.562950270471
 11
874.155213027366
 21
10701.562950270471
  0
LINE
  5
16F
100
AcDbEntity
  8
1
  6
CONTINUOUS
 62
           3
100
AcDbLine
 10
703.156997501153
 20
10679.562950270471
 11
874.155213027366
 21
10679.562950270471
  0
LINE
  5
16E
100
AcDbEntity
  8
1
  6
CONTINUOUS
 62
           3
100
AcDbLine
 10
892.156997501153
 20
10678.562950270471
 11
892.156997501153
 21
10670.562950270471
  0
LINE
  5
16D
100
AcDbEntity
  8
1
  6
DOT_CENTER
 62
           1
100
AcDbLine
 10
883.156997501153
 20
10718.520407765331
 11
883.156997501153
 21
10661.44612486784
  0
LINE
  5
16C
100
AcDbEntity
  8
1
  6
CONTINUOUS
 62
           3
100
AcDbLine
 10
892.156997501153
 20
10701.562950270471
 11
892.156997501153
 21
10700.562950270471
  0
LINE
  5
16B
100
AcDbEntity
  8
1
  6
CONTINUOUS
 62
           3
100
AcDbLine
 10
874.155213027366
 20
10701.562950270471
 11
874.155213027366
 21
10700.562950270471
  0
LINE
  5
16A
100
AcDbEntity
  8
1
  6
CONTINUOUS
 62
           3
100
AcDbLine
 10
874.155213027366
 20
10680.562950270471
 11
874.155213027366
 21
10679.562950270471
  0
LINE
  5
169
100
AcDbEntity
  8
1
  6
CONTINUOUS
 62
           3
100
AcDbLine
 10
892.156997501153
 20
10680.562950270471
 11
892.156997501153
 21
10679.562950270471
  0
LINE
  5
168
100
AcDbEntity
  8
1
  6
CONTINUOUS
 62
           3
100
AcDbLine
 10
892.156997501153
 20
10700.562950270471
 11
892.655213027366
 21
10700.562950270471
  0
LINE
  5
167
100
AcDbEntity
  8
1
  6
CONTINUOUS
 62
           3
100
AcDbLine
 10
874.155213027366
 20
10679.562950270471
 11
892.156997501153
 21
10679.562950270471
  0
LINE
  5
166
100
AcDbEntity
  8
1
  6
CONTINUOUS
 62
           3
100
AcDbLine
 10
892.156997501153
 20
10680.562950270471
 11
874.155213027366
 21
10680.562950270471
  0
LINE
  5
165
100
AcDbEntity
  8
1
  6
CONTINUOUS
 62
           3
100
AcDbLine
 10
895.655213027366
 20
10728.062950270471
 11
897.155213027366
 21
10728.062950270471
  0
LINE
  5
164
100
AcDbEntity
  8
1
  6
DOTTED
 62
           1
100
AcDbLine
 10
904.155213027366
 20
10653.062950270471
 11
897.155213027366
 21
10653.062950270471
  0
LINE
  5
163
100
AcDbEntity
  8
1
  6
CONTINUOUS
 62
           3
100
AcDbLine
 10
702.156997501153
 20
10679.562950270471
 11
720.15878197494
 21
10679.562950270471
  0
LINE
  5
162
100
AcDbEntity
  8
1
  6
CONTINUOUS
 62
           3
100
AcDbLine
 10
702.156997501153
 20
10679.562950270471
 11
702.156997501153
 21
10680.562950270471
  0
LINE
  5
161
100
AcDbEntity
  8
1
  6
CONTINUOUS
 62
           3
100
AcDbLine
 10
720.15878197494
 20
10679.562950270471
 11
720.15878197494
 21
10680.562950270471
  0
LINE
  5
160
100
AcDbEntity
  8
1
  6
CONTINUOUS
 62
           3
100
AcDbLine
 10
720.15878197494
 20
10700.562950270471
 11
720.15878197494
 21
10701.562950270471
  0
LINE
  5
15F
100
AcDbEntity
  8
1
  6
CONTINUOUS
 62
           3
100
AcDbLine
 10
702.156997501153
 20
10700.562950270471
 11
702.156997501153
 21
10701.562950270471
  0
LINE
  5
15E
100
AcDbEntity
  8
1
  6
DOT_CENTER
 62
           1
100
AcDbLine
 10
711.156997501153
 20
10661.44612486784
 11
711.156997501153
 21
10718.520407765331
  0
LINE
  5
15D
100
AcDbEntity
  8
1
  6
CONTINUOUS
 62
           3
100
AcDbLine
 10
702.156997501153
 20
10670.562950270471
 11
702.156997501153
 21
10678.562950270471
  0
LINE
  5
15C
100
AcDbEntity
  8
1
  6
CONTINUOUS
 62
           3
100
AcDbLine
 10
720.15878197494
 20
10701.562950270471
 11
702.156997501153
 21
10701.562950270471
  0
LINE
  5
15B
100
AcDbEntity
  8
1
  6
CONTINUOUS
 62
           3
100
AcDbLine
 10
702.156997501153
 20
10702.562950270471
 11
702.156997501153
 21
10710.562950270471
  0
LINE
  5
15A
100
AcDbEntity
  8
1
  6
CONTINUOUS
 62
           3
100
AcDbLine
 10
720.15878197494
 20
10700.062950270471
 11
720.15878197494
 21
10681.062950270471
  0
LINE
  5
159
100
AcDbEntity
  8
1
  6
CONTINUOUS
 62
           3
100
AcDbLine
 10
530.156997501153
 20
10700.562950270471
 11
548.15878197494
 21
10700.562950270471
  0
LINE
  5
158
100
AcDbEntity
  8
1
  6
CONTINUOUS
 62
           3
100
AcDbLine
 10
530.156997501153
 20
10680.562950270471
 11
529.65878197494
 21
10680.562950270471
  0
LINE
  5
157
100
AcDbEntity
  8
1
  6
CONTINUOUS
 62
           3
100
AcDbLine
 10
548.15878197494
 20
10700.062950270471
 11
548.15878197494
 21
10681.062950270471
  0
LINE
  5
156
100
AcDbEntity
  8
1
  6
CONTINUOUS
 62
           3
100
AcDbLine
 10
530.156997501153
 20
10702.562950270471
 11
530.156997501153
 21
10710.562950270471
  0
LINE
  5
155
100
AcDbEntity
  8
1
  6
CONTINUOUS
 62
           3
100
AcDbLine
 10
549.15878197494
 20
10701.562950270471
 11
530.156997501153
 21
10701.562950270471
  0
LINE
  5
154
100
AcDbEntity
  8
1
  6
CONTINUOUS
 62
           3
100
AcDbLine
 10
530.156997501153
 20
10670.562950270471
 11
530.156997501153
 21
10678.562950270471
  0
LINE
  5
153
100
AcDbEntity
  8
1
  6
CONTINUOUS
 62
           3
100
AcDbLine
 10
530.156997501153
 20
10700.562950270471
 11
530.156997501153
 21
10701.562950270471
  0
LINE
  5
152
100
AcDbEntity
  8
1
  6
CONTINUOUS
 62
           3
100
AcDbLine
 10
548.15878197494
 20
10700.562950270471
 11
548.15878197494
 21
10701.562950270471
  0
LINE
  5
151
100
AcDbEntity
  8
1
  6
CONTINUOUS
 62
           3
100
AcDbLine
 10
548.15878197494
 20
10679.562950270471
 11
548.15878197494
 21
10680.562950270471
  0
LINE
  5
150
100
AcDbEntity
  8
1
  6
CONTINUOUS
 62
           3
100
AcDbLine
 10
530.156997501153
 20
10679.562950270471
 11
530.156997501153
 21
10680.562950270471
  0
LINE
  5
14F
100
AcDbEntity
  8
1
  6
CONTINUOUS
 62
           3
100
AcDbLine
 10
529.65878197494
 20
10700.562950270471
 11
530.156997501153
 21
10700.562950270471
  0
LINE
  5
14E
100
AcDbEntity
  8
1
  6
CONTINUOUS
 62
           3
100
AcDbLine
 10
530.156997501153
 20
10679.562950270471
 11
549.15878197494
 21
10679.562950270471
  0
LINE
  5
14D
100
AcDbEntity
  8
1
  6
CONTINUOUS
 62
           3
100
AcDbLine
 10
548.15878197494
 20
10680.562950270471
 11
530.156997501153
 21
10680.562950270471
  0
LINE
  5
14C
100
AcDbEntity
  8
1
  6
CONTINUOUS
 62
           3
100
AcDbLine
 10
550.15878197494
 20
10700.562950270471
 11
550.15878197494
 21
10680.562950270471
  0
LINE
  5
14B
100
AcDbEntity
  8
1
  6
CONTINUOUS
 62
           3
100
AcDbLine
 10
557.477505576842
 20
10710.22320430832
 11
571.889048308722
 21
10701.90269623263
  0
LINE
  5
14A
100
AcDbEntity
  8
1
  6
CONTINUOUS
 62
           3
100
AcDbLine
 10
576.889048308722
 20
10700.562950270471
 11
720.15878197494
 21
10700.562950270471
  0
LINE
  5
149
100
AcDbEntity
  8
1
  6
CONTINUOUS
 62
           3
100
AcDbLine
 10
720.15878197494
 20
10680.562950270471
 11
702.156997501153
 21
10680.562950270471
  0
LINE
  5
148
100
AcDbEntity
  8
1
  6
CONTINUOUS
 62
           3
100
AcDbLine
 10
528.156997501153
 20
10911.81313205366
 11
528.156997501153
 21
10902.81313205366
  0
LINE
  5
147
100
AcDbEntity
  8
1
  6
CONTINUOUS
 62
           3
100
AcDbLine
 10
555.156997501153
 20
10915.31313205366
 11
555.156997501153
 21
10899.31313205366
  0
LINE
  5
146
100
AcDbEntity
  8
1
  6
CONTINUOUS
 62
           3
100
AcDbLine
 10
574.20955638441
 20
10915.31313205366
 11
574.20955638441
 21
10899.31313205366
  0
LINE
  5
145
100
AcDbEntity
  8
1
  6
CONTINUOUS
 62
           3
100
AcDbLine
 10
702.156997501153
 20
10680.562950270471
 11
596.156997501153
 21
10680.562950270471
  0
LINE
  5
144
100
AcDbEntity
  8
1
  6
CONTINUOUS
 62
           3
100
AcDbLine
 10
792.156997501153
 20
10698.562950270471
 11
792.156997501153
 21
10682.562950270471
  0
LINE
  5
143
100
AcDbEntity
  8
1
  6
CONTINUOUS
 62
           3
100
AcDbLine
 10
874.155213027366
 20
10701.562950270471
 11
703.156997501153
 21
10701.562950270471
  0
LINE
  5
142
100
AcDbEntity
  8
1
  6
CONTINUOUS
 62
           3
100
AcDbLine
 10
802.156997501153
 20
10698.562950270471
 11
802.156997501153
 21
10682.562950270471
  0
LINE
  5
141
100
AcDbEntity
  8
1
  6
CONTINUOUS
 62
           3
100
AcDbLine
 10
722.156997501153
 20
10679.562950270471
 11
723.156997501153
 21
10679.562950270471
  0
LINE
  5
140
100
AcDbEntity
  8
1
  6
CONTINUOUS
 62
           3
100
AcDbLine
 10
868.156997501153
 20
10682.562950270471
 11
868.156997501153
 21
10698.562950270471
  0
LINE
  5
13F
100
AcDbEntity
  8
1
  6
CONTINUOUS
 62
           3
100
AcDbLine
 10
858.156997501153
 20
10682.562950270471
 11
858.156997501153
 21
10698.562950270471
  0
LINE
  5
13E
100
AcDbEntity
  8
1
  6
CONTINUOUS
 62
           3
100
AcDbLine
 10
854.156997501153
 20
10679.562950270471
 11
855.156997501153
 21
10679.562950270471
  0
LINE
  5
13D
100
AcDbEntity
  8
1
  6
CONTINUOUS
 62
           3
100
AcDbLine
 10
871.156997501153
 20
10679.562950270471
 11
872.156997501153
 21
10679.562950270471
  0
LINE
  5
13C
100
AcDbEntity
  8
1
  6
CONTINUOUS
 62
           3
100
AcDbLine
 10
786.615867910169
 20
10898.31313205366
 11
711.156997501153
 21
10898.31313205366
  0
LINE
  5
13B
100
AcDbEntity
  8
1
  6
CONTINUOUS
 62
           3
100
AcDbLine
 10
531.156997501153
 20
10669.562950270471
 11
552.477505576842
 21
10669.562950270471
  0
LINE
  5
13A
100
AcDbEntity
  8
1
  6
DOT_CENTER
 62
           1
100
AcDbLine
 10
539.156997501153
 20
10916.31313205366
 11
539.156997501153
 21
10898.31313205366
  0
LINE
  5
139
100
AcDbEntity
  8
1
  6
DOT_CENTER
 62
           1
100
AcDbLine
 10
539.156997501153
 20
10898.31313205366
 11
539.156997501153
 21
10886.73614181391
  0
LINE
  5
138
100
AcDbEntity
  8
1
  6
CONTINUOUS
 62
           3
100
AcDbLine
 10
578.15878197494
 20
10680.562950270471
 11
576.889048308722
 21
10680.562950270471
  0
LINE
  5
137
100
AcDbEntity
  8
1
  6
CONTINUOUS
 62
           3
100
AcDbLine
 10
868.156997501153
 20
10679.062950270471
 11
868.156997501153
 21
10669.562950270471
  0
LINE
  5
136
100
AcDbEntity
  8
1
  6
CONTINUOUS
 62
           3
100
AcDbLine
 10
858.156997501153
 20
10646.562950270471
 11
858.156997501153
 21
10669.562950270471
  0
LINE
  5
135
100
AcDbEntity
  8
1
  6
CONTINUOUS
 62
           3
100
AcDbLine
 10
858.656997501153
 20
10679.562950270471
 11
867.656997501153
 21
10679.562950270471
  0
LINE
  5
134
100
AcDbEntity
  8
1
  6
CONTINUOUS
 62
           3
100
AcDbLine
 10
858.156997501153
 20
10669.562950270471
 11
858.156997501153
 21
10679.062950270471
  0
LINE
  5
133
100
AcDbEntity
  8
1
  6
CONTINUOUS
 62
           3
100
AcDbLine
 10
868.156997501153
 20
10669.562950270471
 11
868.156997501153
 21
10646.562950270471
  0
LINE
  5
132
100
AcDbEntity
  8
1
  6
DOTTED
 62
           1
100
AcDbLine
 10
858.156997501153
 20
10669.562950270471
 11
868.156997501153
 21
10669.562950270471
  0
LINE
  5
131
100
AcDbEntity
  8
1
  6
DOTTED
 62
           1
100
AcDbLine
 10
858.156997501153
 20
10649.562950270471
 11
868.156997501153
 21
10649.562950270471
  0
LINE
  5
130
100
AcDbEntity
  8
1
  6
CONTINUOUS
 62
           3
100
AcDbLine
 10
858.656997501153
 20
10646.062950270471
 11
867.656997501153
 21
10646.062950270471
  0
LINE
  5
12F
100
AcDbEntity
  8
1
  6
CONTINUOUS
 62
           3
100
AcDbLine
 10
858.056997501153
 20
10669.562950270471
 11
858.056997501153
 21
10679.562950270471
  0
LINE
  5
12E
100
AcDbEntity
  8
1
  6
CONTINUOUS
 62
           3
100
AcDbLine
 10
868.256997501153
 20
10679.562950270471
 11
868.256997501153
 21
10669.562950270471
  0
LINE
  5
12D
100
AcDbEntity
  8
1
  6
CONTINUOUS
 62
           3
100
AcDbLine
 10
891.156997501153
 20
10669.562950270471
 11
868.156997501153
 21
10669.562950270471
  0
LINE
  5
12C
100
AcDbEntity
  8
1
  6
CONTINUOUS
 62
           3
100
AcDbLine
 10
858.156997501153
 20
10669.562950270471
 11
736.156997501153
 21
10669.562950270471
  0
LINE
  5
12B
100
AcDbEntity
  8
1
  6
CONTINUOUS
 62
           3
100
AcDbLine
 10
554.156997501153
 20
10669.562950270471
 11
552.887263834935
 21
10669.562950270471
  0
LINE
  5
12A
100
AcDbEntity
  8
1
  6
CONTINUOUS
 62
           3
100
AcDbLine
 10
557.477505576839
 20
10670.90269623263
 11
571.889048308722
 21
10679.22320430831
  0
LINE
  5
129
100
AcDbEntity
  8
1
  6
CONTINUOUS
 62
           3
100
AcDbLine
 10
736.256997501153
 20
10679.562950270471
 11
736.256997501153
 21
10669.562950270471
  0
LINE
  5
128
100
AcDbEntity
  8
1
  6
CONTINUOUS
 62
           3
100
AcDbLine
 10
726.056997501153
 20
10669.562950270471
 11
726.056997501153
 21
10679.562950270471
  0
LINE
  5
127
100
AcDbEntity
  8
1
  6
CONTINUOUS
 62
           3
100
AcDbLine
 10
726.656997501153
 20
10646.062950270471
 11
735.656997501153
 21
10646.062950270471
  0
LINE
  5
126
100
AcDbEntity
  8
1
  6
DOTTED
 62
           1
100
AcDbLine
 10
726.156997501153
 20
10649.562950270471
 11
736.156997501153
 21
10649.562950270471
  0
LINE
  5
125
100
AcDbEntity
  8
1
  6
DOTTED
 62
           1
100
AcDbLine
 10
726.156997501153
 20
10669.562950270471
 11
736.156997501153
 21
10669.562950270471
  0
LINE
  5
124
100
AcDbEntity
  8
1
  6
CONTINUOUS
 62
           3
100
AcDbLine
 10
736.156997501153
 20
10669.562950270471
 11
736.156997501153
 21
10646.562950270471
  0
LINE
  5
123
100
AcDbEntity
  8
1
  6
CONTINUOUS
 62
           3
100
AcDbLine
 10
726.156997501153
 20
10669.562950270471
 11
726.156997501153
 21
10679.062950270471
  0
LINE
  5
122
100
AcDbEntity
  8
1
  6
CONTINUOUS
 62
           3
100
AcDbLine
 10
726.656997501153
 20
10679.562950270471
 11
735.656997501153
 21
10679.562950270471
  0
LINE
  5
121
100
AcDbEntity
  8
1
  6
CONTINUOUS
 62
           3
100
AcDbLine
 10
726.156997501153
 20
10646.562950270471
 11
726.156997501153
 21
10669.562950270471
  0
LINE
  5
120
100
AcDbEntity
  8
1
  6
CONTINUOUS
 62
           3
100
AcDbLine
 10
736.156997501153
 20
10679.062950270471
 11
736.156997501153
 21
10669.562950270471
  0
LINE
  5
11F
100
AcDbEntity
  8
1
  6
CONTINUOUS
 62
           3
100
AcDbLine
 10
726.156997501153
 20
10669.562950270471
 11
703.156997501153
 21
10669.562950270471
  0
LINE
  5
11E
100
AcDbEntity
  8
1
  6
DOTTED
 62
           1
100
AcDbLine
 10
586.156997501153
 20
10916.31313205366
 11
586.156997501153
 21
10913.81313205366
  0
LINE
  5
11D
100
AcDbEntity
  8
1
  6
DOTTED
 62
           1
100
AcDbLine
 10
596.156997501153
 20
10916.31313205366
 11
596.156997501153
 21
10913.81313205366
  0
LINE
  5
11C
100
AcDbEntity
  8
1
  6
CONTINUOUS
 62
           3
100
AcDbLine
 10
529.156997501153
 20
10916.31313205366
 11
711.156997501153
 21
10916.31313205366
  0
LINE
  5
11B
100
AcDbEntity
  8
1
  6
CONTINUOUS
 62
           3
100
AcDbLine
 10
529.156997501153
 20
10898.31313205366
 11
711.156997501153
 21
10898.31313205366
  0
LINE
  5
11A
100
AcDbEntity
  8
1
  6
DOTTED
 62
           1
100
AcDbLine
 10
586.156997501153
 20
10913.81313205366
 11
596.156997501153
 21
10913.81313205366
  0
LINE
  5
119
100
AcDbEntity
  8
1
  6
DOTTED
 62
           1
100
AcDbLine
 10
586.156997501153
 20
10913.81313205366
 11
586.156997501153
 21
10912.81313205366
  0
LINE
  5
118
100
AcDbEntity
  8
1
  6
DOTTED
 62
           1
100
AcDbLine
 10
596.156997501153
 20
10913.81313205366
 11
596.156997501153
 21
10912.81313205366
  0
LINE
  5
117
100
AcDbEntity
  8
1
  6
DOTTED
 62
           1
100
AcDbLine
 10
586.156997501153
 20
10912.81313205366
 11
596.156997501153
 21
10912.81313205366
  0
LINE
  5
116
100
AcDbEntity
  8
1
  6
DOTTED
 62
           1
100
AcDbLine
 10
586.156997501153
 20
10912.81313205366
 11
586.156997501153
 21
10901.81313205366
  0
LINE
  5
115
100
AcDbEntity
  8
1
  6
DOTTED
 62
           1
100
AcDbLine
 10
596.156997501153
 20
10912.81313205366
 11
596.156997501153
 21
10901.81313205366
  0
LINE
  5
114
100
AcDbEntity
  8
1
  6
DOTTED
 62
           1
100
AcDbLine
 10
586.156997501153
 20
10901.81313205366
 11
596.156997501153
 21
10901.81313205366
  0
LINE
  5
113
100
AcDbEntity
  8
1
  6
DOTTED
 62
           1
100
AcDbLine
 10
586.156997501153
 20
10901.81313205366
 11
586.156997501153
 21
10900.81313205366
  0
LINE
  5
112
100
AcDbEntity
  8
1
  6
DOTTED
 62
           1
100
AcDbLine
 10
596.156997501153
 20
10901.81313205366
 11
596.156997501153
 21
10900.81313205366
  0
LINE
  5
111
100
AcDbEntity
  8
1
  6
DOTTED
 62
           1
100
AcDbLine
 10
586.156997501153
 20
10900.81313205366
 11
596.156997501153
 21
10900.81313205366
  0
LINE
  5
110
100
AcDbEntity
  8
1
  6
DOTTED
 62
           1
100
AcDbLine
 10
586.156997501153
 20
10900.81313205366
 11
586.156997501153
 21
10898.31313205366
  0
LINE
  5
10F
100
AcDbEntity
  8
1
  6
DOTTED
 62
           1
100
AcDbLine
 10
596.156997501153
 20
10900.81313205366
 11
596.156997501153
 21
10898.31313205366
  0
LINE
  5
10E
100
AcDbEntity
  8
1
  6
DOTTED
 62
           1
100
AcDbLine
 10
726.156997501153
 20
10916.31313205366
 11
726.156997501153
 21
10913.81313205366
  0
LINE
  5
10D
100
AcDbEntity
  8
1
  6
DOTTED
 62
           1
100
AcDbLine
 10
736.156997501153
 20
10916.31313205366
 11
736.156997501153
 21
10913.81313205366
  0
LINE
  5
10C
100
AcDbEntity
  8
1
  6
DOTTED
 62
           1
100
AcDbLine
 10
726.156997501153
 20
10913.81313205366
 11
736.156997501153
 21
10913.81313205366
  0
LINE
  5
10B
100
AcDbEntity
  8
1
  6
DOTTED
 62
           1
100
AcDbLine
 10
726.156997501153
 20
10913.81313205366
 11
726.156997501153
 21
10912.81313205366
  0
LINE
  5
10A
100
AcDbEntity
  8
1
  6
DOTTED
 62
           1
100
AcDbLine
 10
736.156997501153
 20
10913.81313205366
 11
736.156997501153
 21
10912.81313205366
  0
LINE
  5
109
100
AcDbEntity
  8
1
  6
DOTTED
 62
           1
100
AcDbLine
 10
726.156997501153
 20
10912.81313205366
 11
736.156997501153
 21
10912.81313205366
  0
LINE
  5
108
100
AcDbEntity
  8
1
  6
DOTTED
 62
           1
100
AcDbLine
 10
726.156997501153
 20
10912.81313205366
 11
726.156997501153
 21
10901.81313205366
  0
LINE
  5
107
100
AcDbEntity
  8
1
  6
DOTTED
 62
           1
100
AcDbLine
 10
736.156997501153
 20
10912.81313205366
 11
736.156997501153
 21
10901.81313205366
  0
LINE
  5
106
100
AcDbEntity
  8
1
  6
DOTTED
 62
           1
100
AcDbLine
 10
726.156997501153
 20
10901.81313205366
 11
736.156997501153
 21
10901.81313205366
  0
LINE
  5
105
100
AcDbEntity
  8
1
  6
DOTTED
 62
           1
100
AcDbLine
 10
726.156997501153
 20
10901.81313205366
 11
726.156997501153
 21
10900.81313205366
  0
LINE
  5
104
100
AcDbEntity
  8
1
  6
DOTTED
 62
           1
100
AcDbLine
 10
736.156997501153
 20
10901.81313205366
 11
736.156997501153
 21
10900.81313205366
  0
LINE
  5
103
100
AcDbEntity
  8
1
  6
DOTTED
 62
           1
100
AcDbLine
 10
726.156997501153
 20
10900.81313205366
 11
736.156997501153
 21
10900.81313205366
  0
LINE
  5
102
100
AcDbEntity
  8
1
  6
DOTTED
 62
           1
100
AcDbLine
 10
726.156997501153
 20
10900.81313205366
 11
726.156997501153
 21
10898.31313205366
  0
LINE
  5
101
100
AcDbEntity
  8
1
  6
DOTTED
 62
           1
100
AcDbLine
 10
736.156997501153
 20
10900.81313205366
 11
736.156997501153
 21
10898.31313205366
  0
LINE
  5
100
100
AcDbEntity
  8
1
  6
CONTINUOUS
 62
           1
100
AcDbLine
 10
869.662033035963
 20
10726.843350651559
 11
878.332033035963
 21
10726.843350651559
  0
LINE
  5
FF
100
AcDbEntity
  8
1
  6
PHANTOM
 62
           1
100
AcDbLine
 10
891.45915938871
 20
10898.0926471612
 11
892.12925350475
 21
10906.607000192111
  0
LINE
  5
FE
100
AcDbEntity
  8
1
  6
CONTINUOUS
 62
           3
100
AcDbLine
 10
895.655213027366
 20
10932.31313205366
 11
904.155213027366
 21
10932.31313205366
  0
LINE
  5
FD
100
AcDbEntity
  8
1
  6
PHANTOM
 62
           1
100
AcDbLine
 10
883.155213027366
 20
10916.31313205366
 11
889.155213027366
 21
10916.31313205366
  0
LINE
  5
FC
100
AcDbEntity
  8
1
  6
CONTINUOUS
 62
           3
100
AcDbLine
 10
904.155213027366
 20
10882.31313205366
 11
895.655213027366
 21
10882.31313205366
  0
LINE
  5
FB
100
AcDbEntity
  8
1
  6
PHANTOM
 62
           1
100
AcDbLine
 10
865.139324574371
 20
10908.01926391521
 11
869.662033035963
 21
10850.5528042402
  0
LINE
  5
FA
100
AcDbEntity
  8
1
  6
DOT_CENTER
 62
           1
100
AcDbLine
 10
882.636433131511
 20
10735.843350651559
 11
856.946692767143
 21
10735.843350651559
  0
LINE
  5
F9
100
AcDbEntity
  8
1
  6
DOT_CENTER
 62
           1
100
AcDbLine
 10
854.685103276055
 20
10926.143286500261
 11
870.641261457506
 21
10723.40107384395
  0
LINE
  5
F8
100
AcDbEntity
  8
1
  6
PHANTOM
 62
           1
100
AcDbLine
 10
860.689777032365
 20
10736.54948251311
 11
869.662033035963
 21
10850.5528042402
  0
LINE
  5
F7
100
AcDbEntity
  8
1
  6
PHANTOM
 62
           1
100
AcDbLine
 10
878.63428903956
 20
10735.137218790011
 11
891.43329531822
 21
10897.76401298625
  0
LINE
  5
F6
100
AcDbEntity
  8
1
  6
DOT_CENTER
 62
           1
100
AcDbLine
 10
868.68280461442
 20
10723.40107384395
 11
884.638962795871
 21
10926.143286500261
  0
LINE
  5
F5
100
AcDbEntity
  8
1
  6
PHANTOM
 62
           1
100
AcDbLine
 10
846.167068570774
 20
10898.31313205366
 11
847.624602996554
 21
10898.31313205366
  0
LINE
  5
F4
100
AcDbEntity
  8
1
  6
PHANTOM
 62
           1
100
AcDbLine
 10
846.167068570774
 20
10916.31313205366
 11
856.167068570773
 21
10916.31313205366
  0
LINE
  5
F3
100
AcDbEntity
  8
1
  6
PHANTOM
 62
           1
100
AcDbLine
 10
847.194812567175
 20
10906.607000192111
 11
860.689777032365
 21
10735.137218790011
  0
LINE
  5
F2
100
AcDbEntity
  8
1
  6
PHANTOM
 62
           1
100
AcDbLine
 10
869.662033035963
 20
10850.5528042402
 11
878.634289039561
 21
10736.54948251311
  0
LINE
  5
F1
100
AcDbEntity
  8
1
  6
PHANTOM
 62
           1
100
AcDbLine
 10
871.463267342774
 20
10873.439656120359
 11
874.184741497556
 21
10908.01926391521
  0
LINE
  5
F0
100
AcDbEntity
  8
1
  6
DOT_CENTER
 62
           1
100
AcDbLine
 10
869.662033035963
 20
10933.69206603537
 11
869.662033035963
 21
10717.197306998831
  0
LINE
  5
EF
100
AcDbEntity
  8
1
  6
CONTINUOUS
 62
           3
100
AcDbLine
 10
894.155213027366
 20
10930.81313205366
 11
894.155213027366
 21
10883.81313205366
  0
LINE
  5
EE
100
AcDbEntity
  8
1
  6
PHANTOM
 62
           1
100
AcDbLine
 10
891.43329531822
 20
10897.76401298625
 11
891.45915938871
 21
10898.0926471612
  0
LINE
  5
ED
100
AcDbEntity
  8
1
  6
CONTINUOUS
 62
           3
100
AcDbLine
 10
508.156997501153
 20
10671.062950270471
 11
480.156997501153
 21
10671.062950270471
  0
LINE
  5
EC
100
AcDbEntity
  8
1
  6
CONTINUOUS
 62
           3
100
AcDbLine
 10
480.156997501153
 20
10710.062950270471
 11
508.156997501153
 21
10710.062950270471
  0
LINE
  5
EB
100
AcDbEntity
  8
1
  6
CONTINUOUS
 62
           3
100
AcDbLine
 10
479.156997501153
 20
10672.062950270471
 11
479.156997501153
 21
10673.062950270471
  0
LINE
  5
EA
100
AcDbEntity
  8
1
  6
CONTINUOUS
 62
           3
100
AcDbLine
 10
525.656997501153
 20
10866.31313205366
 11
481.156997501153
 21
10866.31313205366
  0
LINE
  5
E9
100
AcDbEntity
  8
1
  6
CONTINUOUS
 62
           3
100
AcDbLine
 10
479.156997501153
 20
10868.31313205366
 11
479.156997501153
 21
10901.31313205366
  0
LINE
  5
E8
100
AcDbEntity
  8
1
  6
CONTINUOUS
 62
           3
100
AcDbLine
 10
479.156997501153
 20
10901.31313205366
 11
526.656997501153
 21
10901.31313205366
  0
LINE
  5
E7
100
AcDbEntity
  8
1
  6
CONTINUOUS
 62
           3
100
AcDbLine
 10
527.656997501153
 20
10900.31313205366
 11
527.656997501153
 21
10868.31313205366
  0
LINE
  5
E6
100
AcDbEntity
  8
1
  6
CONTINUOUS
 62
           3
100
AcDbLine
 10
481.156997501153
 20
10948.31313205366
 11
525.656997501153
 21
10948.31313205366
  0
LINE
  5
E5
100
AcDbEntity
  8
1
  6
CONTINUOUS
 62
           3
100
AcDbLine
 10
527.656997501153
 20
10946.31313205366
 11
527.656997501153
 21
10914.31313205366
  0
LINE
  5
E4
100
AcDbEntity
  8
1
  6
CONTINUOUS
 62
           3
100
AcDbLine
 10
479.156997501153
 20
10913.31313205366
 11
479.156997501153
 21
10946.31313205366
  0
LINE
  5
E3
100
AcDbEntity
  8
1
  6
CONTINUOUS
 62
           3
100
AcDbLine
 10
481.156997501153
 20
10913.31313205366
 11
481.156997501153
 21
10901.31313205366
  0
LINE
  5
E2
100
AcDbEntity
  8
1
  6
CONTINUOUS
 62
           3
100
AcDbLine
 10
526.656997501153
 20
10913.31313205366
 11
479.156997501153
 21
10913.31313205366
  0
LINE
  5
E1
100
AcDbEntity
  8
1
  6
CONTINUOUS
 62
           3
100
AcDbLine
 10
493.156997501153
 20
10913.31313205366
 11
493.156997501153
 21
10912.31313205366
  0
LINE
  5
E0
100
AcDbEntity
  8
1
  6
CONTINUOUS
 62
           3
100
AcDbLine
 10
523.156997501153
 20
10913.31313205366
 11
523.156997501153
 21
10912.31313205366
  0
LINE
  5
DF
100
AcDbEntity
  8
1
  6
CONTINUOUS
 62
           3
100
AcDbLine
 10
364.702341876124
 20
10783.062950270471
 11
361.702341876124
 21
10783.062950270471
  0
LINE
  5
DE
100
AcDbEntity
  8
1
  6
CONTINUOUS
 62
           3
100
AcDbLine
 10
418.702341876124
 20
10783.062950270471
 11
364.702341876124
 21
10783.062950270471
  0
LINE
  5
DD
100
AcDbEntity
  8
1
  6
DOT_CENTER
 62
           1
100
AcDbLine
 10
371.46044463507
 20
10635.562950270471
 11
411.219219586696
 21
10635.562950270471
  0
LINE
  5
DC
100
AcDbEntity
  8
1
  6
DOT_CENTER
 62
           1
100
AcDbLine
 10
371.46044463507
 20
10663.062950270471
 11
411.219219586696
 21
10663.062950270471
  0
LINE
  5
DB
100
AcDbEntity
  8
1
  6
DOT_CENTER
 62
           1
100
AcDbLine
 10
371.46044463507
 20
10718.062950270471
 11
411.219219586696
 21
10718.062950270471
  0
LINE
  5
DA
100
AcDbEntity
  8
1
  6
DOT_CENTER
 62
           1
100
AcDbLine
 10
371.46044463507
 20
10745.562950270471
 11
411.219219586696
 21
10745.562950270471
  0
LINE
  5
D9
100
AcDbEntity
  8
1
  6
PHANTOM
 62
           1
100
AcDbLine
 10
840.167068570774
 20
10913.31313205366
 11
840.167068570774
 21
10912.31313205366
  0
LINE
  5
D8
100
AcDbEntity
  8
1
  6
PHANTOM
 62
           1
100
AcDbLine
 10
810.167068570774
 20
10913.31313205366
 11
810.167068570774
 21
10912.31313205366
  0
LINE
  5
D7
100
AcDbEntity
  8
1
  6
PHANTOM
 62
           1
100
AcDbLine
 10
843.667068570773
 20
10913.31313205366
 11
796.167068570773
 21
10913.31313205366
  0
LINE
  5
D6
100
AcDbEntity
  8
1
  6
PHANTOM
 62
           1
100
AcDbLine
 10
798.167068570774
 20
10913.31313205366
 11
798.167068570774
 21
10901.31313205366
  0
LINE
  5
D5
100
AcDbEntity
  8
1
  6
PHANTOM
 62
           1
100
AcDbLine
 10
796.167068570773
 20
10913.31313205366
 11
796.167068570773
 21
10946.31313205366
  0
LINE
  5
D4
100
AcDbEntity
  8
1
  6
PHANTOM
 62
           1
100
AcDbLine
 10
844.667068570773
 20
10946.31313205366
 11
844.667068570773
 21
10914.31313205366
  0
LINE
  5
D3
100
AcDbEntity
  8
1
  6
PHANTOM
 62
           1
100
AcDbLine
 10
798.167068570773
 20
10948.31313205366
 11
842.667068570773
 21
10948.31313205366
  0
LINE
  5
D2
100
AcDbEntity
  8
1
  6
PHANTOM
 62
           1
100
AcDbLine
 10
844.667068570773
 20
10900.31313205366
 11
844.667068570773
 21
10868.31313205366
  0
LINE
  5
D1
100
AcDbEntity
  8
1
  6
PHANTOM
 62
           1
100
AcDbLine
 10
796.167068570773
 20
10901.31313205366
 11
843.667068570773
 21
10901.31313205366
  0
LINE
  5
D0
100
AcDbEntity
  8
1
  6
PHANTOM
 62
           1
100
AcDbLine
 10
796.167068570773
 20
10868.31313205366
 11
796.167068570773
 21
10901.31313205366
  0
LINE
  5
CF
100
AcDbEntity
  8
1
  6
PHANTOM
 62
           1
100
AcDbLine
 10
842.667068570773
 20
10866.31313205366
 11
798.167068570773
 21
10866.31313205366
  0
LINE
  5
CE
100
AcDbEntity
  8
1
  6
PHANTOM
 62
           1
100
AcDbLine
 10
845.167068570774
 20
10911.81313205366
 11
845.167068570774
 21
10902.81313205366
  0
LINE
  5
CD
100
AcDbEntity
  8
1
  6
PHANTOM
 62
           1
100
AcDbLine
 10
807.667068570774
 20
10912.31313205366
 11
810.167068570774
 21
10912.31313205366
  0
LINE
  5
CC
100
AcDbEntity
  8
1
  6
PHANTOM
 62
           1
100
AcDbLine
 10
840.167068570774
 20
10902.31313205366
 11
810.167068570774
 21
10902.31313205366
  0
LINE
  5
CB
100
AcDbEntity
  8
1
  6
PHANTOM
 62
           1
100
AcDbLine
 10
810.167068570774
 20
10902.31313205366
 11
810.167068570774
 21
10901.31313205366
  0
LINE
  5
CA
100
AcDbEntity
  8
1
  6
PHANTOM
 62
           1
100
AcDbLine
 10
810.167068570774
 20
10912.31313205366
 11
840.167068570774
 21
10912.31313205366
  0
LINE
  5
C9
100
AcDbEntity
  8
1
  6
PHANTOM
 62
           1
100
AcDbLine
 10
844.667068570774
 20
10902.31313205366
 11
840.167068570774
 21
10902.31313205366
  0
LINE
  5
C8
100
AcDbEntity
  8
1
  6
PHANTOM
 62
           1
100
AcDbLine
 10
840.167068570774
 20
10902.31313205366
 11
840.167068570774
 21
10901.31313205366
  0
LINE
  5
C7
100
AcDbEntity
  8
1
  6
PHANTOM
 62
           1
100
AcDbLine
 10
845.167068570774
 20
10915.31313205366
 11
845.167068570774
 21
10914.31313205366
  0
LINE
  5
C6
100
AcDbEntity
  8
1
  6
PHANTOM
 62
           1
100
AcDbLine
 10
845.167068570774
 20
10911.81313205366
 11
845.167068570774
 21
10903.14155917841
  0
LINE
  5
C5
100
AcDbEntity
  8
1
  6
PHANTOM
 62
           1
100
AcDbLine
 10
810.167068570774
 20
10902.31313205366
 11
807.667068570774
 21
10902.31313205366
  0
LINE
  5
C4
100
AcDbEntity
  8
1
  6
PHANTOM
 62
           1
100
AcDbLine
 10
807.667068570774
 20
10902.31313205366
 11
807.667068570774
 21
10912.31313205366
  0
LINE
  5
C3
100
AcDbEntity
  8
1
  6
PHANTOM
 62
           1
100
AcDbLine
 10
840.167068570774
 20
10912.31313205366
 11
844.667068570774
 21
10912.31313205366
  0
LINE
  5
C2
100
AcDbEntity
  8
1
  6
PHANTOM
 62
           1
100
AcDbLine
 10
845.167068570774
 20
10900.31313205366
 11
845.167068570774
 21
10899.31313205366
  0
LINE
  5
C1
100
AcDbEntity
  8
1
  6
PHANTOM
 62
           1
100
AcDbLine
 10
795.167068570774
 20
10972.31313205366
 11
795.167068570774
 21
10842.31313205366
  0
LINE
  5
C0
100
AcDbEntity
  8
1
  6
PHANTOM
 62
           1
100
AcDbLine
 10
793.167068570774
 20
10972.31313205366
 11
795.167068570774
 21
10972.31313205366
  0
LINE
  5
BF
100
AcDbEntity
  8
1
  6
PHANTOM
 62
           1
100
AcDbLine
 10
793.167068570774
 20
10842.31313205366
 11
793.167068570774
 21
10972.31313205366
  0
LINE
  5
BE
100
AcDbEntity
  8
1
  6
PHANTOM
 62
           1
100
AcDbLine
 10
795.167068570774
 20
10842.31313205366
 11
793.167068570774
 21
10842.31313205366
  0
LINE
  5
BD
100
AcDbEntity
  8
1
  6
DOTTED
 62
           1
100
AcDbLine
 10
793.167068570774
 20
10959.91313205366
 11
795.167068570774
 21
10959.91313205366
  0
LINE
  5
BC
100
AcDbEntity
  8
1
  6
DOTTED
 62
           1
100
AcDbLine
 10
793.167068570774
 20
10954.713132053659
 11
795.167068570774
 21
10954.713132053659
  0
LINE
  5
BB
100
AcDbEntity
  8
1
  6
DOT_CENTER
 62
           1
100
AcDbLine
 10
787.393116339211
 20
10957.31313205366
 11
803.933116339211
 21
10957.31313205366
  0
LINE
  5
BA
100
AcDbEntity
  8
1
  6
DOT_CENTER
 62
           1
100
AcDbLine
 10
803.933116339211
 20
10857.31313205366
 11
787.393116339211
 21
10857.31313205366
  0
LINE
  5
B9
100
AcDbEntity
  8
1
  6
DOTTED
 62
           1
100
AcDbLine
 10
795.167068570774
 20
10859.91313205366
 11
793.167068570774
 21
10859.91313205366
  0
LINE
  5
B8
100
AcDbEntity
  8
1
  6
DOTTED
 62
           1
100
AcDbLine
 10
795.167068570774
 20
10854.713132053659
 11
793.167068570774
 21
10854.713132053659
  0
LINE
  5
B7
100
AcDbEntity
  8
1
  6
PHANTOM
 62
           1
100
AcDbLine
 10
793.167068570774
 20
10893.81313205366
 11
793.167068570774
 21
10900.81313205366
  0
LINE
  5
B6
100
AcDbEntity
  8
1
  6
CONTINUOUS
 62
           3
100
AcDbLine
 10
479.156997501153
 20
10708.062950270471
 11
478.156997501153
 21
10708.062950270471
  0
LINE
  5
B5
100
AcDbEntity
  8
1
  6
CONTINUOUS
 62
           3
100
AcDbLine
 10
479.156997501153
 20
10673.062950270471
 11
478.156997501153
 21
10673.062950270471
  0
LINE
  5
B4
100
AcDbEntity
  8
1
  6
CONTINUOUS
 62
           3
100
AcDbLine
 10
479.156997501153
 20
10708.062950270471
 11
479.156997501153
 21
10709.062950270471
  0
LINE
  5
B3
100
AcDbEntity
  8
1
  6
CONTINUOUS
 62
           3
100
AcDbLine
 10
479.156997501153
 20
10673.062950270471
 11
479.156997501153
 21
10708.062950270471
  0
LINE
  5
B2
100
AcDbEntity
  8
1
  6
CONTINUOUS
 62
           3
100
AcDbLine
 10
897.155213027366
 20
10728.062950270471
 11
897.155213027366
 21
10653.062950270471
  0
LINE
  5
B1
100
AcDbEntity
  8
1
  6
DOTTED
 62
           1
100
AcDbLine
 10
897.155213027366
 20
10728.062950270471
 11
904.155213027366
 21
10728.062950270471
  0
LINE
  5
B0
100
AcDbEntity
  8
1
  6
CONTINUOUS
 62
           3
100
AcDbLine
 10
897.155213027366
 20
10653.062950270471
 11
895.655213027366
 21
10653.062950270471
  0
LINE
  5
AF
100
AcDbEntity
  8
1
  6
CONTINUOUS
 62
           3
100
AcDbLine
 10
897.155213027366
 20
10653.062950270471
 11
897.155213027366
 21
10523.062950270471
  0
LINE
  5
AE
100
AcDbEntity
  8
1
  6
DOTTED
 62
           1
100
AcDbLine
 10
361.702341876124
 20
10738.986957775151
 11
361.702341876124
 21
10642.13894276579
  0
LINE
  5
AD
100
AcDbEntity
  8
1
  6
CONTINUOUS
 62
           3
100
AcDbLine
 10
361.702341876124
 20
10738.986957775151
 11
347.352501783749
 21
10748.813749808591
  0
LINE
  5
AC
100
AcDbEntity
  8
1
  6
DOTTED
 62
           1
100
AcDbLine
 10
364.702341876124
 20
10736.93255327234
 11
364.702341876124
 21
10644.1933472686
  0
LINE
  5
AB
100
AcDbEntity
  8
1
  6
CONTINUOUS
 62
           3
100
AcDbLine
 10
364.702341876124
 20
10736.93255327234
 11
361.702341876124
 21
10738.986957775151
  0
LINE
  5
AA
100
AcDbEntity
  8
1
  6
CONTINUOUS
 62
           3
100
AcDbLine
 10
361.702341876124
 20
10642.13894276579
 11
364.702341876124
 21
10644.1933472686
  0
LINE
  5
A9
100
AcDbEntity
  8
1
  6
CONTINUOUS
 62
           3
100
AcDbLine
 10
361.702341876124
 20
10642.13894276579
 11
361.702341876124
 21
10471.062950270471
  0
LINE
  5
A8
100
AcDbEntity
  8
1
  6
CONTINUOUS
 62
           3
100
AcDbLine
 10
364.702341876124
 20
10644.1933472686
 11
364.702341876124
 21
10474.539168524951
  0
LINE
  5
A7
100
AcDbEntity
  8
1
  6
CONTINUOUS
 62
           3
100
AcDbLine
 10
364.702341876124
 20
10644.1933472686
 11
386.052181968499
 21
10658.813749808591
  0
LINE
  5
A6
100
AcDbEntity
  8
1
  6
DOTTED
 62
           1
100
AcDbLine
 10
418.702341876124
 20
10644.1933472686
 11
418.702341876124
 21
10736.93255327234
  0
LINE
  5
A5
100
AcDbEntity
  8
1
  6
CONTINUOUS
 62
           3
100
AcDbLine
 10
418.702341876124
 20
10644.1933472686
 11
421.702341876124
 21
10642.13894276579
  0
LINE
  5
A4
100
AcDbEntity
  8
1
  6
DOTTED
 62
           1
100
AcDbLine
 10
421.702341876124
 20
10642.13894276579
 11
421.702341876124
 21
10738.986957775151
  0
LINE
  5
A3
100
AcDbEntity
  8
1
  6
CONTINUOUS
 62
           3
100
AcDbLine
 10
421.702341876124
 20
10642.13894276579
 11
436.052181968499
 21
10632.31215073235
  0
LINE
  5
A2
100
AcDbEntity
  8
1
  6
CONTINUOUS
 62
           3
100
AcDbLine
 10
418.702341876124
 20
10736.93255327234
 11
397.352501783749
 21
10722.31215073235
  0
LINE
  5
A1
100
AcDbEntity
  8
1
  6
CONTINUOUS
 62
           3
100
AcDbLine
 10
418.702341876124
 20
10736.93255327234
 11
418.702341876124
 21
10783.062950270471
  0
LINE
  5
A0
100
AcDbEntity
  8
1
  6
CONTINUOUS
 62
           3
100
AcDbLine
 10
421.702341876124
 20
10738.986957775151
 11
418.702341876124
 21
10736.93255327234
  0
LINE
  5
9F
100
AcDbEntity
  8
1
  6
CONTINUOUS
 62
           3
100
AcDbLine
 10
421.702341876124
 20
10738.986957775151
 11
421.702341876124
 21
10783.062950270471
  0
LINE
  5
9E
100
AcDbEntity
  8
1
  6
DOT_CENTER
 62
           1
100
AcDbLine
 10
335.999125787056
 20
10690.562950270471
 11
445.973239917605
 21
10690.562950270471
  0
LINE
  5
9D
100
AcDbEntity
  8
1
  6
DOT_CENTER
 62
           1
100
AcDbLine
 10
788.147815139758
 20
10907.31313205366
 11
915.839547080443
 21
10907.31313205366
  0
LINE
  5
9C
100
AcDbEntity
  8
1
  6
DOT_CENTER
 62
           1
100
AcDbLine
 10
788.147815139758
 20
10907.31313205366
 11
917.264087875287
 21
10907.31313205366
  0
LINE
  5
9B
100
AcDbEntity
  8
1
  6
DOT_CENTER
 62
           1
100
AcDbLine
 10
1034.983739285596
 20
10464.214485917029
 11
1034.983739285596
 21
10796.44537717773
  0
LINE
  5
9A
100
AcDbEntity
  8
1
  6
CONTINUOUS
 62
           3
100
AcDbLine
 10
990.633899193221
 20
10632.31215073235
 11
1004.983739285596
 21
10642.13894276579
  0
LINE
  5
99
100
AcDbEntity
  8
1
  6
CONTINUOUS
 62
           3
100
AcDbLine
 10
1079.333579377972
 20
10748.813749808591
 11
1064.983739285596
 21
10738.986957775151
  0
LINE
  5
98
100
AcDbEntity
  8
1
  6
CONTINUOUS
 62
           3
100
AcDbLine
 10
1004.983739285596
 20
10738.986957775151
 11
990.63389919322
 21
10748.813749808591
  0
LINE
  5
97
100
AcDbEntity
  8
1
  6
CONTINUOUS
 62
           3
100
AcDbLine
 10
1066.732939747475
 20
10696.2131101781
 11
1093.234538823718
 21
10734.912790362851
  0
LINE
  5
96
100
AcDbEntity
  8
1
  6
CONTINUOUS
 62
           3
100
AcDbLine
 10
1093.234538823719
 20
10646.2131101781
 11
1066.732939747474
 21
10684.912790362851
  0
LINE
  5
95
100
AcDbEntity
  8
1
  6
CONTINUOUS
 62
           3
100
AcDbLine
 10
1064.983739285596
 20
10642.13894276579
 11
1079.333579377972
 21
10632.31215073235
  0
LINE
  5
94
100
AcDbEntity
  8
1
  6
CONTINUOUS
 62
           3
100
AcDbLine
 10
1003.234538823718
 20
10684.912790362851
 11
976.732939747474
 21
10646.2131101781
  0
LINE
  5
93
100
AcDbEntity
  8
1
  6
CONTINUOUS
 62
           3
100
AcDbLine
 10
976.732939747474
 20
10734.912790362851
 11
1003.234538823719
 21
10696.2131101781
  0
LINE
  5
92
100
AcDbEntity
  8
1
  6
CONTINUOUS
 62
           3
100
AcDbLine
 10
981.583739285596
 20
10743.162950270471
 11
988.383739285596
 21
10743.162950270471
  0
LINE
  5
91
100
AcDbEntity
  8
1
  6
CONTINUOUS
 62
           3
100
AcDbLine
 10
988.383739285596
 20
10737.96295027047
 11
981.583739285596
 21
10737.96295027047
  0
LINE
  5
90
100
AcDbEntity
  8
1
  6
DOT_CENTER
 62
           1
100
AcDbLine
 10
976.159443912481
 20
10740.562950270471
 11
993.529030946464
 21
10740.562950270471
  0
LINE
  5
8F
100
AcDbEntity
  8
1
  6
DOT_CENTER
 62
           1
100
AcDbLine
 10
988.383739285596
 20
10735.772186851071
 11
988.383739285596
 21
10745.45704750032
  0
LINE
  5
8E
100
AcDbEntity
  8
1
  6
DOT_CENTER
 62
           1
100
AcDbLine
 10
981.583739285596
 20
10736.035362412191
 11
981.583739285596
 21
10745.404412388099
  0
LINE
  5
8D
100
AcDbEntity
  8
1
  6
DOT_CENTER
 62
           1
100
AcDbLine
 10
984.983739285596
 20
10733.755640463311
 11
984.983739285596
 21
10746.796779887231
  0
LINE
  5
8C
100
AcDbEntity
  8
1
  6
DOT_CENTER
 62
           1
100
AcDbLine
 10
1080.170244359315
 20
10735.74945534419
 11
1089.391722480368
 21
10744.97093346524
  0
LINE
  5
8B
100
AcDbEntity
  8
1
  6
DOT_CENTER
 62
           1
100
AcDbLine
 10
1079.378088152554
 20
10739.7656252495
 11
1086.003006923795
 21
10746.39054402074
  0
LINE
  5
8A
100
AcDbEntity
  8
1
  6
DOT_CENTER
 62
           1
100
AcDbLine
 10
1084.000321040711
 20
10734.771205913519
 11
1090.848551680643
 21
10741.61943655345
  0
LINE
  5
89
100
AcDbEntity
  8
1
  6
DOT_CENTER
 62
           1
100
AcDbLine
 10
1078.744020188074
 20
10746.802669368
 11
1091.026172966213
 21
10734.52051658985
  0
LINE
  5
88
100
AcDbEntity
  8
1
  6
CONTINUOUS
 62
           3
100
AcDbLine
 10
1085.549424710546
 20
10736.320309583351
 11
1080.741098598477
 21
10741.128635695421
  0
LINE
  5
87
100
AcDbEntity
  8
1
  6
CONTINUOUS
 62
           3
100
AcDbLine
 10
1084.418053860647
 20
10744.805590957591
 11
1089.226379972715
 21
10739.99726484552
  0
LINE
  5
86
100
AcDbEntity
  8
1
  6
CONTINUOUS
 62
           3
100
AcDbLine
 10
1071.918053860647
 20
10732.305590957591
 11
1076.726379972715
 21
10727.49726484552
  0
LINE
  5
85
100
AcDbEntity
  8
1
  6
CONTINUOUS
 62
           3
100
AcDbLine
 10
1073.049424710546
 20
10723.820309583351
 11
1068.241098598477
 21
10728.628635695421
  0
LINE
  5
84
100
AcDbEntity
  8
1
  6
DOT_CENTER
 62
           1
100
AcDbLine
 10
1066.244020188074
 20
10734.302669368
 11
1078.526172966213
 21
10722.02051658985
  0
LINE
  5
83
100
AcDbEntity
  8
1
  6
DOT_CENTER
 62
           1
100
AcDbLine
 10
1071.500321040711
 20
10722.271205913519
 11
1078.348551680643
 21
10729.11943655345
  0
LINE
  5
82
100
AcDbEntity
  8
1
  6
DOT_CENTER
 62
           1
100
AcDbLine
 10
1066.878088152554
 20
10727.2656252495
 11
1073.503006923795
 21
10733.89054402074
  0
LINE
  5
81
100
AcDbEntity
  8
1
  6
DOT_CENTER
 62
           1
100
AcDbLine
 10
1067.670244359315
 20
10723.24945534419
 11
1076.891722480368
 21
10732.47093346524
  0
LINE
  5
80
100
AcDbEntity
  8
1
  6
DOT_CENTER
 62
           1
100
AcDbLine
 10
997.483739285596
 20
10721.255640463311
 11
997.483739285596
 21
10734.296779887231
  0
LINE
  5
7F
100
AcDbEntity
  8
1
  6
DOT_CENTER
 62
           1
100
AcDbLine
 10
994.083739285596
 20
10723.535362412191
 11
994.083739285596
 21
10732.904412388099
  0
LINE
  5
7E
100
AcDbEntity
  8
1
  6
DOT_CENTER
 62
           1
100
AcDbLine
 10
1000.883739285596
 20
10723.272186851071
 11
1000.883739285596
 21
10732.95704750032
  0
LINE
  5
7D
100
AcDbEntity
  8
1
  6
DOT_CENTER
 62
           1
100
AcDbLine
 10
988.659443912481
 20
10728.062950270471
 11
1006.029030946464
 21
10728.062950270471
  0
LINE
  5
7C
100
AcDbEntity
  8
1
  6
CONTINUOUS
 62
           3
100
AcDbLine
 10
1000.883739285596
 20
10725.46295027047
 11
994.083739285596
 21
10725.46295027047
  0
LINE
  5
7B
100
AcDbEntity
  8
1
  6
CONTINUOUS
 62
           3
100
AcDbLine
 10
994.083739285596
 20
10730.662950270471
 11
1000.883739285596
 21
10730.662950270471
  0
LINE
  5
7A
100
AcDbEntity
  8
1
  6
DOT_CENTER
 62
           1
100
AcDbLine
 10
1078.176429478436
 20
10640.562950270471
 11
1091.217568902355
 21
10640.562950270471
  0
LINE
  5
79
100
AcDbEntity
  8
1
  6
DOT_CENTER
 62
           1
100
AcDbLine
 10
1080.456151427315
 20
10643.96295027047
 11
1089.825201403225
 21
10643.96295027047
  0
LINE
  5
78
100
AcDbEntity
  8
1
  6
DOT_CENTER
 62
           1
100
AcDbLine
 10
1080.192975866195
 20
10637.162950270471
 11
1089.877836515446
 21
10637.162950270471
  0
LINE
  5
77
100
AcDbEntity
  8
1
  6
DOT_CENTER
 62
           1
100
AcDbLine
 10
1084.983739285596
 20
10649.387245643589
 11
1084.983739285597
 21
10632.0176586096
  0
LINE
  5
76
100
AcDbEntity
  8
1
  6
CONTINUOUS
 62
           3
100
AcDbLine
 10
1082.383739285596
 20
10637.162950270471
 11
1082.383739285596
 21
10643.96295027047
  0
LINE
  5
75
100
AcDbEntity
  8
1
  6
CONTINUOUS
 62
           3
100
AcDbLine
 10
1087.583739285596
 20
10643.96295027047
 11
1087.583739285597
 21
10637.162950270471
  0
LINE
  5
74
100
AcDbEntity
  8
1
  6
CONTINUOUS
 62
           3
100
AcDbLine
 10
1075.083739285596
 20
10656.46295027047
 11
1075.083739285597
 21
10649.662950270471
  0
LINE
  5
73
100
AcDbEntity
  8
1
  6
CONTINUOUS
 62
           3
100
AcDbLine
 10
1069.883739285597
 20
10649.662950270471
 11
1069.883739285596
 21
10656.46295027047
  0
LINE
  5
72
100
AcDbEntity
  8
1
  6
DOT_CENTER
 62
           1
100
AcDbLine
 10
1072.483739285596
 20
10661.887245643589
 11
1072.483739285597
 21
10644.5176586096
  0
LINE
  5
71
100
AcDbEntity
  8
1
  6
DOT_CENTER
 62
           1
100
AcDbLine
 10
1067.692975866195
 20
10649.662950270471
 11
1077.377836515446
 21
10649.662950270471
  0
LINE
  5
70
100
AcDbEntity
  8
1
  6
DOT_CENTER
 62
           1
100
AcDbLine
 10
1067.956151427315
 20
10656.46295027047
 11
1077.325201403225
 21
10656.46295027047
  0
LINE
  5
6F
100
AcDbEntity
  8
1
  6
DOT_CENTER
 62
           1
100
AcDbLine
 10
1065.676429478436
 20
10653.062950270471
 11
1078.717568902355
 21
10653.062950270471
  0
LINE
  5
6E
100
AcDbEntity
  8
1
  6
DOT_CENTER
 62
           1
100
AcDbLine
 10
989.985868443941
 20
10653.062950270471
 11
1006.134883791049
 21
10653.062950270471
  0
LINE
  5
6D
100
AcDbEntity
  8
1
  6
DOT_CENTER
 62
           1
100
AcDbLine
 10
977.05236500223
 20
10640.562950270471
 11
993.344291989578
 21
10640.562950270471
  0
LINE
  5
6C
100
AcDbEntity
  8
1
  6
DOT_CENTER
 62
           1
100
AcDbLine
 10
984.983739285596
 20
10632.950528105859
 11
984.983739285596
 21
10647.81333869081
  0
LINE
  5
6B
100
AcDbEntity
  8
1
  6
DOT_CENTER
 62
           1
100
AcDbLine
 10
997.483739285596
 20
10643.95472440433
 11
997.483739285596
 21
10661.532856153841
  0
LINE
  5
6A
100
AcDbEntity
  8
1
  6
DOT_CENTER
 62
           1
100
AcDbLine
 10
1084.983739285596
 20
10731.574728301561
 11
1084.983739285596
 21
10747.95834424796
  0
LINE
  5
69
100
AcDbEntity
  8
1
  6
DOT_CENTER
 62
           1
100
AcDbLine
 10
1076.071183356429
 20
10740.562950270471
 11
1093.178937024225
 21
10740.562950270471
  0
LINE
  5
68
100
AcDbEntity
  8
1
  6
DOT_CENTER
 62
           1
100
AcDbLine
 10
1072.483739285596
 20
10719.083352607609
 11
1072.483739285596
 21
10736.73420956645
  0
LINE
  5
67
100
AcDbEntity
  8
1
  6
CONTINUOUS
 62
           1
100
AcDbLine
 10
990.983739285596
 20
10740.562950270471
 11
990.983739285596
 21
10748.43295027047
  0
LINE
  5
66
100
AcDbEntity
  8
1
  6
CONTINUOUS
 62
           1
100
AcDbLine
 10
978.983739285596
 20
10740.562950270471
 11
978.983739285596
 21
10748.43295027047
  0
LINE
  5
65
100
AcDbEntity
  8
1
  6
CONTINUOUS
 62
           3
100
AcDbLine
 10
1004.983739285596
 20
10471.062950270471
 11
1011.459957540074
 21
10471.062950270471
  0
LINE
  5
64
100
AcDbEntity
  8
1
  6
CONTINUOUS
 62
           3
100
AcDbLine
 10
1004.983739285596
 20
10783.062950270471
 11
1004.983739285596
 21
10471.062950270471
  0
POINT
  5
63
100
AcDbEntity
  8
0
 62
           7
100
AcDbPoint
 10
1004.983739285596
 20
10783.062950270471
  0
POINT
  5
62
100
AcDbEntity
  8
0
 62
           7
100
AcDbPoint
 10
962.983739285596
 20
10468.062950270471
  0
POINT
  5
61
100
AcDbEntity
  8
0
 62
           7
100
AcDbPoint
 10
1014.741842044542
 20
10773.062950270471
  0
POINT
  5
60
100
AcDbEntity
  8
0
 62
           7
100
AcDbPoint
 10
1014.741842044542
 20
10745.562950270471
  0
POINT
  5
5F
100
AcDbEntity
  8
0
 62
           7
100
AcDbPoint
 10
1014.741842044542
 20
10745.562950270471
  0
POINT
  5
5E
100
AcDbEntity
  8
0
 62
           7
100
AcDbPoint
 10
1014.741842044542
 20
10718.062950270471
  0
POINT
  5
5D
100
AcDbEntity
  8
0
 62
           7
100
AcDbPoint
 10
1014.741842044542
 20
10718.062950270471
  0
POINT
  5
5C
100
AcDbEntity
  8
0
 62
           7
100
AcDbPoint
 10
970.983739285596
 20
10690.562950270471
  0
POINT
  5
5B
100
AcDbEntity
  8
0
 62
           7
100
AcDbPoint
 10
970.983739285596
 20
10690.562950270471
  0
POINT
  5
5A
100
AcDbEntity
  8
0
 62
           7
100
AcDbPoint
 10
1014.741842044542
 20
10663.062950270471
  0
POINT
  5
59
100
AcDbEntity
  8
0
 62
           7
100
AcDbPoint
 10
1014.741842044542
 20
10663.062950270471
  0
POINT
  5
58
100
AcDbEntity
  8
0
 62
           7
100
AcDbPoint
 10
1014.741842044542
 20
10635.562950270471
  0
POINT
  5
57
100
AcDbEntity
  8
0
 62
           7
100
AcDbPoint
 10
1014.741842044542
 20
10635.562950270471
  0
POINT
  5
56
100
AcDbEntity
  8
0
 62
           7
100
AcDbPoint
 10
1014.741842044542
 20
10608.062950270471
  0
POINT
  5
55
100
AcDbEntity
  8
0
 62
           7
100
AcDbPoint
 10
1014.741842044542
 20
10608.062950270471
  0
POINT
  5
54
100
AcDbEntity
  8
0
 62
           7
100
AcDbPoint
 10
1014.741842044542
 20
10580.562950270471
  0
POINT
  5
53
100
AcDbEntity
  8
0
 62
           7
100
AcDbPoint
 10
1014.741842044542
 20
10580.562950270471
  0
POINT
  5
52
100
AcDbEntity
  8
0
 62
           7
100
AcDbPoint
 10
1014.741842044542
 20
10553.062950270471
  0
POINT
  5
51
100
AcDbEntity
  8
0
 62
           7
100
AcDbPoint
 10
1014.741842044542
 20
10553.062950270471
  0
POINT
  5
50
100
AcDbEntity
  8
0
 62
           7
100
AcDbPoint
 10
962.983739285596
 20
10468.062950270471
  0
POINT
  5
4F
100
AcDbEntity
  8
0
 62
           7
100
AcDbPoint
 10
1013.86470252714
 20
10510.062950270471
  0
POINT
  5
4E
100
AcDbEntity
  8
0
 62
           7
100
AcDbPoint
 10
962.983739285596
 20
10468.062950270471
  0
POINT
  5
4D
100
AcDbEntity
  8
0
 62
           7
100
AcDbPoint
 10
859.155213027366
 20
10934.31313205366
  0
POINT
  5
4C
100
AcDbEntity
  8
0
 62
           7
100
AcDbPoint
 10
859.155213027366
 20
10937.31313205366
  0
POINT
  5
4B
100
AcDbEntity
  8
0
 62
           7
100
AcDbPoint
 10
807.155213027366
 20
10468.062950270471
  0
POINT
  5
4A
100
AcDbEntity
  8
0
 62
           7
100
AcDbPoint
 10
807.155213027366
 20
10471.062950270471
  0
POINT
  5
49
100
AcDbEntity
  8
0
 62
           7
100
AcDbPoint
 10
406.702341876124
 20
10785.970318490041
  0
POINT
  5
48
100
AcDbEntity
  8
0
 62
           7
100
AcDbPoint
 10
376.702341876124
 20
10785.970318490041
  0
POINT
  5
47
100
AcDbEntity
  8
0
 62
           7
100
AcDbPoint
 10
904.155213027366
 20
10877.31313205366
  0
POINT
  5
46
100
AcDbEntity
  8
0
 62
           7
100
AcDbPoint
 10
904.155213027366
 20
10937.31313205366
  0
POINT
  5
45
100
AcDbEntity
  8
0
 62
           7
100
AcDbPoint
 10
907.155213027366
 20
10934.31313205366
  0
POINT
  5
44
100
AcDbEntity
  8
0
 62
           7
100
AcDbPoint
 10
897.155213027366
 20
10974.31313205366
  0
POINT
  5
43
100
AcDbEntity
  8
0
 62
           7
100
AcDbPoint
 10
807.155213027366
 20
10974.31313205366
  0
POINT
  5
42
100
AcDbEntity
  8
0
 62
           7
100
AcDbPoint
 10
897.155213027366
 20
10974.31313205366
  0
POINT
  5
41
100
AcDbEntity
  8
0
 62
           7
100
AcDbPoint
 10
897.155213027366
 20
10974.31313205366
  0
POINT
  5
40
100
AcDbEntity
  8
0
 62
           7
100
AcDbPoint
 10
807.155213027366
 20
10974.31313205366
  0
POINT
  5
3F
100
AcDbEntity
  8
0
 62
           7
100
AcDbPoint
 10
892.155213027366
 20
10835.31313205366
  0
POINT
  5
3E
100
AcDbEntity
  8
0
 62
           7
100
AcDbPoint
 10
892.155213027366
 20
10979.31313205366
  0
POINT
  5
3D
100
AcDbEntity
  8
0
 62
           7
100
AcDbPoint
 10
445.102341876124
 20
10737.96295027047
  0
POINT
  5
3C
100
AcDbEntity
  8
0
 62
           7
100
AcDbPoint
 10
445.102341876124
 20
10743.162950270471
  0
POINT
  5
3B
100
AcDbEntity
  8
0
 62
           7
100
AcDbPoint
 10
447.702341876124
 20
10748.43295027047
  0
POINT
  5
3A
100
AcDbEntity
  8
0
 62
           7
100
AcDbPoint
 10
435.702341876124
 20
10748.43295027047
  0
POINT
  5
39
100
AcDbEntity
  8
0
 62
           7
100
AcDbPoint
 10
335.468512259365
 20
10640.562950270471
  0
POINT
  5
38
100
AcDbEntity
  8
0
 62
           7
100
AcDbPoint
 10
333.507144137495
 20
10740.562950270471
  0
POINT
  5
37
100
AcDbEntity
  8
0
 62
           7
100
AcDbPoint
 10
347.968512259365
 20
10653.062950270471
  0
POINT
  5
36
100
AcDbEntity
  8
0
 62
           7
100
AcDbPoint
 10
343.91662388245
 20
10728.062950270471
  0
POINT
  5
35
100
AcDbEntity
  8
0
 62
           7
100
AcDbPoint
 10
441.702341876124
 20
10746.796779887231
  0
POINT
  5
34
100
AcDbEntity
  8
0
 62
           7
100
AcDbPoint
 10
341.702341876124
 20
10747.95834424796
  0
POINT
  5
33
100
AcDbEntity
  8
0
 62
           7
100
AcDbPoint
 10
429.202341876124
 20
10734.296779887231
  0
POINT
  5
32
100
AcDbEntity
  8
0
 62
           7
100
AcDbPoint
 10
354.202341876124
 20
10736.73420956645
  0
POINT
  5
31
100
AcDbEntity
  8
0
 62
           7
100
AcDbPoint
 10
907.155213027366
 20
10471.062950270471
  0
POINT
  5
30
100
AcDbEntity
  8
0
 62
           7
100
AcDbPoint
 10
476.156997501153
 20
10625.562950270471
  0
POINT
  5
2F
100
AcDbEntity
  8
0
 62
           7
100
AcDbPoint
 10
793.167068570774
 20
10842.31313205366
  0
POINT
  5
2E
100
AcDbEntity
  8
0
 62
           7
100
AcDbPoint
 10
907.155213027366
 20
10880.31313205366
  0
POINT
  5
2D
100
AcDbEntity
  8
0
 62
           7
100
AcDbPoint
 10
869.662033035963
 20
10726.843350651559
  0
POINT
  5
2C
100
AcDbEntity
  8
0
 62
           7
100
AcDbPoint
 10
788.147815139758
 20
10907.31313205366
  0
POINT
  5
2B
100
AcDbEntity
  8
0
 62
           7
100
AcDbPoint
 10
990.983739285596
 20
10748.43295027047
  0
POINT
  5
2A
100
AcDbEntity
  8
0
 62
           7
100
AcDbPoint
 10
978.983739285596
 20
10748.43295027047
  0
POINT
  5
29
100
AcDbEntity
  8
0
 62
           7
100
AcDbPoint
 10
981.583739285596
 20
10743.162950270471
  0
POINT
  5
28
100
AcDbEntity
  8
0
 62
           7
100
AcDbPoint
 10
981.583739285596
 20
10737.96295027047
  0
ENDSEC
  0
SECTION
  2
OBJECTS
  0
DICTIONARY
  5
19
100
AcDbDictionary
  3
ACAD_GROUP
350
1A
  3
ACAD_MLINESTYLE
350
1B
  0
DICTIONARY
  5
1A
102
{ACAD_REACTORS
330
19
102
}
100
AcDbDictionary
  0
DICTIONARY
  5
1B
102
{ACAD_REACTORS
330
19
102
}
100
AcDbDictionary
  3
STANDARD
350
1C
  0
MLINESTYLE
  5
1C
102
{ACAD_REACTORS
330
1B
102
}
100
AcDbMlineStyle
  2
STANDARD
 70
           0
  3

 62
           0
 51
90.0
 52
90.0
 71
           2
 49
0.5
 62
         256
  6
BYLAYER
 49
-0.5
 62
         256
  6
BYLAYER
  0
ENDSEC
  0
EOF
