  0
SECTION
  2
HEADER
  9
$ACADVER
  1
AC1014
  9
$ACADMAINTVER
 70
           0
  9
$DWGCODEPAGE
  3
DOS932
  9
$INSBASE
 10
0.0
 20
0.0
 30
0.0
  9
$EXTMIN
 10
1.000000000000E+20
 20
1.000000000000E+20
 30
1.000000000000E+20
  9
$EXTMAX
 10
-1.000000000000E+20
 20
-1.000000000000E+20
 30
-1.000000000000E+20
  9
$LIMMIN
 10
0.0
 20
0.0
  9
$LIMMAX
 10
0.0
 20
0.0
  9
$ORTHOMODE
 70
           0
  9
$REGENMODE
 70
           1
  9
$FILLMODE
 70
           1
  9
$QTEXTMODE
 70
           0
  9
$MIRRTEXT
 70
           1
  9
$DRAGMODE
 70
           2
  9
$LTSCALE
 40
1.0
  9
$OSMODE
 70
           0
  9
$ATTMODE
 70
           1
  9
$TEXTSIZE
 40
0.2
  9
$TRACEWID
 40
0.05
  9
$TEXTSTYLE
  7
STANDARD
  9
$CLAYER
  8
0
  9
$CELTYPE
  6
CONTINUOUS
  9
$CECOLOR
 62
         256
  9
$CELTSCALE
 40
1.0
  9
$DELOBJ
 70
           1
  9
$DISPSILH
 70
           0
  9
$DIMSCALE
 40
1.0
  9
$DIMASZ
 40
0.18
  9
$DIMEXO
 40
0.0625
  9
$DIMDLI
 40
0.38
  9
$DIMRND
 40
0.0
  9
$DIMDLE
 40
0.0
  9
$DIMEXE
 40
0.18
  9
$DIMTP
 40
0.0
  9
$DIMTM
 40
0.0
  9
$DIMTXT
 40
0.18
  9
$DIMCEN
 40
0.09
  9
$DIMTSZ
 40
0.0
  9
$DIMTOL
 70
           0
  9
$DIMLIM
 70
           0
  9
$DIMTIH
 70
           1
  9
$DIMTOH
 70
           1
  9
$DIMSE1
 70
           0
  9
$DIMSE2
 70
           0
  9
$DIMTAD
 70
           0
  9
$DIMZIN
 70
           0
  9
$DIMBLK
  1

  9
$DIMASO
 70
           1
  9
$DIMSHO
 70
           1
  9
$DIMPOST
  1

  9
$DIMAPOST
  1

  9
$DIMALT
 70
           0
  9
$DIMALTD
 70
           2
  9
$DIMALTF
 40
25.4
  9
$DIMLFAC
 40
1.0
  9
$DIMTOFL
 70
           0
  9
$DIMTVP
 40
0.0
  9
$DIMTIX
 70
           0
  9
$DIMSOXD
 70
           0
  9
$DIMSAH
 70
           0
  9
$DIMBLK1
  1

  9
$DIMBLK2
  1

  9
$DIMSTYLE
  2
STANDARD
  9
$DIMCLRD
 70
           0
  9
$DIMCLRE
 70
           0
  9
$DIMCLRT
 70
           0
  9
$DIMTFAC
 40
1.0
  9
$DIMGAP
 40
0.09
  9
$DIMJUST
 70
           0
  9
$DIMSD1
 70
           0
  9
$DIMSD2
 70
           0
  9
$DIMTOLJ
 70
           1
  9
$DIMTZIN
 70
           0
  9
$DIMALTZ
 70
           0
  9
$DIMALTTZ
 70
           0
  9
$DIMFIT
 70
           3
  9
$DIMUPT
 70
           0
  9
$DIMUNIT
 70
           2
  9
$DIMDEC
 70
           4
  9
$DIMTDEC
 70
           4
  9
$DIMALTU
 70
           2
  9
$DIMALTTD
 70
           2
  9
$DIMTXSTY
  7
STANDARD
  9
$DIMAUNIT
 70
           0
  9
$LUNITS
 70
           2
  9
$LUPREC
 70
           4
  9
$SKETCHINC
 40
0.1
  9
$FILLETRAD
 40
0.0
  9
$AUNITS
 70
           0
  9
$AUPREC
 70
           0
  9
$MENU
  1
acad
  9
$ELEVATION
 40
0.0
  9
$PELEVATION
 40
0.0
  9
$THICKNESS
 40
0.0
  9
$LIMCHECK
 70
           0
  9
$BLIPMODE
 70
           1
  9
$CHAMFERA
 40
0.0
  9
$CHAMFERB
 40
0.0
  9
$CHAMFERC
 40
0.0
  9
$CHAMFERD
 40
0.0
  9
$SKPOLY
 70
           0
  9
$TDCREATE
 40
0.000000000
  9
$TDUPDATE
 40
0.000000000
  9
$TDINDWG
 40
0.0000000000
  9
$TDUSRTIMER
 40
0.0000000000
  9
$USRTIMER
 70
           1
  9
$ANGBASE
 50
0.0
  9
$ANGDIR
 70
           0
  9
$PDMODE
 70
           0
  9
$PDSIZE
 40
0.0
  9
$PLINEWID
 40
0.0
  9
$COORDS
 70
           0
  9
$SPLFRAME
 70
           0
  9
$SPLINETYPE
 70
           6
  9
$SPLINESEGS
 70
           8
  9
$ATTDIA
 70
           0
  9
$ATTREQ
 70
           1
  9
$HANDLING
 70
           1
  9
$HANDSEED
  5
2C8
  9
$SURFTAB1
 70
           6
  9
$SURFTAB2
 70
           6
  9
$SURFTYPE
 70
           6
  9
$SURFU
 70
           6
  9
$SURFV
 70
           6
  9
$UCSNAME
  2

  9
$UCSORG
 10
0.0
 20
0.0
 30
0.0
  9
$UCSXDIR
 10
1.0
 20
0.0
 30
0.0
  9
$UCSYDIR
 10
0.0
 20
1.0
 30
0.0
  9
$PUCSNAME
  2

  9
$PUCSORG
 10
0.0
 20
0.0
 30
0.0
  9
$PUCSXDIR
 10
1.0
 20
0.0
 30
0.0
  9
$PUCSYDIR
 10
0.0
 20
1.0
 30
0.0
  9
$USERI1
 70
           0
  9
$USERI2
 70
           0
  9
$USERI3
 70
           0
  9
$USERI4
 70
           0
  9
$USERI5
 70
           0
  9
$USERR1
 40
0.0
  9
$USERR2
 40
0.0
  9
$USERR3
 40
0.0
  9
$USERR4
 40
0.0
  9
$USERR5
 40
0.0
  9
$WORLDVIEW
 70
           1
  9
$SHADEDGE
 70
           3
  9
$SHADEDIF
 70
          70
  9
$TILEMODE
 70
           1
  9
$MAXACTVP
 70
          16
  9
$PINSBASE
 10
0.0
 20
0.0
 30
0.0
  9
$PLIMCHECK
 70
           0
  9
$PEXTMIN
 10
1.000000000000E+20
 20
1.000000000000E+20
 30
1.000000000000E+20
  9
$PEXTMAX
 10
-1.000000000000E+20
 20
-1.000000000000E+20
 30
-1.000000000000E+20
  9
$PLIMMIN
 10
0.0
 20
0.0
  9
$PLIMMAX
 10
12.0
 20
9.0
  9
$UNITMODE
 70
           0
  9
$VISRETAIN
 70
           0
  9
$PLINEGEN
 70
           1
  9
$PSLTSCALE
 70
           0
  9
$TREEDEPTH
 70
        3020
  9
$PICKSTYLE
 70
           1
  9
$CMLSTYLE
  2
STANDARD
  9
$CMLJUST
 70
           0
  9
$CMLSCALE
 40
1.0
  9
$PROXYGRAPHICS
 70
           0
  9
$MEASUREMENT
 70
           1
  0
ENDSEC
  0
SECTION
  2
CLASSES
  0
CLASS
  1
LWPOLYLINE
  2
AcDbPolyline
  3
"AutoCAD"
 90
        0
280
           0
281
           1
  0
CLASS
  1
IMAGE
  2
AcDbRasterImage
  3
ISM
 90
      127
280
           0
281
           1
  0
CLASS
  1
OLE2FRAME
  2
AcDbOle2Frame
  3
""
 90
        0
280
           0
281
           1
  0
CLASS
  1
HATCH
  2
AcDbHatch
  3
"ACAD_SEDONA"
 90
        0
280
           0
281
           1
  0
CLASS
  1
DICTIONARYVAR
  2
AcDbDictionaryVar
  3
"AutoCAD"
 90
        0
280
           0
281
           0
  0
CLASS
  1
RASTERVARIABLES
  2
AcDbRasterVariables
  3
ISM
 90
        0
280
           0
281
           0
  0
CLASS
  1
IMAGEDEF
  2
AcDbRasterImageDef
  3
ISM
 90
        0
280
           0
281
           0
  0
CLASS
  1
IMAGEDEF_REACTOR
  2
AcDbRasterImageDefReactor
  3
ISM
 90
        1
280
           0
281
           0
  0
CLASS
  1
IDBUFFER
  2
AcDbIdBuffer
  3
"Acad"
 90
        0
280
           0
281
           0
  0
CLASS
  1
SPATIAL_FILTER
  2
AcDbSpatialFilter
  3
"Acad"
 90
        0
280
           0
281
           0
  0
CLASS
  1
XRECORD
  2
AcDbXrecord
  3
"<Built In>"
 90
        0
280
           0
281
           0
  0
CLASS
  1
SORTENTSTABLE
  2
AcDbSortentsTable
  3
"AutoCAD"
 90
        0
280
           0
281
           0
  0
CLASS
  1
LAYER_INDEX
  2
AcDbLayerIndex
  3
"Acad"
 90
        0
280
           0
281
           0
  0
CLASS
  1
SPATIAL_INDEX
  2
AcDbSpatialIndex
  3
"Acad"
 90
        0
280
           0
281
           0
  0
CLASS
  1
OBJECT_PTR
  2
CAseDLPNTableRecord
  3
"ASE-LPNTableRecord"
 90
        1
280
           0
281
           0
  0
CLASS
  1
LAYOUT
  2
AcDbLayout
  3
"AutoCAD 2000"
 90
        1
280
           0
281
           0
  0
CLASS
  1
PLOTSETTINGS
  2
AcDbPlotSettings
  3
"AutoCAD 2000"
 90
        1
280
           0
281
           0
  0
CLASS
  1
ACDBDICTIONARYWDFLT
  2
AcDbDictionaryWithDefault
  3
"AutoCAD 2000"
 90
        1
280
           0
281
           0
  0
CLASS
  1
ACDBPLACEHOLDER
  2
AcDbPlaceHolder
  3
"AutoCAD 2000"
 90
        1
280
           0
281
           0
  0
CLASS
  1
VBA_PROJECT
  2
AcDbVbaProject
  3
"acadvba"
 90
        1
280
           0
281
           0
  0
CLASS
  1
WIPEOUT
  2
AcDbWipeout
  3
WipeOut|AutoCAD Express Tool|expresstools@autodesk.com
 90
      127
280
           0
281
           1
  0
CLASS
  1
WIPEOUTVARIABLES
  2
AcDbWipeoutVariables
  3
WipeOut|AutoCAD Express Tool|expresstools@autodesk.com
 90
        0
280
           0
281
           0
  0
CLASS
  1
RTEXT
  2
RText
  3
RText|AutoCAD Express Tool|expresstools@autodesk.com
 90
        0
280
           0
281
           1
  0
CLASS
  1
ARCALIGNEDTEXT
  2
AcDbArcAlignedText
  3
ATEXT|AutoCAD Express Tool|expresstools@autodesk.com
 90
        0
280
           0
281
           1
  0
ENDSEC
  0
SECTION
  2
TABLES
  0
TABLE
  2
VPORT
  5
7
100
AcDbSymbolTable
 70
           1
  0
VPORT
  5
15
100
AcDbSymbolTableRecord
100
AcDbViewportTableRecord
  2
*ACTIVE
 70
           0
 10
0.0
 20
0.0
 11
1.0
 21
1.0
 12
6.591288
 22
4.579184
 13
0.0
 23
0.0
 14
1.0
 24
1.0
 15
0.0
 25
0.0
 16
0.0
 26
0.0
 36
1.0
 17
0.0
 27
0.0
 37
0.0
 40
9.158369
 41
0.688564
 42
50.0
 43
0.0
 44
0.0
 50
0.0
 51
0.0
 71
           0
 72
         100
 73
           1
 74
           1
 75
           0
 76
           0
 77
           0
 78
           0
  0
ENDTAB
  0
TABLE
  2
LTYPE
  5
4
100
AcDbSymbolTable
 70
          10
  0
LTYPE
  5
11
100
AcDbSymbolTableRecord
100
AcDbLinetypeTableRecord
  2
BYBLOCK
 70
          64
  3

 72
          65
 73
           0
 40
0.0
  0
LTYPE
  5
12
100
AcDbSymbolTableRecord
100
AcDbLinetypeTableRecord
  2
BYLAYER
 70
          64
  3

 72
          65
 73
           0
 40
0.0
  0
LTYPE
  5
13
100
AcDbSymbolTableRecord
100
AcDbLinetypeTableRecord
  2
CONTINUOUS
 70
          64
  3
Solid line
 72
          65
 73
           0
 40
0.0
  0
LTYPE
  5
1D
100
AcDbSymbolTableRecord
100
AcDbLinetypeTableRecord
  2
DASHED
 70
          64
  3
Dashed
 72
          65
 73
           2
 40
15.0
 49
12.0
 74
           0
 49
-3.0
 74
           0
  0
LTYPE
  5
1E
100
AcDbSymbolTableRecord
100
AcDbLinetypeTableRecord
  2
DOTTED
 70
          64
  3
Dotted
 72
          65
 73
           2
 40
3.5
 49
0.5
 74
           0
 49
-3.0
 74
           0
  0
LTYPE
  5
1F
100
AcDbSymbolTableRecord
100
AcDbLinetypeTableRecord
  2
DOT_CENTER
 70
          64
  3
Dot_Center
 72
          65
 73
           4
 40
2.0
 49
1.25
 74
           0
 49
-0.25
 74
           0
 49
0.25
 74
           0
 49
-0.25
 74
           0
  0
LTYPE
  5
20
100
AcDbSymbolTableRecord
100
AcDbLinetypeTableRecord
  2
LONG_DASHED
 70
          64
  3
Long_Dashed
 72
          65
 73
           2
 40
2.0
 49
1.5
 74
           0
 49
-0.5
 74
           0
  0
LTYPE
  5
21
100
AcDbSymbolTableRecord
100
AcDbLinetypeTableRecord
  2
DASH_CENTER
 70
          64
  3
Dash_Center
 72
          65
 73
           4
 40
36.0
 49
24.0
 74
           0
 49
-3.0
 74
           0
 49
6.0
 74
           0
 49
-3.0
 74
           0
  0
LTYPE
  5
22
100
AcDbSymbolTableRecord
100
AcDbLinetypeTableRecord
  2
PHANTOM
 70
          64
  3
Phantom
 72
          65
 73
           6
 40
2.5
 49
1.25
 74
           0
 49
-0.25
 74
           0
 49
0.25
 74
           0
 49
-0.25
 74
           0
 49
0.25
 74
           0
 49
-0.25
 74
           0
  0
LTYPE
  5
23
100
AcDbSymbolTableRecord
100
AcDbLinetypeTableRecord
  2
CENTER_DASH_DASH
 70
          64
  3
Center_Dash_Dash
 72
          65
 73
           6
 40
22.0
 49
12.0
 74
           0
 49
-3.0
 74
           0
 49
0.5
 74
           0
 49
-3.0
 74
           0
 49
0.5
 74
           0
 49
-3.0
 74
           0
  0
ENDTAB
  0
TABLE
  2
LAYER
  5
2
100
AcDbSymbolTable
 70
           2
  0
LAYER
  5
14
100
AcDbSymbolTableRecord
100
AcDbLayerTableRecord
  2
0
 70
           0
 62
           7
  6
CONTINUOUS
  0
LAYER
  5
24
100
AcDbSymbolTableRecord
100
AcDbLayerTableRecord
  2
1
 70
           0
 62
           7
  6
CONTINUOUS
  0
ENDTAB
  0
TABLE
  2
STYLE
  5
3
100
AcDbSymbolTable
 70
           3
  0
STYLE
  5
17
100
AcDbSymbolTableRecord
100
AcDbTextStyleTableRecord
  2
STANDARD
 70
           0
 40
0.0
 41
1.0
 50
0.0
 71
           0
 42
0.0
  3
txt
  4

  0
STYLE
  5
2C3
100
AcDbSymbolTableRecord
100
AcDbTextStyleTableRecord
  2
CONVERTER_1
 70
           0
 40
0.0
 41
0.72
 50
0.0
 71
           0
 42
0.0
  3
MS Gothic
  4

1001
ACAD
1000
MS Gothic
1071
    32785
  0
STYLE
  5
2C5
100
AcDbSymbolTableRecord
100
AcDbTextStyleTableRecord
  2
CONVERTER_2
 70
           0
 40
0.0
 41
1.125
 50
0.0
 71
           0
 42
0.0
  3
txt
  4

  0
ENDTAB
  0
TABLE
  2
VIEW
  5
5
100
AcDbSymbolTable
 70
           0
  0
ENDTAB
  0
TABLE
  2
UCS
  5
6
100
AcDbSymbolTable
 70
           0
  0
ENDTAB
  0
TABLE
  2
APPID
  5
8
100
AcDbSymbolTable
 70
           1
  0
APPID
  5
16
100
AcDbSymbolTableRecord
100
AcDbRegAppTableRecord
  2
ACAD
 70
           0
  0
ENDTAB
  0
TABLE
  2
DIMSTYLE
  5
9
100
AcDbSymbolTable
 70
           1
  0
DIMSTYLE
105
18
100
AcDbSymbolTableRecord
100
AcDbDimStyleTableRecord
  2
STANDARD
 70
           0
  3

  4

  5

  6

  7

 40
1.0
 41
0.18
 42
0.0625
 43
0.38
 44
0.18
 45
0.0
 46
0.0
 47
0.0
 48
0.0
 71
           0
 72
           0
 73
           1
 74
           1
 75
           0
 76
           0
 77
           0
 78
           0
140
0.18
141
0.09
142
0.0
143
25.4
144
1.0
145
0.0
146
1.0
147
0.09
170
           0
171
           2
172
           0
173
           0
174
           0
175
           0
176
           0
177
           0
178
           0
270
           2
271
           4
272
           4
273
           2
274
           2
275
           0
280
           0
281
           0
282
           0
283
           1
284
           0
285
           0
286
           0
287
           0
288
           0
340
17
  0
ENDTAB
  0
TABLE
  2
BLOCK_RECORD
  5
1
100
AcDbSymbolTable
 70
           0
  0
BLOCK_RECORD
  5
A
100
AcDbSymbolTableRecord
100
AcDbBlockTableRecord
  2
*MODEL_SPACE
  0
BLOCK_RECORD
  5
B
100
AcDbSymbolTableRecord
100
AcDbBlockTableRecord
  2
*PAPER_SPACE
  0
ENDTAB
  0
ENDSEC
  0
SECTION
  2
BLOCKS
  0
BLOCK
  5
D
100
AcDbEntity
  8
0
100
AcDbBlockBegin
  2
*MODEL_SPACE
 70
           0
 10
0.0
 20
0.0
 30
0.0
  3
*MODEL_SPACE
  1

  0
ENDBLK
  5
E
100
AcDbEntity
  8
0
100
AcDbBlockEnd
  0
BLOCK
  5
F
100
AcDbEntity
 67
           1
  8
0
100
AcDbBlockBegin
  2
*PAPER_SPACE
 70
           0
 10
0.0
 20
0.0
 30
0.0
  3
*PAPER_SPACE
  1

  0
ENDBLK
  5
10
100
AcDbEntity
 67
           1
  8
0
100
AcDbBlockEnd
  0
ENDSEC
  0
SECTION
  2
ENTITIES
  0
MTEXT
  5
2C6
100
AcDbEntity
  8
1
 62
           1
100
AcDbMText
 10
452.610743385297
 20
10323.655975394469
 30
0.0
 40
7.799804672134
 41
0.0
 71
           5
 72
           1
  1
STV-3
  7
CONVERTER_2
 11
1.0
 21
0.0
 31
0.0
  0
MTEXT
  5
2C4
100
AcDbEntity
  8
1
 62
           1
100
AcDbMText
 10
452.610743385297
 20
10306.00597539447
 30
0.0
 40
7.799804672134
 41
0.0
 71
           5
 72
           1
  1
Ｓ-ＴＶアーム ３軸・壁付け型
  7
CONVERTER_1
 11
1.0
 21
0.0
 31
0.0
  0
ARC
  5
2C2
100
AcDbEntity
  8
1
  6
CONTINUOUS
 62
           3
100
AcDbCircle
 10
520.975916532364
 20
10036.44439530622
 40
4.0
100
AcDbArc
 50
180.0
 51
-138.590377890781
  0
ARC
  5
2C1
100
AcDbEntity
  8
1
  6
CONTINUOUS
 62
           3
100
AcDbCircle
 10
565.475916532364
 20
10059.44439530622
 40
1.0
100
AcDbArc
 50
-90.0
 51
0.0
  0
ARC
  5
2C0
100
AcDbEntity
  8
1
  6
CONTINUOUS
 62
           3
100
AcDbCircle
 10
519.975916532363
 20
10091.44439530622
 40
2.0
100
AcDbArc
 50
90.0
 51
180.0
  0
ARC
  5
2BF
100
AcDbEntity
  8
1
  6
CONTINUOUS
 62
           3
100
AcDbCircle
 10
564.475916532364
 20
10091.44439530622
 40
2.0
100
AcDbArc
 50
0.0
 51
90.0
  0
ARC
  5
2BE
100
AcDbEntity
  8
1
  6
CONTINUOUS
 62
           3
100
AcDbCircle
 10
565.475916532364
 20
10045.44439530622
 40
1.0
100
AcDbArc
 50
0.0
 51
90.0
  0
ARC
  5
2BD
100
AcDbEntity
  8
1
  6
CONTINUOUS
 62
           3
100
AcDbCircle
 10
519.975916532363
 20
10013.44439530622
 40
2.0
100
AcDbArc
 50
180.0
 51
-90.0
  0
ARC
  5
2BC
100
AcDbEntity
  8
1
  6
CONTINUOUS
 62
           3
100
AcDbCircle
 10
564.475916532364
 20
10013.44439530622
 40
2.0
100
AcDbArc
 50
-90.0
 51
0.0
  0
ARC
  5
2BB
100
AcDbEntity
  8
1
  6
CONTINUOUS
 62
           3
100
AcDbCircle
 10
518.975916532363
 20
9933.50756753122
 40
1.0
100
AcDbArc
 50
90.0
 51
180.0
  0
ARC
  5
2BA
100
AcDbEntity
  8
1
  6
CONTINUOUS
 62
           3
100
AcDbCircle
 10
518.975916532363
 20
9896.50756753122
 40
1.0
100
AcDbArc
 50
180.0
 51
-90.0
  0
ARC
  5
2B9
100
AcDbEntity
  8
1
  6
CONTINUOUS
 62
           3
100
AcDbCircle
 10
927.974132058577
 20
10038.44439530622
 40
5.0
100
AcDbArc
 50
0.0
 51
62.895394751651
  0
ARC
  5
2B8
100
AcDbEntity
  8
1
  6
DOTTED
 62
           1
100
AcDbCircle
 10
927.974132058577
 20
10038.44439530622
 40
5.000000000001
100
AcDbArc
 50
62.895394751651
 51
90.0
  0
ARC
  5
2B7
100
AcDbEntity
  8
1
  6
CONTINUOUS
 62
           3
100
AcDbCircle
 10
927.974132058577
 20
10066.44439530622
 40
5.0
100
AcDbArc
 50
-90.0
 51
0.0
  0
ARC
  5
2B6
100
AcDbEntity
  8
1
  6
CONTINUOUS
 62
           3
100
AcDbCircle
 10
934.474132058577
 20
9879.00756753122
 40
1.5
100
AcDbArc
 50
180.0
 51
-90.0
  0
ARC
  5
2B5
100
AcDbEntity
  8
1
  6
CONTINUOUS
 62
           3
100
AcDbCircle
 10
934.474132058577
 20
9951.00756753122
 40
1.5
100
AcDbArc
 50
90.0
 51
180.0
  0
ARC
  5
2B4
100
AcDbEntity
  8
1
  6
CONTINUOUS
 62
           3
100
AcDbCircle
 10
934.474132058577
 20
10075.94439530622
 40
1.5
100
AcDbArc
 50
90.0
 51
180.0
  0
ARC
  5
2B3
100
AcDbEntity
  8
1
  6
CONTINUOUS
 62
           3
100
AcDbCircle
 10
934.474132058577
 20
10028.94439530622
 40
1.5
100
AcDbArc
 50
180.0
 51
-90.0
  0
ARC
  5
2B2
100
AcDbEntity
  8
1
  6
CONTINUOUS
 62
           3
100
AcDbCircle
 10
774.475916532364
 20
9903.50756753122
 40
0.5
100
AcDbArc
 50
0.0
 51
90.0
  0
ARC
  5
2B1
100
AcDbEntity
  8
1
  6
CONTINUOUS
 62
           3
100
AcDbCircle
 10
765.475916532364
 20
9903.50756753122
 40
0.5
100
AcDbArc
 50
90.0
 51
180.0
  0
ARC
  5
2B0
100
AcDbEntity
  8
1
  6
CONTINUOUS
 62
           3
100
AcDbCircle
 10
765.475916532364
 20
9871.00756753122
 40
0.5
100
AcDbArc
 50
180.0
 51
-90.0
  0
ARC
  5
2AF
100
AcDbEntity
  8
1
  6
CONTINUOUS
 62
           3
100
AcDbCircle
 10
774.475916532364
 20
9871.00756753122
 40
0.5
100
AcDbArc
 50
-90.0
 51
0.0
  0
ARC
  5
2AE
100
AcDbEntity
  8
1
  6
CONTINUOUS
 62
           3
100
AcDbCircle
 10
906.475916532364
 20
9871.00756753122
 40
0.5
100
AcDbArc
 50
-90.0
 51
0.0
  0
ARC
  5
2AD
100
AcDbEntity
  8
1
  6
CONTINUOUS
 62
           3
100
AcDbCircle
 10
897.475916532364
 20
9871.00756753122
 40
0.5
100
AcDbArc
 50
180.0
 51
-90.0
  0
ARC
  5
2AC
100
AcDbEntity
  8
1
  6
CONTINUOUS
 62
           3
100
AcDbCircle
 10
591.296424608052
 20
9904.00756753122
 40
10.0
100
AcDbArc
 50
-90.0
 51
-60.000000000007
  0
ARC
  5
2AB
100
AcDbEntity
  8
1
  6
CONTINUOUS
 62
           3
100
AcDbCircle
 10
897.475916532364
 20
9903.50756753122
 40
0.5
100
AcDbArc
 50
90.0
 51
180.0
  0
ARC
  5
2AA
100
AcDbEntity
  8
1
  6
CONTINUOUS
 62
           3
100
AcDbCircle
 10
906.475916532364
 20
9903.50756753122
 40
0.5
100
AcDbArc
 50
0.0
 51
90.0
  0
ARC
  5
2A9
100
AcDbEntity
  8
1
  6
CONTINUOUS
 62
           3
100
AcDbCircle
 10
909.975916532364
 20
9907.00756753122
 40
3.0
100
AcDbArc
 50
180.0
 51
-90.0
  0
ARC
  5
2A8
100
AcDbEntity
  8
1
  6
CONTINUOUS
 62
           3
100
AcDbCircle
 10
909.975916532364
 20
9923.00756753122
 40
3.0
100
AcDbArc
 50
90.0
 51
180.0
  0
ARC
  5
2A7
100
AcDbEntity
  8
1
  6
CONTINUOUS
 62
           3
100
AcDbCircle
 10
893.975916532364
 20
9923.00756753122
 40
3.0
100
AcDbArc
 50
0.0
 51
90.0
  0
ARC
  5
2A6
100
AcDbEntity
  8
1
  6
CONTINUOUS
 62
           3
100
AcDbCircle
 10
893.975916532364
 20
9907.00756753122
 40
3.0
100
AcDbArc
 50
-90.0
 51
0.0
  0
ARC
  5
2A5
100
AcDbEntity
  8
1
  6
CONTINUOUS
 62
           3
100
AcDbCircle
 10
827.975916532364
 20
9907.00756753122
 40
3.0
100
AcDbArc
 50
-90.0
 51
0.0
  0
ARC
  5
2A4
100
AcDbEntity
  8
1
  6
CONTINUOUS
 62
           3
100
AcDbCircle
 10
827.975916532364
 20
9923.00756753122
 40
3.0
100
AcDbArc
 50
0.0
 51
90.0
  0
ARC
  5
2A3
100
AcDbEntity
  8
1
  6
CONTINUOUS
 62
           3
100
AcDbCircle
 10
843.975916532364
 20
9923.00756753122
 40
3.0
100
AcDbArc
 50
90.0
 51
180.0
  0
ARC
  5
2A2
100
AcDbEntity
  8
1
  6
CONTINUOUS
 62
           3
100
AcDbCircle
 10
843.975916532364
 20
9907.00756753122
 40
3.0
100
AcDbArc
 50
180.0
 51
-90.0
  0
ARC
  5
2A1
100
AcDbEntity
  8
1
  6
CONTINUOUS
 62
           3
100
AcDbCircle
 10
615.707967339932
 20
9935.00756753122
 40
10.0
100
AcDbArc
 50
-120.0
 51
-90.0
  0
ARC
  5
2A0
100
AcDbEntity
  8
1
  6
CONTINUOUS
 62
           3
100
AcDbCircle
 10
615.707967339932
 20
9895.00756753122
 40
10.0
100
AcDbArc
 50
90.0
 51
120.0
  0
ARC
  5
29F
100
AcDbEntity
  8
1
  6
CONTINUOUS
 62
           3
100
AcDbCircle
 10
591.296424608052
 20
9926.00756753122
 40
10.0
100
AcDbArc
 50
60.0
 51
90.0
  0
ARC
  5
29E
100
AcDbEntity
  8
1
  6
CONTINUOUS
 62
           3
100
AcDbCircle
 10
587.97770100615
 20
9905.00756753122
 40
1.0
100
AcDbArc
 50
-90.0
 51
0.0
  0
ARC
  5
29D
100
AcDbEntity
  8
1
  6
CONTINUOUS
 62
           3
100
AcDbCircle
 10
587.97770100615
 20
9925.00756753122
 40
1.0
100
AcDbArc
 50
0.0
 51
90.0
  0
ARC
  5
29C
100
AcDbEntity
  8
1
  6
CONTINUOUS
 62
           3
100
AcDbCircle
 10
569.975916532363
 20
9895.00756753122
 40
1.0
100
AcDbArc
 50
180.0
 51
-90.0
  0
ARC
  5
29B
100
AcDbEntity
  8
1
  6
CONTINUOUS
 62
           3
100
AcDbCircle
 10
586.47770100615
 20
9905.50756753122
 40
0.5
100
AcDbArc
 50
-90.0
 51
0.0
  0
ARC
  5
29A
100
AcDbEntity
  8
1
  6
CONTINUOUS
 62
           3
100
AcDbCircle
 10
586.47770100615
 20
9924.50756753122
 40
0.5
100
AcDbArc
 50
0.0
 51
90.0
  0
ARC
  5
299
100
AcDbEntity
  8
1
  6
CONTINUOUS
 62
           3
100
AcDbCircle
 10
569.975916532363
 20
9903.00756753122
 40
1.0
100
AcDbArc
 50
90.0
 51
180.0
  0
ARC
  5
298
100
AcDbEntity
  8
1
  6
CONTINUOUS
 62
           3
100
AcDbCircle
 10
569.975916532363
 20
9935.00756753122
 40
1.0
100
AcDbArc
 50
90.0
 51
180.0
  0
ARC
  5
297
100
AcDbEntity
  8
1
  6
CONTINUOUS
 62
           3
100
AcDbCircle
 10
569.975916532363
 20
9927.00756753122
 40
1.0
100
AcDbArc
 50
180.0
 51
-90.0
  0
ARC
  5
296
100
AcDbEntity
  8
1
  6
CONTINUOUS
 62
           3
100
AcDbCircle
 10
741.975916532364
 20
9927.00756753122
 40
1.0
100
AcDbArc
 50
180.0
 51
-90.0
  0
ARC
  5
295
100
AcDbEntity
  8
1
  6
CONTINUOUS
 62
           3
100
AcDbCircle
 10
741.975916532364
 20
9935.00756753122
 40
1.0
100
AcDbArc
 50
90.0
 51
180.0
  0
ARC
  5
294
100
AcDbEntity
  8
1
  6
CONTINUOUS
 62
           3
100
AcDbCircle
 10
741.975916532364
 20
9903.00756753122
 40
1.0
100
AcDbArc
 50
90.0
 51
180.0
  0
ARC
  5
293
100
AcDbEntity
  8
1
  6
CONTINUOUS
 62
           3
100
AcDbCircle
 10
758.47770100615
 20
9924.50756753122
 40
0.5
100
AcDbArc
 50
0.0
 51
90.0
  0
ARC
  5
292
100
AcDbEntity
  8
1
  6
CONTINUOUS
 62
           3
100
AcDbCircle
 10
758.47770100615
 20
9905.50756753122
 40
0.5
100
AcDbArc
 50
-90.0
 51
0.0
  0
ARC
  5
291
100
AcDbEntity
  8
1
  6
CONTINUOUS
 62
           3
100
AcDbCircle
 10
741.975916532364
 20
9895.00756753122
 40
1.0
100
AcDbArc
 50
180.0
 51
-90.0
  0
ARC
  5
290
100
AcDbEntity
  8
1
  6
CONTINUOUS
 62
           3
100
AcDbCircle
 10
929.975916532364
 20
9895.00756753122
 40
1.0
100
AcDbArc
 50
-90.0
 51
0.0
  0
ARC
  5
28F
100
AcDbEntity
  8
1
  6
CONTINUOUS
 62
           3
100
AcDbCircle
 10
913.474132058577
 20
9905.50756753122
 40
0.5
100
AcDbArc
 50
180.0
 51
-90.0
  0
ARC
  5
28E
100
AcDbEntity
  8
1
  6
CONTINUOUS
 62
           3
100
AcDbCircle
 10
913.474132058577
 20
9924.50756753122
 40
0.5
100
AcDbArc
 50
90.0
 51
180.0
  0
ARC
  5
28D
100
AcDbEntity
  8
1
  6
CONTINUOUS
 62
           3
100
AcDbCircle
 10
931.474132058577
 20
9903.50756753122
 40
1.5
100
AcDbArc
 50
0.0
 51
90.0
  0
ARC
  5
28C
100
AcDbEntity
  8
1
  6
CONTINUOUS
 62
           3
100
AcDbCircle
 10
931.474132058577
 20
9926.50756753122
 40
1.5
100
AcDbArc
 50
-90.0
 51
0.0
  0
ARC
  5
28B
100
AcDbEntity
  8
1
  6
CONTINUOUS
 62
           3
100
AcDbCircle
 10
929.975916532364
 20
9903.00756753122
 40
1.0
100
AcDbArc
 50
0.0
 51
90.0
  0
ARC
  5
28A
100
AcDbEntity
  8
1
  6
CONTINUOUS
 62
           3
100
AcDbCircle
 10
929.975916532364
 20
9935.00756753122
 40
1.0
100
AcDbArc
 50
0.0
 51
90.0
  0
ARC
  5
289
100
AcDbEntity
  8
1
  6
CONTINUOUS
 62
           3
100
AcDbCircle
 10
929.975916532364
 20
9927.00756753122
 40
1.0
100
AcDbArc
 50
-90.0
 51
0.0
  0
ARC
  5
288
100
AcDbEntity
  8
1
  6
CONTINUOUS
 62
           3
100
AcDbCircle
 10
565.475916532364
 20
9899.00756753122
 40
1.5
100
AcDbArc
 50
-90.0
 51
0.0
  0
ARC
  5
287
100
AcDbEntity
  8
1
  6
CONTINUOUS
 62
           3
100
AcDbCircle
 10
565.475916532364
 20
9931.00756753122
 40
1.5
100
AcDbArc
 50
0.0
 51
90.0
  0
ARC
  5
286
100
AcDbEntity
  8
1
  6
CONTINUOUS
 62
           3
100
AcDbCircle
 10
568.975916532364
 20
9927.00756753122
 40
2.0
100
AcDbArc
 50
180.0
 51
-90.0
  0
ARC
  5
285
100
AcDbEntity
  8
1
  6
CONTINUOUS
 62
           3
100
AcDbCircle
 10
568.975916532364
 20
9903.00756753122
 40
2.0
100
AcDbArc
 50
90.0
 51
180.0
  0
ARC
  5
284
100
AcDbEntity
  8
1
  6
CONTINUOUS
 62
           3
100
AcDbCircle
 10
567.475916532364
 20
9924.50756753122
 40
0.5
100
AcDbArc
 50
90.0
 51
180.0
  0
ARC
  5
283
100
AcDbEntity
  8
1
  6
CONTINUOUS
 62
           3
100
AcDbCircle
 10
567.475916532364
 20
9905.50756753122
 40
0.5
100
AcDbArc
 50
180.0
 51
-90.0
  0
ARC
  5
282
100
AcDbEntity
  8
1
  6
CONTINUOUS
 62
           3
100
AcDbCircle
 10
566.475916532364
 20
10056.94439530622
 40
0.5
100
AcDbArc
 50
0.0
 51
90.0
  0
ARC
  5
281
100
AcDbEntity
  8
1
  6
CONTINUOUS
 62
           3
100
AcDbCircle
 10
566.475916532364
 20
10047.94439530622
 40
0.5
100
AcDbArc
 50
-90.0
 51
0.0
  0
ARC
  5
280
100
AcDbEntity
  8
1
  6
CONTINUOUS
 62
           3
100
AcDbCircle
 10
564.975916532364
 20
10045.44439530622
 40
2.0
100
AcDbArc
 50
0.0
 51
90.0
  0
ARC
  5
27F
100
AcDbEntity
  8
1
  6
CONTINUOUS
 62
           3
100
AcDbCircle
 10
567.975916532364
 20
10044.44439530622
 40
1.0
100
AcDbArc
 50
180.0
 51
-90.0
  0
ARC
  5
27E
100
AcDbEntity
  8
1
  6
CONTINUOUS
 62
           3
100
AcDbCircle
 10
567.975916532364
 20
10060.44439530622
 40
1.0
100
AcDbArc
 50
90.0
 51
180.0
  0
ARC
  5
27D
100
AcDbEntity
  8
1
  6
CONTINUOUS
 62
           3
100
AcDbCircle
 10
564.975916532364
 20
10059.44439530622
 40
2.0
100
AcDbArc
 50
-90.0
 51
0.0
  0
ARC
  5
27C
100
AcDbEntity
  8
1
  6
CONTINUOUS
 62
           3
100
AcDbCircle
 10
520.975916532364
 20
10068.44439530622
 40
3.999999999997
100
AcDbArc
 50
138.590377890781
 51
180.0
  0
ARC
  5
27B
100
AcDbEntity
  8
1
  6
CONTINUOUS
 62
           3
100
AcDbCircle
 10
634.475916532364
 20
9882.00756753122
 40
0.5
100
AcDbArc
 50
-90.0
 51
0.0
  0
ARC
  5
27A
100
AcDbEntity
  8
1
  6
CONTINUOUS
 62
           3
100
AcDbCircle
 10
625.475916532364
 20
9882.00756753122
 40
0.5
100
AcDbArc
 50
180.0
 51
-90.0
  0
ARC
  5
279
100
AcDbEntity
  8
1
  6
CONTINUOUS
 62
           3
100
AcDbCircle
 10
625.475916532364
 20
9914.50756753122
 40
0.5
100
AcDbArc
 50
90.0
 51
180.0
  0
ARC
  5
278
100
AcDbEntity
  8
1
  6
CONTINUOUS
 62
           3
100
AcDbCircle
 10
634.475916532364
 20
9914.50756753122
 40
0.5
100
AcDbArc
 50
0.0
 51
90.0
  0
ARC
  5
277
100
AcDbEntity
  8
1
  6
CONTINUOUS
 62
           3
100
AcDbCircle
 10
625.375916532364
 20
9915.00756753122
 40
0.5
100
AcDbArc
 50
90.0
 51
180.0
  0
ARC
  5
276
100
AcDbEntity
  8
1
  6
CONTINUOUS
 62
           3
100
AcDbCircle
 10
634.575916532364
 20
9915.00756753122
 40
0.5
100
AcDbArc
 50
0.0
 51
90.0
  0
ARC
  5
275
100
AcDbEntity
  8
1
  6
CONTINUOUS
 62
           3
100
AcDbCircle
 10
1013.63628503086
 20
9856.50756753122
 40
4.0
100
AcDbArc
 50
180.0
 51
-90.0
  0
ARC
  5
274
100
AcDbEntity
  8
1
  6
CONTINUOUS
 62
           3
100
AcDbCircle
 10
1013.63628503086
 20
9973.50756753122
 40
4.0
100
AcDbArc
 50
90.0
 51
180.0
  0
ARC
  5
273
100
AcDbEntity
  8
1
  6
CONTINUOUS
 62
           3
100
AcDbCircle
 10
1100.63628503086
 20
9973.50756753122
 40
4.0
100
AcDbArc
 50
0.0
 51
90.0
  0
ARC
  5
272
100
AcDbEntity
  8
1
  6
CONTINUOUS
 62
           3
100
AcDbCircle
 10
1100.63628503086
 20
9856.50756753122
 40
4.0
100
AcDbArc
 50
-90.0
 51
0.0
  0
ARC
  5
271
100
AcDbEntity
  8
1
  6
CONTINUOUS
 62
           6
100
AcDbCircle
 10
1041.13628503086
 20
9943.50756753122
 40
0.5
100
AcDbArc
 50
-90.0
 51
0.0
  0
ARC
  5
270
100
AcDbEntity
  8
1
  6
CONTINUOUS
 62
           6
100
AcDbCircle
 10
1041.13628503086
 20
9941.50756753122
 40
0.5
100
AcDbArc
 50
0.0
 51
90.0
  0
ARC
  5
26F
100
AcDbEntity
  8
1
  6
CONTINUOUS
 62
           6
100
AcDbCircle
 10
1043.13628503086
 20
9941.50756753122
 40
0.5
100
AcDbArc
 50
90.0
 51
180.0
  0
ARC
  5
26E
100
AcDbEntity
  8
1
  6
CONTINUOUS
 62
           6
100
AcDbCircle
 10
1043.13628503086
 20
9943.50756753122
 40
0.5
100
AcDbArc
 50
180.0
 51
-90.0
  0
ARC
  5
26D
100
AcDbEntity
  8
1
  6
CONTINUOUS
 62
           6
100
AcDbCircle
 10
1071.13628503086
 20
9943.50756753122
 40
0.5
100
AcDbArc
 50
-90.0
 51
0.0
  0
ARC
  5
26C
100
AcDbEntity
  8
1
  6
CONTINUOUS
 62
           6
100
AcDbCircle
 10
1071.13628503086
 20
9941.50756753122
 40
0.5
100
AcDbArc
 50
0.0
 51
90.0
  0
ARC
  5
26B
100
AcDbEntity
  8
1
  6
CONTINUOUS
 62
           6
100
AcDbCircle
 10
1073.13628503086
 20
9941.50756753122
 40
0.5
100
AcDbArc
 50
90.0
 51
180.0
  0
ARC
  5
26A
100
AcDbEntity
  8
1
  6
CONTINUOUS
 62
           6
100
AcDbCircle
 10
1073.13628503086
 20
9943.50756753122
 40
0.5
100
AcDbArc
 50
180.0
 51
-90.0
  0
ARC
  5
269
100
AcDbEntity
  8
1
  6
CONTINUOUS
 62
           6
100
AcDbCircle
 10
1073.13628503086
 20
9886.50756753122
 40
0.5
100
AcDbArc
 50
90.0
 51
180.0
  0
ARC
  5
268
100
AcDbEntity
  8
1
  6
CONTINUOUS
 62
           6
100
AcDbCircle
 10
1073.13628503086
 20
9888.50756753122
 40
0.5
100
AcDbArc
 50
180.0
 51
-90.0
  0
ARC
  5
267
100
AcDbEntity
  8
1
  6
CONTINUOUS
 62
           6
100
AcDbCircle
 10
1071.13628503086
 20
9888.50756753122
 40
0.5
100
AcDbArc
 50
-90.0
 51
0.0
  0
ARC
  5
266
100
AcDbEntity
  8
1
  6
CONTINUOUS
 62
           6
100
AcDbCircle
 10
1071.13628503086
 20
9886.50756753122
 40
0.5
100
AcDbArc
 50
0.0
 51
90.0
  0
ARC
  5
265
100
AcDbEntity
  8
1
  6
CONTINUOUS
 62
           6
100
AcDbCircle
 10
1043.13628503086
 20
9886.50756753122
 40
0.5
100
AcDbArc
 50
90.0
 51
180.0
  0
ARC
  5
264
100
AcDbEntity
  8
1
  6
CONTINUOUS
 62
           6
100
AcDbCircle
 10
1043.13628503086
 20
9888.50756753122
 40
0.5
100
AcDbArc
 50
180.0
 51
-90.0
  0
ARC
  5
263
100
AcDbEntity
  8
1
  6
CONTINUOUS
 62
           6
100
AcDbCircle
 10
1041.13628503086
 20
9888.50756753122
 40
0.5
100
AcDbArc
 50
-90.0
 51
0.0
  0
ARC
  5
262
100
AcDbEntity
  8
1
  6
CONTINUOUS
 62
           6
100
AcDbCircle
 10
1041.13628503086
 20
9886.50756753122
 40
0.5
100
AcDbArc
 50
0.0
 51
90.0
  0
ARC
  5
261
100
AcDbEntity
  8
1
  6
CONTINUOUS
 62
           3
100
AcDbCircle
 10
459.588057409066
 20
9965.00756753122
 40
2.600000000002
100
AcDbArc
 50
90.0
 51
-90.0
  0
ARC
  5
260
100
AcDbEntity
  8
1
  6
CONTINUOUS
 62
           3
100
AcDbCircle
 10
466.388057409066
 20
9965.00756753122
 40
2.599999999999
100
AcDbArc
 50
-90.0
 51
90.0
  0
ARC
  5
25F
100
AcDbEntity
  8
1
  6
CONTINUOUS
 62
           3
100
AcDbCircle
 10
365.3922204651
 20
9967.411730587255
 40
2.6
100
AcDbArc
 50
44.999999999999
 51
135.0
  0
ARC
  5
25E
100
AcDbEntity
  8
1
  6
CONTINUOUS
 62
           3
100
AcDbCircle
 10
365.3922204651
 20
9967.411730587255
 40
2.6
100
AcDbArc
 50
-44.999999999993
 51
44.999999999999
  0
ARC
  5
25D
100
AcDbEntity
  8
1
  6
CONTINUOUS
 62
           3
100
AcDbCircle
 10
360.583894353032
 20
9962.603404475189
 40
2.6
100
AcDbArc
 50
-134.999999999998
 51
-45.000000000019
  0
ARC
  5
25C
100
AcDbEntity
  8
1
  6
CONTINUOUS
 62
           3
100
AcDbCircle
 10
360.583894353032
 20
9962.603404475189
 40
2.6
100
AcDbArc
 50
134.999999999998
 51
-134.999999999998
  0
ARC
  5
25B
100
AcDbEntity
  8
1
  6
CONTINUOUS
 62
           3
100
AcDbCircle
 10
373.083894353032
 20
9950.103404475189
 40
2.6
100
AcDbArc
 50
134.999999999998
 51
-134.999999999998
  0
ARC
  5
25A
100
AcDbEntity
  8
1
  6
CONTINUOUS
 62
           3
100
AcDbCircle
 10
373.083894353032
 20
9950.103404475189
 40
2.6
100
AcDbArc
 50
-134.999999999998
 51
-45.000000000021
  0
ARC
  5
259
100
AcDbEntity
  8
1
  6
CONTINUOUS
 62
           3
100
AcDbCircle
 10
377.8922204651
 20
9954.911730587255
 40
2.6
100
AcDbArc
 50
-44.999999999993
 51
44.999999999999
  0
ARC
  5
258
100
AcDbEntity
  8
1
  6
CONTINUOUS
 62
           3
100
AcDbCircle
 10
377.8922204651
 20
9954.911730587255
 40
2.6
100
AcDbArc
 50
44.999999999999
 51
135.0
  0
ARC
  5
257
100
AcDbEntity
  8
1
  6
CONTINUOUS
 62
           3
100
AcDbCircle
 10
453.888057409066
 20
9952.50756753122
 40
2.6
100
AcDbArc
 50
0.0
 51
90.0
  0
ARC
  5
256
100
AcDbEntity
  8
1
  6
CONTINUOUS
 62
           3
100
AcDbCircle
 10
453.888057409066
 20
9952.50756753122
 40
2.599999999999
100
AcDbArc
 50
-90.0
 51
0.0
  0
ARC
  5
255
100
AcDbEntity
  8
1
  6
CONTINUOUS
 62
           3
100
AcDbCircle
 10
447.088057409066
 20
9952.50756753122
 40
2.6
100
AcDbArc
 50
180.0
 51
-90.0
  0
ARC
  5
254
100
AcDbEntity
  8
1
  6
CONTINUOUS
 62
           3
100
AcDbCircle
 10
447.088057409066
 20
9952.50756753122
 40
2.600000000002
100
AcDbArc
 50
90.0
 51
180.0
  0
ARC
  5
253
100
AcDbEntity
  8
1
  6
CONTINUOUS
 62
           3
100
AcDbCircle
 10
362.988057409066
 20
9868.407567531222
 40
2.599999999999
100
AcDbArc
 50
90.000000000009
 51
180.0
  0
ARC
  5
252
100
AcDbEntity
  8
1
  6
CONTINUOUS
 62
           3
100
AcDbCircle
 10
362.988057409066
 20
9868.407567531222
 40
2.600000000001
100
AcDbArc
 50
0.0
 51
90.000000000009
  0
ARC
  5
251
100
AcDbEntity
  8
1
  6
CONTINUOUS
 62
           3
100
AcDbCircle
 10
362.988057409065
 20
9861.607567531222
 40
2.6
100
AcDbArc
 50
-90.0
 51
0.0
  0
ARC
  5
250
100
AcDbEntity
  8
1
  6
CONTINUOUS
 62
           3
100
AcDbCircle
 10
362.988057409065
 20
9861.607567531222
 40
2.6
100
AcDbArc
 50
180.0
 51
-90.0
  0
ARC
  5
24F
100
AcDbEntity
  8
1
  6
CONTINUOUS
 62
           3
100
AcDbCircle
 10
375.488057409065
 20
9874.107567531222
 40
2.6
100
AcDbArc
 50
180.0
 51
-90.0
  0
ARC
  5
24E
100
AcDbEntity
  8
1
  6
CONTINUOUS
 62
           3
100
AcDbCircle
 10
375.488057409065
 20
9874.107567531222
 40
2.6
100
AcDbArc
 50
-90.0
 51
0.0
  0
ARC
  5
24D
100
AcDbEntity
  8
1
  6
CONTINUOUS
 62
           3
100
AcDbCircle
 10
375.488057409066
 20
9880.907567531222
 40
2.600000000001
100
AcDbArc
 50
0.0
 51
90.000000000009
  0
ARC
  5
24C
100
AcDbEntity
  8
1
  6
CONTINUOUS
 62
           3
100
AcDbCircle
 10
375.488057409066
 20
9880.907567531222
 40
2.599999999999
100
AcDbArc
 50
90.000000000009
 51
180.0
  0
ARC
  5
24B
100
AcDbEntity
  8
1
  6
CONTINUOUS
 62
           6
100
AcDbCircle
 10
403.988057409066
 20
9928.50756753122
 40
0.5
100
AcDbArc
 50
180.0
 51
-90.0
  0
ARC
  5
24A
100
AcDbEntity
  8
1
  6
CONTINUOUS
 62
           6
100
AcDbCircle
 10
403.988057409066
 20
9926.50756753122
 40
0.5
100
AcDbArc
 50
90.0
 51
180.0
  0
ARC
  5
249
100
AcDbEntity
  8
1
  6
CONTINUOUS
 62
           6
100
AcDbCircle
 10
401.988057409066
 20
9926.50756753122
 40
0.5
100
AcDbArc
 50
0.0
 51
90.0
  0
ARC
  5
248
100
AcDbEntity
  8
1
  6
CONTINUOUS
 62
           6
100
AcDbCircle
 10
401.988057409066
 20
9928.50756753122
 40
0.5
100
AcDbArc
 50
-90.0
 51
0.0
  0
ARC
  5
247
100
AcDbEntity
  8
1
  6
CONTINUOUS
 62
           6
100
AcDbCircle
 10
423.988057409066
 20
9928.50756753122
 40
0.5
100
AcDbArc
 50
180.0
 51
-90.0
  0
ARC
  5
246
100
AcDbEntity
  8
1
  6
CONTINUOUS
 62
           6
100
AcDbCircle
 10
423.988057409066
 20
9926.50756753122
 40
0.5
100
AcDbArc
 50
90.0
 51
180.0
  0
ARC
  5
245
100
AcDbEntity
  8
1
  6
CONTINUOUS
 62
           6
100
AcDbCircle
 10
421.988057409066
 20
9926.50756753122
 40
0.5
100
AcDbArc
 50
0.0
 51
90.0
  0
ARC
  5
244
100
AcDbEntity
  8
1
  6
CONTINUOUS
 62
           6
100
AcDbCircle
 10
421.988057409066
 20
9928.50756753122
 40
0.5
100
AcDbArc
 50
-90.0
 51
0.0
  0
ARC
  5
243
100
AcDbEntity
  8
1
  6
CONTINUOUS
 62
           6
100
AcDbCircle
 10
421.988057409066
 20
9901.50756753122
 40
0.5
100
AcDbArc
 50
0.0
 51
90.0
  0
ARC
  5
242
100
AcDbEntity
  8
1
  6
CONTINUOUS
 62
           6
100
AcDbCircle
 10
421.988057409066
 20
9903.50756753122
 40
0.5
100
AcDbArc
 50
-90.0
 51
0.0
  0
ARC
  5
241
100
AcDbEntity
  8
1
  6
CONTINUOUS
 62
           6
100
AcDbCircle
 10
423.988057409066
 20
9903.50756753122
 40
0.5
100
AcDbArc
 50
180.0
 51
-90.0
  0
ARC
  5
240
100
AcDbEntity
  8
1
  6
CONTINUOUS
 62
           6
100
AcDbCircle
 10
423.988057409066
 20
9901.50756753122
 40
0.5
100
AcDbArc
 50
90.0
 51
180.0
  0
ARC
  5
23F
100
AcDbEntity
  8
1
  6
CONTINUOUS
 62
           6
100
AcDbCircle
 10
401.988057409066
 20
9901.50756753122
 40
0.5
100
AcDbArc
 50
0.0
 51
90.0
  0
ARC
  5
23E
100
AcDbEntity
  8
1
  6
CONTINUOUS
 62
           6
100
AcDbCircle
 10
401.988057409066
 20
9903.50756753122
 40
0.5
100
AcDbArc
 50
-90.0
 51
0.0
  0
ARC
  5
23D
100
AcDbEntity
  8
1
  6
CONTINUOUS
 62
           6
100
AcDbCircle
 10
403.988057409066
 20
9903.50756753122
 40
0.5
100
AcDbArc
 50
180.0
 51
-90.0
  0
ARC
  5
23C
100
AcDbEntity
  8
1
  6
CONTINUOUS
 62
           6
100
AcDbCircle
 10
403.988057409066
 20
9901.50756753122
 40
0.5
100
AcDbArc
 50
90.0
 51
180.0
  0
ARC
  5
23B
100
AcDbEntity
  8
1
  6
CONTINUOUS
 62
           3
100
AcDbCircle
 10
836.985987601984
 20
10256.15674668871
 40
2.0
100
AcDbArc
 50
180.0
 51
-90.0
  0
ARC
  5
23A
100
AcDbEntity
  8
1
  6
CONTINUOUS
 62
           3
100
AcDbCircle
 10
836.985987601984
 20
10334.15674668871
 40
2.0
100
AcDbArc
 50
90.0
 51
180.0
  0
ARC
  5
239
100
AcDbEntity
  8
1
  6
CONTINUOUS
 62
           3
100
AcDbCircle
 10
934.474132058577
 20
10271.65674668871
 40
1.5
100
AcDbArc
 50
180.0
 51
-90.0
  0
ARC
  5
238
100
AcDbEntity
  8
1
  6
CONTINUOUS
 62
           3
100
AcDbCircle
 10
934.474132058577
 20
10318.65674668871
 40
1.5
100
AcDbArc
 50
90.0
 51
180.0
  0
ARC
  5
237
100
AcDbEntity
  8
1
  6
CONTINUOUS
 62
           3
100
AcDbCircle
 10
837.985987601984
 20
10311.15674668871
 40
4.000000000004
100
AcDbArc
 50
138.590377890663
 51
180.0
  0
ARC
  5
236
100
AcDbEntity
  8
1
  6
CONTINUOUS
 62
           3
100
AcDbCircle
 10
837.985987601984
 20
10279.15674668871
 40
4.0
100
AcDbArc
 50
180.0
 51
-138.590377890781
  0
ARC
  5
235
100
AcDbEntity
  8
1
  6
CONTINUOUS
 62
           3
100
AcDbCircle
 10
881.985987601984
 20
10302.15674668871
 40
2.0
100
AcDbArc
 50
-89.999999999997
 51
0.0
  0
ARC
  5
234
100
AcDbEntity
  8
1
  6
CONTINUOUS
 62
           3
100
AcDbCircle
 10
884.985987601984
 20
10303.15674668871
 40
1.0
100
AcDbArc
 50
90.0
 51
180.0
  0
ARC
  5
233
100
AcDbEntity
  8
1
  6
CONTINUOUS
 62
           3
100
AcDbCircle
 10
884.985987601984
 20
10287.15674668871
 40
1.0
100
AcDbArc
 50
180.0
 51
-90.0
  0
ARC
  5
232
100
AcDbEntity
  8
1
  6
CONTINUOUS
 62
           3
100
AcDbCircle
 10
881.985987601984
 20
10288.15674668871
 40
2.0
100
AcDbArc
 50
0.0
 51
90.0
  0
ARC
  5
231
100
AcDbEntity
  8
1
  6
CONTINUOUS
 62
           3
100
AcDbCircle
 10
883.485987601984
 20
10290.65674668871
 40
0.5
100
AcDbArc
 50
-90.0
 51
0.0
  0
ARC
  5
230
100
AcDbEntity
  8
1
  6
CONTINUOUS
 62
           3
100
AcDbCircle
 10
883.485987601984
 20
10299.65674668871
 40
0.5
100
AcDbArc
 50
0.0
 51
90.0
  0
ARC
  5
22F
100
AcDbEntity
  8
1
  6
CONTINUOUS
 62
           3
100
AcDbCircle
 10
927.974132058577
 20
10309.15674668871
 40
5.0
100
AcDbArc
 50
-90.0
 51
0.0
  0
ARC
  5
22E
100
AcDbEntity
  8
1
  6
DOTTED
 62
           1
100
AcDbCircle
 10
927.974132058577
 20
10281.15674668871
 40
5.000000000001
100
AcDbArc
 50
62.895394751651
 51
90.0
  0
ARC
  5
22D
100
AcDbEntity
  8
1
  6
CONTINUOUS
 62
           3
100
AcDbCircle
 10
927.974132058577
 20
10281.15674668871
 40
5.0
100
AcDbArc
 50
0.0
 51
62.895394751651
  0
ARC
  5
22C
100
AcDbEntity
  8
1
  6
CONTINUOUS
 62
           3
100
AcDbCircle
 10
882.485987601984
 20
10302.15674668871
 40
1.0
100
AcDbArc
 50
-90.0
 51
0.0
  0
ARC
  5
22B
100
AcDbEntity
  8
1
  6
CONTINUOUS
 62
           3
100
AcDbCircle
 10
881.485987601984
 20
10334.15674668871
 40
2.0
100
AcDbArc
 50
0.0
 51
90.0
  0
ARC
  5
22A
100
AcDbEntity
  8
1
  6
CONTINUOUS
 62
           3
100
AcDbCircle
 10
882.485987601984
 20
10288.15674668871
 40
1.0
100
AcDbArc
 50
0.0
 51
90.0
  0
ARC
  5
229
100
AcDbEntity
  8
1
  6
CONTINUOUS
 62
           3
100
AcDbCircle
 10
881.485987601984
 20
10256.15674668871
 40
2.0
100
AcDbArc
 50
-90.0
 51
0.0
  0
CIRCLE
  5
228
100
AcDbEntity
  8
1
  6
CONTINUOUS
 62
           3
100
AcDbCircle
 10
577.975916532364
 20
10052.44439530622
 40
7.0
  0
CIRCLE
  5
227
100
AcDbEntity
  8
1
  6
CONTINUOUS
 62
           3
100
AcDbCircle
 10
749.975916532364
 20
10052.44439530622
 40
7.0
  0
CIRCLE
  5
226
100
AcDbEntity
  8
1
  6
CONTINUOUS
 62
           3
100
AcDbCircle
 10
921.975916532363
 20
10052.44439530622
 40
7.0
  0
CIRCLE
  5
225
100
AcDbEntity
  8
1
  6
CONTINUOUS
 62
           3
100
AcDbCircle
 10
1022.13628503086
 20
9965.00756753122
 40
4.05
  0
CIRCLE
  5
224
100
AcDbEntity
  8
1
  6
CONTINUOUS
 62
           3
100
AcDbCircle
 10
1092.13628503086
 20
9965.00756753122
 40
4.05
  0
CIRCLE
  5
223
100
AcDbEntity
  8
1
  6
CONTINUOUS
 62
           3
100
AcDbCircle
 10
1092.13628503086
 20
9865.00756753122
 40
4.05
  0
CIRCLE
  5
222
100
AcDbEntity
  8
1
  6
CONTINUOUS
 62
           3
100
AcDbCircle
 10
1022.13628503086
 20
9865.00756753122
 40
4.05
  0
CIRCLE
  5
221
100
AcDbEntity
  8
1
  6
CONTINUOUS
 62
           6
100
AcDbCircle
 10
1042.13628503086
 20
9942.50756753122
 40
3.5
  0
CIRCLE
  5
220
100
AcDbEntity
  8
1
  6
CONTINUOUS
 62
           6
100
AcDbCircle
 10
1072.13628503086
 20
9942.50756753122
 40
3.5
  0
CIRCLE
  5
21F
100
AcDbEntity
  8
1
  6
CONTINUOUS
 62
           6
100
AcDbCircle
 10
1072.13628503086
 20
9887.50756753122
 40
3.5
  0
CIRCLE
  5
21E
100
AcDbEntity
  8
1
  6
CONTINUOUS
 62
           6
100
AcDbCircle
 10
1042.13628503086
 20
9887.50756753122
 40
3.5
  0
CIRCLE
  5
21D
100
AcDbEntity
  8
1
  6
CONTINUOUS
 62
           3
100
AcDbCircle
 10
462.988057409066
 20
9865.00756753122
 40
2.6
  0
CIRCLE
  5
21C
100
AcDbEntity
  8
1
  6
CONTINUOUS
 62
           3
100
AcDbCircle
 10
450.488057409066
 20
9877.50756753122
 40
2.6
  0
CIRCLE
  5
21B
100
AcDbEntity
  8
1
  6
CONTINUOUS
 62
           6
100
AcDbCircle
 10
402.988057409066
 20
9927.50756753122
 40
3.5
  0
CIRCLE
  5
21A
100
AcDbEntity
  8
1
  6
CONTINUOUS
 62
           6
100
AcDbCircle
 10
422.988057409066
 20
9927.50756753122
 40
3.5
  0
CIRCLE
  5
219
100
AcDbEntity
  8
1
  6
CONTINUOUS
 62
           6
100
AcDbCircle
 10
422.988057409066
 20
9902.50756753122
 40
3.5
  0
CIRCLE
  5
218
100
AcDbEntity
  8
1
  6
CONTINUOUS
 62
           6
100
AcDbCircle
 10
402.988057409066
 20
9902.50756753122
 40
3.5
  0
CIRCLE
  5
217
100
AcDbEntity
  8
1
  6
CONTINUOUS
 62
           3
100
AcDbCircle
 10
908.480952067174
 20
10123.68696528661
 40
7.0
  0
CIRCLE
  5
216
100
AcDbEntity
  8
1
  6
CONTINUOUS
 62
           3
100
AcDbCircle
 10
894.985987601984
 20
10295.15674668871
 40
7.0
  0
CIRCLE
  5
215
100
AcDbEntity
  8
1
  6
CONTINUOUS
 62
           3
100
AcDbCircle
 10
921.975916532363
 20
10295.15674668871
 40
7.0
  0
ARC
  5
214
100
AcDbEntity
  8
1
  6
CONTINUOUS
 62
           3
100
AcDbCircle
 10
546.975916532364
 20
9915.00756753122
 40
19.5
100
AcDbArc
 50
63.823047828334
 51
90.0
  0
ARC
  5
213
100
AcDbEntity
  8
1
  6
DOTTED
 62
           1
100
AcDbCircle
 10
921.975916532363
 20
10052.44439530622
 40
9.0
100
AcDbArc
 50
90.0
 51
-90.0
  0
ARC
  5
212
100
AcDbEntity
  8
1
  6
CONTINUOUS
 62
           3
100
AcDbCircle
 10
921.975916532363
 20
10052.44439530622
 40
9.0
100
AcDbArc
 50
-90.0
 51
90.0
  0
ARC
  5
211
100
AcDbEntity
  8
1
  6
DOTTED
 62
           1
100
AcDbCircle
 10
749.975916532364
 20
10052.44439530622
 40
9.0
100
AcDbArc
 50
-90.000000000001
 51
90.000000000001
  0
ARC
  5
210
100
AcDbEntity
  8
1
  6
CONTINUOUS
 62
           3
100
AcDbCircle
 10
577.975916532364
 20
10052.44439530622
 40
9.0
100
AcDbArc
 50
89.999999999998
 51
180.0
  0
ARC
  5
20F
100
AcDbEntity
  8
1
  6
CONTINUOUS
 62
           3
100
AcDbCircle
 10
577.975916532364
 20
10052.44439530622
 40
9.0
100
AcDbArc
 50
180.0
 51
-89.999999999998
  0
ARC
  5
20E
100
AcDbEntity
  8
1
  6
CONTINUOUS
 62
           3
100
AcDbCircle
 10
749.975916532364
 20
10052.44439530622
 40
9.0
100
AcDbArc
 50
90.000000000001
 51
-90.000000000001
  0
ARC
  5
20D
100
AcDbEntity
  8
1
  6
CONTINUOUS
 62
           3
100
AcDbCircle
 10
577.975916532364
 20
9887.25756753122
 40
49.25
100
AcDbArc
 50
81.82876644005
 51
98.17123355995
  0
ARC
  5
20C
100
AcDbEntity
  8
1
  6
CONTINUOUS
 62
           3
100
AcDbCircle
 10
749.975916532364
 20
9887.25756753122
 40
49.25
100
AcDbArc
 50
81.82876644005
 51
98.17123355995
  0
ARC
  5
20B
100
AcDbEntity
  8
1
  6
CONTINUOUS
 62
           3
100
AcDbCircle
 10
921.975916532364
 20
9887.25756753122
 40
49.25
100
AcDbArc
 50
81.82876644005
 51
98.17123355995
  0
ARC
  5
20A
100
AcDbEntity
  8
1
  6
CONTINUOUS
 62
           3
100
AcDbCircle
 10
412.988057409066
 20
9955.00756753122
 40
9.999999999999
100
AcDbArc
 50
-124.403401743824
 51
-55.596598256175
  0
ARC
  5
209
100
AcDbEntity
  8
1
  6
CONTINUOUS
 62
           3
100
AcDbCircle
 10
362.988057409066
 20
9965.00756753122
 40
10.000000000002
100
AcDbArc
 50
55.596598256187
 51
-145.596598256185
  0
ARC
  5
208
100
AcDbEntity
  8
1
  6
CONTINUOUS
 62
           3
100
AcDbCircle
 10
372.988057409066
 20
9915.00756753122
 40
10.0
100
AcDbArc
 50
-34.403401743815
 51
34.403401743824
  0
ARC
  5
207
100
AcDbEntity
  8
1
  6
CONTINUOUS
 62
           3
100
AcDbCircle
 10
362.988057409066
 20
9865.00756753122
 40
10.000000000001
100
AcDbArc
 50
145.596598256176
 51
-55.596598256175
  0
ARC
  5
206
100
AcDbEntity
  8
1
  6
CONTINUOUS
 62
           3
100
AcDbCircle
 10
412.988057409066
 20
9875.00756753122
 40
10.000000000002
100
AcDbArc
 50
55.596598256186
 51
124.403401743812
  0
ARC
  5
205
100
AcDbEntity
  8
1
  6
CONTINUOUS
 62
           3
100
AcDbCircle
 10
462.988057409066
 20
9865.00756753122
 40
9.999999999999
100
AcDbArc
 50
-124.403401743824
 51
34.403401743824
  0
ARC
  5
204
100
AcDbEntity
  8
1
  6
CONTINUOUS
 62
           3
100
AcDbCircle
 10
462.988057409066
 20
9965.00756753122
 40
10.0
100
AcDbArc
 50
-34.403401743815
 51
124.403401743812
  0
ARC
  5
203
100
AcDbEntity
  8
1
  6
CONTINUOUS
 62
           3
100
AcDbCircle
 10
452.988057409066
 20
9915.00756753122
 40
10.000000000001
100
AcDbArc
 50
145.596598256176
 51
-145.596598256184
  0
ARC
  5
202
100
AcDbEntity
  8
1
  6
CONTINUOUS
 62
           3
100
AcDbCircle
 10
546.975916532364
 20
9915.00756753122
 40
19.5
100
AcDbArc
 50
-63.823047828334
 51
63.823047828334
  0
ARC
  5
201
100
AcDbEntity
  8
1
  6
CONTINUOUS
 62
           3
100
AcDbCircle
 10
546.975916532364
 20
9915.00756753122
 40
19.5
100
AcDbArc
 50
-90.0
 51
-63.823047828334
  0
ARC
  5
200
100
AcDbEntity
  8
1
  6
DOTTED
 62
           1
100
AcDbCircle
 10
577.975916532364
 20
10052.44439530622
 40
9.0
100
AcDbArc
 50
-89.999999999998
 51
89.999999999998
  0
ARC
  5
1FF
100
AcDbEntity
  8
1
  6
DOTTED
 62
           1
100
AcDbCircle
 10
894.985987601984
 20
10295.15674668871
 40
9.0
100
AcDbArc
 50
-89.999999999987
 51
4.5
  0
ARC
  5
1FE
100
AcDbEntity
  8
1
  6
CONTINUOUS
 62
           3
100
AcDbCircle
 10
894.985987601984
 20
10295.15674668871
 40
9.0
100
AcDbArc
 50
4.5
 51
-175.499999999999
  0
ARC
  5
1FD
100
AcDbEntity
  8
1
  6
CONTINUOUS
 62
           3
100
AcDbCircle
 10
908.480952067174
 20
10123.68696528661
 40
8.999999999999
100
AcDbArc
 50
-88.499999999998
 51
1.500000000059
  0
ARC
  5
1FC
100
AcDbEntity
  8
1
  6
CONTINUOUS
 62
           3
100
AcDbCircle
 10
908.480952067174
 20
10123.68696528661
 40
8.999999999999
100
AcDbArc
 50
-178.50000000001
 51
-88.499999999998
  0
ARC
  5
1FB
100
AcDbEntity
  8
1
  6
CONTINUOUS
 62
           3
100
AcDbCircle
 10
921.975916532363
 20
10295.15674668871
 40
8.999999999999
100
AcDbArc
 50
-4.5
 51
175.5
  0
ARC
  5
1FA
100
AcDbEntity
  8
1
  6
DOTTED
 62
           1
100
AcDbCircle
 10
921.975916532363
 20
10295.15674668871
 40
9.0
100
AcDbArc
 50
175.5
 51
-90.0
  0
LINE
  5
1F9
100
AcDbEntity
  8
1
  6
CONTINUOUS
 62
           3
100
AcDbLine
 10
561.975916532364
 20
10058.44439530622
 11
561.975916532364
 21
10057.44439530622
  0
LINE
  5
1F8
100
AcDbEntity
  8
1
  6
CONTINUOUS
 62
           3
100
AcDbLine
 10
531.975916532364
 20
10058.44439530622
 11
531.975916532364
 21
10057.44439530622
  0
LINE
  5
1F7
100
AcDbEntity
  8
1
  6
CONTINUOUS
 62
           3
100
AcDbLine
 10
565.475916532364
 20
10058.44439530622
 11
517.975916532363
 21
10058.44439530622
  0
LINE
  5
1F6
100
AcDbEntity
  8
1
  6
CONTINUOUS
 62
           3
100
AcDbLine
 10
519.975916532364
 20
10058.44439530622
 11
519.975916532364
 21
10046.44439530622
  0
LINE
  5
1F5
100
AcDbEntity
  8
1
  6
CONTINUOUS
 62
           3
100
AcDbLine
 10
517.975916532363
 20
10058.44439530622
 11
517.975916532363
 21
10091.44439530622
  0
LINE
  5
1F4
100
AcDbEntity
  8
1
  6
CONTINUOUS
 62
           3
100
AcDbLine
 10
566.475916532364
 20
10091.44439530622
 11
566.475916532364
 21
10059.44439530622
  0
LINE
  5
1F3
100
AcDbEntity
  8
1
  6
CONTINUOUS
 62
           3
100
AcDbLine
 10
519.975916532363
 20
10093.44439530622
 11
564.475916532364
 21
10093.44439530622
  0
LINE
  5
1F2
100
AcDbEntity
  8
1
  6
CONTINUOUS
 62
           3
100
AcDbLine
 10
566.475916532364
 20
10045.44439530622
 11
566.475916532364
 21
10013.44439530622
  0
LINE
  5
1F1
100
AcDbEntity
  8
1
  6
CONTINUOUS
 62
           3
100
AcDbLine
 10
517.975916532363
 20
10046.44439530622
 11
565.475916532364
 21
10046.44439530622
  0
LINE
  5
1F0
100
AcDbEntity
  8
1
  6
CONTINUOUS
 62
           3
100
AcDbLine
 10
517.975916532363
 20
10013.44439530622
 11
517.975916532363
 21
10046.44439530622
  0
LINE
  5
1EF
100
AcDbEntity
  8
1
  6
CONTINUOUS
 62
           3
100
AcDbLine
 10
564.475916532364
 20
10011.44439530622
 11
519.975916532363
 21
10011.44439530622
  0
LINE
  5
1EE
100
AcDbEntity
  8
1
  6
CONTINUOUS
 62
           3
100
AcDbLine
 10
517.975916532363
 20
9896.50756753122
 11
517.975916532363
 21
9897.50756753122
  0
LINE
  5
1ED
100
AcDbEntity
  8
1
  6
CONTINUOUS
 62
           3
100
AcDbLine
 10
518.975916532363
 20
9934.50756753122
 11
546.975916532364
 21
9934.50756753122
  0
LINE
  5
1EC
100
AcDbEntity
  8
1
  6
CONTINUOUS
 62
           3
100
AcDbLine
 10
546.975916532364
 20
9895.50756753122
 11
518.975916532363
 21
9895.50756753122
  0
LINE
  5
1EB
100
AcDbEntity
  8
1
  6
CONTINUOUS
 62
           3
100
AcDbLine
 10
930.252214349432
 20
10042.895276238811
 11
930.278078419921
 21
10043.223910413761
  0
LINE
  5
1EA
100
AcDbEntity
  8
1
  6
DOTTED
 62
           1
100
AcDbLine
 10
927.974132058577
 20
10043.44439530622
 11
921.975916532363
 21
10043.44439530622
  0
LINE
  5
1E9
100
AcDbEntity
  8
1
  6
CONTINUOUS
 62
           3
100
AcDbLine
 10
932.974132058577
 20
10075.94439530622
 11
932.974132058577
 21
10028.94439530622
  0
LINE
  5
1E8
100
AcDbEntity
  8
1
  6
CONTINUOUS
 62
           3
100
AcDbLine
 10
942.974132058577
 20
10077.44439530622
 11
942.974132058577
 21
10027.44439530622
  0
LINE
  5
1E7
100
AcDbEntity
  8
1
  6
CONTINUOUS
 62
           3
100
AcDbLine
 10
942.974132058577
 20
10027.44439530622
 11
934.474132058577
 21
10027.44439530622
  0
LINE
  5
1E6
100
AcDbEntity
  8
1
  6
CONTINUOUS
 62
           3
100
AcDbLine
 10
921.974132058577
 20
10061.44439530622
 11
927.974132058577
 21
10061.44439530622
  0
LINE
  5
1E5
100
AcDbEntity
  8
1
  6
CONTINUOUS
 62
           3
100
AcDbLine
 10
934.474132058577
 20
10077.44439530622
 11
942.974132058577
 21
10077.44439530622
  0
LINE
  5
1E4
100
AcDbEntity
  8
1
  6
CONTINUOUS
 62
           3
100
AcDbLine
 10
930.278078419921
 20
10043.223910413761
 11
930.948172535961
 21
10051.738263444669
  0
LINE
  5
1E3
100
AcDbEntity
  8
1
  6
CONTINUOUS
 62
           3
100
AcDbLine
 10
567.975916532364
 20
10043.44439530622
 11
749.975916532363
 21
10043.44439530622
  0
LINE
  5
1E2
100
AcDbEntity
  8
1
  6
CONTINUOUS
 62
           3
100
AcDbLine
 10
567.975916532364
 20
10061.44439530622
 11
749.975916532363
 21
10061.44439530622
  0
LINE
  5
1E1
100
AcDbEntity
  8
1
  6
CONTINUOUS
 62
           3
100
AcDbLine
 10
764.975916532364
 20
9894.00756753122
 11
741.975916532364
 21
9894.00756753122
  0
LINE
  5
1E0
100
AcDbEntity
  8
1
  6
CONTINUOUS
 62
           3
100
AcDbLine
 10
774.975916532364
 20
9903.50756753122
 11
774.975916532364
 21
9894.00756753122
  0
LINE
  5
1DF
100
AcDbEntity
  8
1
  6
CONTINUOUS
 62
           3
100
AcDbLine
 10
764.975916532364
 20
9871.00756753122
 11
764.975916532364
 21
9894.00756753122
  0
LINE
  5
1DE
100
AcDbEntity
  8
1
  6
CONTINUOUS
 62
           3
100
AcDbLine
 10
765.475916532364
 20
9904.00756753122
 11
774.475916532364
 21
9904.00756753122
  0
LINE
  5
1DD
100
AcDbEntity
  8
1
  6
CONTINUOUS
 62
           3
100
AcDbLine
 10
764.975916532364
 20
9894.00756753122
 11
764.975916532364
 21
9903.50756753122
  0
LINE
  5
1DC
100
AcDbEntity
  8
1
  6
CONTINUOUS
 62
           3
100
AcDbLine
 10
774.975916532364
 20
9894.00756753122
 11
774.975916532364
 21
9871.00756753122
  0
LINE
  5
1DB
100
AcDbEntity
  8
1
  6
DOTTED
 62
           1
100
AcDbLine
 10
764.975916532364
 20
9894.00756753122
 11
774.975916532364
 21
9894.00756753122
  0
LINE
  5
1DA
100
AcDbEntity
  8
1
  6
DOTTED
 62
           1
100
AcDbLine
 10
764.975916532364
 20
9874.00756753122
 11
774.975916532364
 21
9874.00756753122
  0
LINE
  5
1D9
100
AcDbEntity
  8
1
  6
CONTINUOUS
 62
           3
100
AcDbLine
 10
765.475916532364
 20
9870.50756753122
 11
774.475916532364
 21
9870.50756753122
  0
LINE
  5
1D8
100
AcDbEntity
  8
1
  6
CONTINUOUS
 62
           3
100
AcDbLine
 10
764.875916532364
 20
9894.00756753122
 11
764.875916532364
 21
9904.00756753122
  0
LINE
  5
1D7
100
AcDbEntity
  8
1
  6
CONTINUOUS
 62
           3
100
AcDbLine
 10
775.075916532364
 20
9904.00756753122
 11
775.075916532364
 21
9894.00756753122
  0
LINE
  5
1D6
100
AcDbEntity
  8
1
  6
CONTINUOUS
 62
           3
100
AcDbLine
 10
596.29642460805
 20
9895.347313493377
 11
610.707967339932
 21
9903.667821569065
  0
LINE
  5
1D5
100
AcDbEntity
  8
1
  6
CONTINUOUS
 62
           3
100
AcDbLine
 10
592.975916532364
 20
9894.00756753122
 11
591.706182866146
 21
9894.00756753122
  0
LINE
  5
1D4
100
AcDbEntity
  8
1
  6
CONTINUOUS
 62
           3
100
AcDbLine
 10
896.975916532364
 20
9894.00756753122
 11
774.975916532364
 21
9894.00756753122
  0
LINE
  5
1D3
100
AcDbEntity
  8
1
  6
CONTINUOUS
 62
           3
100
AcDbLine
 10
929.975916532364
 20
9894.00756753122
 11
906.975916532364
 21
9894.00756753122
  0
LINE
  5
1D2
100
AcDbEntity
  8
1
  6
CONTINUOUS
 62
           3
100
AcDbLine
 10
907.075916532364
 20
9904.00756753122
 11
907.075916532363
 21
9894.00756753122
  0
LINE
  5
1D1
100
AcDbEntity
  8
1
  6
CONTINUOUS
 62
           3
100
AcDbLine
 10
896.875916532363
 20
9894.00756753122
 11
896.875916532363
 21
9904.00756753122
  0
LINE
  5
1D0
100
AcDbEntity
  8
1
  6
CONTINUOUS
 62
           3
100
AcDbLine
 10
897.475916532364
 20
9870.50756753122
 11
906.475916532364
 21
9870.50756753122
  0
LINE
  5
1CF
100
AcDbEntity
  8
1
  6
DOTTED
 62
           1
100
AcDbLine
 10
896.975916532364
 20
9874.00756753122
 11
906.975916532364
 21
9874.00756753122
  0
LINE
  5
1CE
100
AcDbEntity
  8
1
  6
DOTTED
 62
           1
100
AcDbLine
 10
896.975916532364
 20
9894.00756753122
 11
906.975916532364
 21
9894.00756753122
  0
LINE
  5
1CD
100
AcDbEntity
  8
1
  6
CONTINUOUS
 62
           3
100
AcDbLine
 10
906.975916532364
 20
9894.00756753122
 11
906.975916532364
 21
9871.00756753122
  0
LINE
  5
1CC
100
AcDbEntity
  8
1
  6
CONTINUOUS
 62
           3
100
AcDbLine
 10
896.975916532364
 20
9894.00756753122
 11
896.975916532364
 21
9903.50756753122
  0
LINE
  5
1CB
100
AcDbEntity
  8
1
  6
CONTINUOUS
 62
           3
100
AcDbLine
 10
897.475916532364
 20
9904.00756753122
 11
906.475916532364
 21
9904.00756753122
  0
LINE
  5
1CA
100
AcDbEntity
  8
1
  6
CONTINUOUS
 62
           3
100
AcDbLine
 10
896.975916532364
 20
9871.00756753122
 11
896.975916532364
 21
9894.00756753122
  0
LINE
  5
1C9
100
AcDbEntity
  8
1
  6
CONTINUOUS
 62
           3
100
AcDbLine
 10
906.975916532364
 20
9903.50756753122
 11
906.975916532364
 21
9894.00756753122
  0
LINE
  5
1C8
100
AcDbEntity
  8
1
  6
CONTINUOUS
 62
           3
100
AcDbLine
 10
616.97770100615
 20
9905.00756753122
 11
615.707967339932
 21
9905.00756753122
  0
LINE
  5
1C7
100
AcDbEntity
  8
1
  6
DOT_CENTER
 62
           1
100
AcDbLine
 10
577.975916532364
 20
10043.44439530622
 11
577.975916532364
 21
10031.86740506647
  0
LINE
  5
1C6
100
AcDbEntity
  8
1
  6
DOT_CENTER
 62
           1
100
AcDbLine
 10
577.975916532364
 20
10061.44439530622
 11
577.975916532364
 21
10043.44439530622
  0
LINE
  5
1C5
100
AcDbEntity
  8
1
  6
CONTINUOUS
 62
           3
100
AcDbLine
 10
577.975916532364
 20
9894.00756753122
 11
591.296424608052
 21
9894.00756753122
  0
LINE
  5
1C4
100
AcDbEntity
  8
1
  6
CONTINUOUS
 62
           3
100
AcDbLine
 10
921.975916532363
 20
10043.44439530622
 11
749.975916532363
 21
10043.44439530622
  0
LINE
  5
1C3
100
AcDbEntity
  8
1
  6
DOT_CENTER
 62
           1
100
AcDbLine
 10
496.327697580551
 20
10052.44439530622
 11
584.975916532364
 21
10052.44439530622
  0
LINE
  5
1C2
100
AcDbEntity
  8
1
  6
CONTINUOUS
 62
           3
100
AcDbLine
 10
909.975916532364
 20
9904.00756753122
 11
910.975916532364
 21
9904.00756753122
  0
LINE
  5
1C1
100
AcDbEntity
  8
1
  6
CONTINUOUS
 62
           3
100
AcDbLine
 10
892.975916532364
 20
9904.00756753122
 11
893.975916532364
 21
9904.00756753122
  0
LINE
  5
1C0
100
AcDbEntity
  8
1
  6
CONTINUOUS
 62
           3
100
AcDbLine
 10
896.975916532364
 20
9907.00756753122
 11
896.975916532364
 21
9923.00756753122
  0
LINE
  5
1BF
100
AcDbEntity
  8
1
  6
CONTINUOUS
 62
           3
100
AcDbLine
 10
906.975916532364
 20
9907.00756753122
 11
906.975916532364
 21
9923.00756753122
  0
LINE
  5
1BE
100
AcDbEntity
  8
1
  6
CONTINUOUS
 62
           3
100
AcDbLine
 10
777.975916532364
 20
9904.00756753122
 11
778.975916532364
 21
9904.00756753122
  0
LINE
  5
1BD
100
AcDbEntity
  8
1
  6
CONTINUOUS
 62
           3
100
AcDbLine
 10
760.975916532364
 20
9904.00756753122
 11
761.975916532364
 21
9904.00756753122
  0
LINE
  5
1BC
100
AcDbEntity
  8
1
  6
CONTINUOUS
 62
           3
100
AcDbLine
 10
826.975916532364
 20
9904.00756753122
 11
827.975916532364
 21
9904.00756753122
  0
LINE
  5
1BB
100
AcDbEntity
  8
1
  6
CONTINUOUS
 62
           3
100
AcDbLine
 10
843.975916532364
 20
9904.00756753122
 11
844.975916532364
 21
9904.00756753122
  0
LINE
  5
1BA
100
AcDbEntity
  8
1
  6
CONTINUOUS
 62
           3
100
AcDbLine
 10
840.975916532364
 20
9923.00756753122
 11
840.975916532364
 21
9907.00756753122
  0
LINE
  5
1B9
100
AcDbEntity
  8
1
  6
CONTINUOUS
 62
           3
100
AcDbLine
 10
912.974132058577
 20
9926.00756753122
 11
741.975916532364
 21
9926.00756753122
  0
LINE
  5
1B8
100
AcDbEntity
  8
1
  6
CONTINUOUS
 62
           3
100
AcDbLine
 10
830.975916532364
 20
9923.00756753122
 11
830.975916532364
 21
9907.00756753122
  0
LINE
  5
1B7
100
AcDbEntity
  8
1
  6
CONTINUOUS
 62
           3
100
AcDbLine
 10
740.975916532364
 20
9905.00756753122
 11
634.975916532364
 21
9905.00756753122
  0
LINE
  5
1B6
100
AcDbEntity
  8
1
  6
CONTINUOUS
 62
           3
100
AcDbLine
 10
569.975916532363
 20
9894.00756753122
 11
577.975916532364
 21
9894.00756753122
  0
LINE
  5
1B5
100
AcDbEntity
  8
1
  6
DOT_CENTER
 62
           1
100
AcDbLine
 10
577.975916532364
 20
9887.504095017901
 11
577.975916532364
 21
9894.00756753122
  0
LINE
  5
1B4
100
AcDbEntity
  8
1
  6
CONTINUOUS
 62
           3
100
AcDbLine
 10
613.028475415621
 20
10060.44439530622
 11
613.028475415621
 21
10044.44439530622
  0
LINE
  5
1B3
100
AcDbEntity
  8
1
  6
CONTINUOUS
 62
           3
100
AcDbLine
 10
593.975916532364
 20
10060.44439530622
 11
593.975916532364
 21
10044.44439530622
  0
LINE
  5
1B2
100
AcDbEntity
  8
1
  6
CONTINUOUS
 62
           3
100
AcDbLine
 10
566.975916532364
 20
10056.94439530622
 11
566.975916532364
 21
10047.94439530622
  0
LINE
  5
1B1
100
AcDbEntity
  8
1
  6
CONTINUOUS
 62
           3
100
AcDbLine
 10
758.97770100615
 20
9905.00756753122
 11
740.975916532364
 21
9905.00756753122
  0
LINE
  5
1B0
100
AcDbEntity
  8
1
  6
CONTINUOUS
 62
           3
100
AcDbLine
 10
615.707967339932
 20
9925.00756753122
 11
758.97770100615
 21
9925.00756753122
  0
LINE
  5
1AF
100
AcDbEntity
  8
1
  6
CONTINUOUS
 62
           3
100
AcDbLine
 10
596.296424608052
 20
9934.667821569065
 11
610.707967339932
 21
9926.347313493376
  0
LINE
  5
1AE
100
AcDbEntity
  8
1
  6
CONTINUOUS
 62
           3
100
AcDbLine
 10
588.97770100615
 20
9925.00756753122
 11
588.97770100615
 21
9905.00756753122
  0
LINE
  5
1AD
100
AcDbEntity
  8
1
  6
CONTINUOUS
 62
           3
100
AcDbLine
 10
586.97770100615
 20
9905.00756753122
 11
568.975916532364
 21
9905.00756753122
  0
LINE
  5
1AC
100
AcDbEntity
  8
1
  6
CONTINUOUS
 62
           3
100
AcDbLine
 10
568.975916532364
 20
9904.00756753122
 11
587.97770100615
 21
9904.00756753122
  0
LINE
  5
1AB
100
AcDbEntity
  8
1
  6
CONTINUOUS
 62
           3
100
AcDbLine
 10
568.47770100615
 20
9925.00756753122
 11
568.975916532364
 21
9925.00756753122
  0
LINE
  5
1AA
100
AcDbEntity
  8
1
  6
CONTINUOUS
 62
           3
100
AcDbLine
 10
568.975916532364
 20
9904.00756753122
 11
568.975916532364
 21
9905.00756753122
  0
LINE
  5
1A9
100
AcDbEntity
  8
1
  6
CONTINUOUS
 62
           3
100
AcDbLine
 10
586.97770100615
 20
9904.00756753122
 11
586.97770100615
 21
9905.00756753122
  0
LINE
  5
1A8
100
AcDbEntity
  8
1
  6
CONTINUOUS
 62
           3
100
AcDbLine
 10
586.97770100615
 20
9925.00756753122
 11
586.97770100615
 21
9926.00756753122
  0
LINE
  5
1A7
100
AcDbEntity
  8
1
  6
CONTINUOUS
 62
           3
100
AcDbLine
 10
568.975916532364
 20
9925.00756753122
 11
568.975916532364
 21
9926.00756753122
  0
LINE
  5
1A6
100
AcDbEntity
  8
1
  6
CONTINUOUS
 62
           3
100
AcDbLine
 10
568.975916532363
 20
9895.00756753122
 11
568.975916532364
 21
9903.00756753122
  0
LINE
  5
1A5
100
AcDbEntity
  8
1
  6
CONTINUOUS
 62
           3
100
AcDbLine
 10
587.97770100615
 20
9926.00756753122
 11
568.975916532364
 21
9926.00756753122
  0
LINE
  5
1A4
100
AcDbEntity
  8
1
  6
CONTINUOUS
 62
           3
100
AcDbLine
 10
568.975916532364
 20
9927.00756753122
 11
568.975916532363
 21
9935.00756753122
  0
LINE
  5
1A3
100
AcDbEntity
  8
1
  6
CONTINUOUS
 62
           3
100
AcDbLine
 10
586.97770100615
 20
9924.50756753122
 11
586.97770100615
 21
9905.50756753122
  0
LINE
  5
1A2
100
AcDbEntity
  8
1
  6
CONTINUOUS
 62
           3
100
AcDbLine
 10
568.975916532364
 20
9905.00756753122
 11
568.47770100615
 21
9905.00756753122
  0
LINE
  5
1A1
100
AcDbEntity
  8
1
  6
CONTINUOUS
 62
           3
100
AcDbLine
 10
568.975916532364
 20
9925.00756753122
 11
586.97770100615
 21
9925.00756753122
  0
LINE
  5
1A0
100
AcDbEntity
  8
1
  6
CONTINUOUS
 62
           3
100
AcDbLine
 10
758.97770100615
 20
9924.50756753122
 11
758.97770100615
 21
9905.50756753122
  0
LINE
  5
19F
100
AcDbEntity
  8
1
  6
CONTINUOUS
 62
           3
100
AcDbLine
 10
740.975916532364
 20
9927.00756753122
 11
740.975916532364
 21
9935.00756753122
  0
LINE
  5
19E
100
AcDbEntity
  8
1
  6
CONTINUOUS
 62
           3
100
AcDbLine
 10
758.97770100615
 20
9926.00756753122
 11
740.975916532364
 21
9926.00756753122
  0
LINE
  5
19D
100
AcDbEntity
  8
1
  6
CONTINUOUS
 62
           3
100
AcDbLine
 10
740.975916532364
 20
9895.00756753122
 11
740.975916532364
 21
9903.00756753122
  0
LINE
  5
19C
100
AcDbEntity
  8
1
  6
DOT_CENTER
 62
           1
100
AcDbLine
 10
749.975916532364
 20
9889.00712928485
 11
749.975916532364
 21
9939.121726759702
  0
LINE
  5
19B
100
AcDbEntity
  8
1
  6
CONTINUOUS
 62
           3
100
AcDbLine
 10
740.975916532364
 20
9925.00756753122
 11
740.975916532364
 21
9926.00756753122
  0
LINE
  5
19A
100
AcDbEntity
  8
1
  6
CONTINUOUS
 62
           3
100
AcDbLine
 10
758.97770100615
 20
9925.00756753122
 11
758.97770100615
 21
9926.00756753122
  0
LINE
  5
199
100
AcDbEntity
  8
1
  6
CONTINUOUS
 62
           3
100
AcDbLine
 10
758.97770100615
 20
9904.00756753122
 11
758.97770100615
 21
9905.00756753122
  0
LINE
  5
198
100
AcDbEntity
  8
1
  6
CONTINUOUS
 62
           3
100
AcDbLine
 10
740.975916532364
 20
9904.00756753122
 11
740.975916532364
 21
9905.00756753122
  0
LINE
  5
197
100
AcDbEntity
  8
1
  6
CONTINUOUS
 62
           3
100
AcDbLine
 10
740.975916532364
 20
9904.00756753122
 11
758.97770100615
 21
9904.00756753122
  0
LINE
  5
196
100
AcDbEntity
  8
1
  6
CONTINUOUS
 62
           3
100
AcDbLine
 10
942.974132058577
 20
9877.50756753122
 11
934.474132058577
 21
9877.50756753122
  0
LINE
  5
195
100
AcDbEntity
  8
1
  6
CONTINUOUS
 62
           3
100
AcDbLine
 10
942.974132058577
 20
9965.00756753122
 11
942.974132058577
 21
9944.50756753122
  0
LINE
  5
194
100
AcDbEntity
  8
1
  6
CONTINUOUS
 62
           3
100
AcDbLine
 10
934.474132058577
 20
9952.50756753122
 11
942.974132058577
 21
9952.50756753122
  0
LINE
  5
193
100
AcDbEntity
  8
1
  6
CONTINUOUS
 62
           3
100
AcDbLine
 10
930.975916532364
 20
9905.00756753122
 11
912.974132058577
 21
9905.00756753122
  0
LINE
  5
192
100
AcDbEntity
  8
1
  6
CONTINUOUS
 62
           3
100
AcDbLine
 10
912.974132058577
 20
9904.00756753122
 11
930.975916532364
 21
9904.00756753122
  0
LINE
  5
191
100
AcDbEntity
  8
1
  6
CONTINUOUS
 62
           3
100
AcDbLine
 10
930.975916532364
 20
9925.00756753122
 11
931.474132058577
 21
9925.00756753122
  0
LINE
  5
190
100
AcDbEntity
  8
1
  6
CONTINUOUS
 62
           3
100
AcDbLine
 10
930.975916532364
 20
9905.00756753122
 11
930.975916532364
 21
9904.00756753122
  0
LINE
  5
18F
100
AcDbEntity
  8
1
  6
CONTINUOUS
 62
           3
100
AcDbLine
 10
912.974132058577
 20
9905.00756753122
 11
912.974132058577
 21
9904.00756753122
  0
LINE
  5
18E
100
AcDbEntity
  8
1
  6
CONTINUOUS
 62
           3
100
AcDbLine
 10
912.974132058577
 20
9926.00756753122
 11
912.974132058577
 21
9925.00756753122
  0
LINE
  5
18D
100
AcDbEntity
  8
1
  6
CONTINUOUS
 62
           3
100
AcDbLine
 10
930.975916532364
 20
9926.00756753122
 11
930.975916532364
 21
9925.00756753122
  0
LINE
  5
18C
100
AcDbEntity
  8
1
  6
DOT_CENTER
 62
           1
100
AcDbLine
 10
921.975916532364
 20
9939.121726759702
 11
921.975916532364
 21
9889.00712928485
  0
LINE
  5
18B
100
AcDbEntity
  8
1
  6
CONTINUOUS
 62
           3
100
AcDbLine
 10
930.975916532364
 20
9903.00756753122
 11
930.975916532364
 21
9895.00756753122
  0
LINE
  5
18A
100
AcDbEntity
  8
1
  6
CONTINUOUS
 62
           3
100
AcDbLine
 10
741.975916532364
 20
9904.00756753122
 11
912.974132058577
 21
9904.00756753122
  0
LINE
  5
189
100
AcDbEntity
  8
1
  6
CONTINUOUS
 62
           3
100
AcDbLine
 10
930.975916532364
 20
9926.00756753122
 11
912.974132058577
 21
9926.00756753122
  0
LINE
  5
188
100
AcDbEntity
  8
1
  6
CONTINUOUS
 62
           3
100
AcDbLine
 10
930.975916532364
 20
9935.00756753122
 11
930.975916532364
 21
9927.00756753122
  0
LINE
  5
187
100
AcDbEntity
  8
1
  6
CONTINUOUS
 62
           3
100
AcDbLine
 10
741.975916532364
 20
9936.00756753122
 11
929.975916532364
 21
9936.00756753122
  0
LINE
  5
186
100
AcDbEntity
  8
1
  6
CONTINUOUS
 62
           3
100
AcDbLine
 10
912.974132058577
 20
9905.50756753122
 11
912.974132058577
 21
9924.50756753122
  0
LINE
  5
185
100
AcDbEntity
  8
1
  6
CONTINUOUS
 62
           3
100
AcDbLine
 10
931.474132058577
 20
9905.00756753122
 11
930.975916532364
 21
9905.00756753122
  0
LINE
  5
184
100
AcDbEntity
  8
1
  6
CONTINUOUS
 62
           3
100
AcDbLine
 10
912.974132058577
 20
9925.00756753122
 11
930.975916532364
 21
9925.00756753122
  0
LINE
  5
183
100
AcDbEntity
  8
1
  6
CONTINUOUS
 62
           3
100
AcDbLine
 10
932.974132058577
 20
9879.00756753122
 11
932.974132058577
 21
9951.00756753122
  0
LINE
  5
182
100
AcDbEntity
  8
1
  6
DOTTED
 62
           1
100
AcDbLine
 10
514.975916532363
 20
9967.60756753122
 11
516.975916532363
 21
9967.60756753122
  0
LINE
  5
181
100
AcDbEntity
  8
1
  6
DOTTED
 62
           1
100
AcDbLine
 10
514.975916532363
 20
9962.40756753122
 11
516.975916532363
 21
9962.40756753122
  0
LINE
  5
180
100
AcDbEntity
  8
1
  6
DOT_CENTER
 62
           1
100
AcDbLine
 10
509.201964300801
 20
9965.00756753122
 11
525.741964300801
 21
9965.00756753122
  0
LINE
  5
17F
100
AcDbEntity
  8
1
  6
DOT_CENTER
 62
           1
100
AcDbLine
 10
525.741964300801
 20
9865.00756753122
 11
509.201964300801
 21
9865.00756753122
  0
LINE
  5
17E
100
AcDbEntity
  8
1
  6
DOTTED
 62
           1
100
AcDbLine
 10
516.975916532363
 20
9867.607567531222
 11
514.975916532363
 21
9867.607567531222
  0
LINE
  5
17D
100
AcDbEntity
  8
1
  6
DOTTED
 62
           1
100
AcDbLine
 10
516.975916532363
 20
9862.407567531222
 11
514.975916532363
 21
9862.407567531222
  0
LINE
  5
17C
100
AcDbEntity
  8
1
  6
CONTINUOUS
 62
           3
100
AcDbLine
 10
516.975916532363
 20
9897.50756753122
 11
516.975916532363
 21
9855.00756753122
  0
LINE
  5
17B
100
AcDbEntity
  8
1
  6
CONTINUOUS
 62
           3
100
AcDbLine
 10
516.975916532363
 20
9932.50756753122
 11
516.975916532363
 21
9897.50756753122
  0
LINE
  5
17A
100
AcDbEntity
  8
1
  6
CONTINUOUS
 62
           3
100
AcDbLine
 10
514.975916532363
 20
9975.00756753122
 11
516.975916532363
 21
9975.00756753122
  0
LINE
  5
179
100
AcDbEntity
  8
1
  6
CONTINUOUS
 62
           3
100
AcDbLine
 10
516.975916532363
 20
9855.00756753122
 11
514.975916532363
 21
9855.00756753122
  0
LINE
  5
178
100
AcDbEntity
  8
1
  6
CONTINUOUS
 62
           3
100
AcDbLine
 10
516.975916532363
 20
9975.00756753122
 11
516.975916532363
 21
9932.50756753122
  0
LINE
  5
177
100
AcDbEntity
  8
1
  6
DOT_CENTER
 62
           1
100
AcDbLine
 10
546.975916532364
 20
9941.070958714854
 11
546.975916532364
 21
9887.504095017901
  0
LINE
  5
176
100
AcDbEntity
  8
1
  6
DOT_CENTER
 62
           1
100
AcDbLine
 10
960.503534588631
 20
9915.00756753122
 11
499.388877243536
 21
9915.00756753122
  0
LINE
  5
175
100
AcDbEntity
  8
1
  6
CONTINUOUS
 62
           3
100
AcDbLine
 10
573.475916532364
 20
9905.00756753122
 11
567.475916532364
 21
9905.00756753122
  0
LINE
  5
174
100
AcDbEntity
  8
1
  6
CONTINUOUS
 62
           3
100
AcDbLine
 10
566.975916532364
 20
9924.50756753122
 11
566.975916532364
 21
9905.50756753122
  0
LINE
  5
173
100
AcDbEntity
  8
1
  6
CONTINUOUS
 62
           3
100
AcDbLine
 10
566.975916532364
 20
9927.00756753122
 11
566.975916532364
 21
9931.00756753122
  0
LINE
  5
172
100
AcDbEntity
  8
1
  6
CONTINUOUS
 62
           3
100
AcDbLine
 10
567.475916532364
 20
9925.00756753122
 11
573.475916532364
 21
9925.00756753122
  0
LINE
  5
171
100
AcDbEntity
  8
1
  6
CONTINUOUS
 62
           3
100
AcDbLine
 10
565.475916532364
 20
9897.50756753122
 11
555.578241799406
 21
9897.50756753122
  0
LINE
  5
170
100
AcDbEntity
  8
1
  6
CONTINUOUS
 62
           3
100
AcDbLine
 10
565.475916532364
 20
9932.50756753122
 11
555.578241799406
 21
9932.50756753122
  0
LINE
  5
16F
100
AcDbEntity
  8
1
  6
CONTINUOUS
 62
           3
100
AcDbLine
 10
566.975916532364
 20
9899.00756753122
 11
566.975916532364
 21
9903.00756753122
  0
LINE
  5
16E
100
AcDbEntity
  8
1
  6
CONTINUOUS
 62
           3
100
AcDbLine
 10
514.975916532363
 20
9855.00756753122
 11
514.975916532363
 21
9975.00756753122
  0
LINE
  5
16D
100
AcDbEntity
  8
1
  6
CONTINUOUS
 62
           3
100
AcDbLine
 10
529.475916532364
 20
10057.44439530622
 11
531.975916532364
 21
10057.44439530622
  0
LINE
  5
16C
100
AcDbEntity
  8
1
  6
CONTINUOUS
 62
           3
100
AcDbLine
 10
561.975916532364
 20
10047.44439530622
 11
531.975916532364
 21
10047.44439530622
  0
LINE
  5
16B
100
AcDbEntity
  8
1
  6
CONTINUOUS
 62
           3
100
AcDbLine
 10
531.975916532364
 20
10047.44439530622
 11
531.975916532364
 21
10046.44439530622
  0
LINE
  5
16A
100
AcDbEntity
  8
1
  6
CONTINUOUS
 62
           3
100
AcDbLine
 10
531.975916532364
 20
10057.44439530622
 11
561.975916532364
 21
10057.44439530622
  0
LINE
  5
169
100
AcDbEntity
  8
1
  6
CONTINUOUS
 62
           3
100
AcDbLine
 10
566.475916532364
 20
10047.44439530622
 11
561.975916532364
 21
10047.44439530622
  0
LINE
  5
168
100
AcDbEntity
  8
1
  6
CONTINUOUS
 62
           3
100
AcDbLine
 10
561.975916532364
 20
10047.44439530622
 11
561.975916532364
 21
10046.44439530622
  0
LINE
  5
167
100
AcDbEntity
  8
1
  6
CONTINUOUS
 62
           3
100
AcDbLine
 10
566.975916532364
 20
10060.44439530622
 11
566.975916532364
 21
10059.44439530622
  0
LINE
  5
166
100
AcDbEntity
  8
1
  6
CONTINUOUS
 62
           3
100
AcDbLine
 10
566.975916532364
 20
10056.94439530622
 11
566.975916532364
 21
10048.27282243097
  0
LINE
  5
165
100
AcDbEntity
  8
1
  6
CONTINUOUS
 62
           3
100
AcDbLine
 10
531.975916532364
 20
10047.44439530622
 11
529.475916532364
 21
10047.44439530622
  0
LINE
  5
164
100
AcDbEntity
  8
1
  6
CONTINUOUS
 62
           3
100
AcDbLine
 10
529.475916532364
 20
10047.44439530622
 11
529.475916532364
 21
10057.44439530622
  0
LINE
  5
163
100
AcDbEntity
  8
1
  6
CONTINUOUS
 62
           3
100
AcDbLine
 10
561.975916532364
 20
10057.44439530622
 11
566.475916532364
 21
10057.44439530622
  0
LINE
  5
162
100
AcDbEntity
  8
1
  6
CONTINUOUS
 62
           3
100
AcDbLine
 10
566.975916532364
 20
10045.44439530622
 11
566.975916532364
 21
10044.44439530622
  0
LINE
  5
161
100
AcDbEntity
  8
1
  6
DOT_CENTER
 62
           1
100
AcDbLine
 10
577.975916532364
 20
10073.69740506647
 11
577.975916532364
 21
10061.44439530622
  0
LINE
  5
160
100
AcDbEntity
  8
1
  6
DOT_CENTER
 62
           1
100
AcDbLine
 10
546.975916532364
 20
10102.440423233689
 11
546.975916532364
 21
10003.2818898388
  0
LINE
  5
15F
100
AcDbEntity
  8
1
  6
CONTINUOUS
 62
           3
100
AcDbLine
 10
516.975916532364
 20
10112.44439530622
 11
516.975916532364
 21
9992.44439530622
  0
LINE
  5
15E
100
AcDbEntity
  8
1
  6
CONTINUOUS
 62
           3
100
AcDbLine
 10
514.975916532364
 20
10112.44439530622
 11
516.975916532364
 21
10112.44439530622
  0
LINE
  5
15D
100
AcDbEntity
  8
1
  6
CONTINUOUS
 62
           3
100
AcDbLine
 10
514.975916532364
 20
9992.44439530622
 11
514.975916532364
 21
10112.44439530622
  0
LINE
  5
15C
100
AcDbEntity
  8
1
  6
CONTINUOUS
 62
           3
100
AcDbLine
 10
516.975916532364
 20
9992.44439530622
 11
514.975916532364
 21
9992.44439530622
  0
LINE
  5
15B
100
AcDbEntity
  8
1
  6
DOTTED
 62
           1
100
AcDbLine
 10
514.975916532364
 20
10107.44352044064
 11
516.975916532364
 21
10107.44352044064
  0
LINE
  5
15A
100
AcDbEntity
  8
1
  6
DOTTED
 62
           1
100
AcDbLine
 10
514.975916532364
 20
10097.445484347671
 11
516.975916532364
 21
10097.445484347671
  0
LINE
  5
159
100
AcDbEntity
  8
1
  6
DOT_CENTER
 62
           1
100
AcDbLine
 10
509.201964300801
 20
10102.44439530622
 11
522.47603996027
 21
10102.44439530622
  0
LINE
  5
158
100
AcDbEntity
  8
1
  6
DOTTED
 62
           1
100
AcDbLine
 10
516.975916532364
 20
10008.44439530622
 11
514.975916532364
 21
10008.44439530622
  0
LINE
  5
157
100
AcDbEntity
  8
1
  6
DOTTED
 62
           1
100
AcDbLine
 10
516.975916532364
 20
9996.44439530622
 11
514.975916532364
 21
9996.44439530622
  0
LINE
  5
156
100
AcDbEntity
  8
1
  6
CONTINUOUS
 62
           3
100
AcDbLine
 10
749.975916532363
 20
10061.44439530622
 11
921.975916532363
 21
10061.44439530622
  0
LINE
  5
155
100
AcDbEntity
  8
1
  6
DOT_CENTER
 62
           1
100
AcDbLine
 10
749.975916532364
 20
10034.875416302109
 11
749.975916532363
 21
10070.15541630211
  0
LINE
  5
154
100
AcDbEntity
  8
1
  6
DOT_CENTER
 62
           1
100
AcDbLine
 10
584.975916532364
 20
10052.44439530622
 11
956.083006906498
 21
10052.44439530622
  0
LINE
  5
153
100
AcDbEntity
  8
1
  6
CONTINUOUS
 62
           3
100
AcDbLine
 10
569.975916532363
 20
9936.00756753122
 11
591.296424608052
 21
9936.00756753122
  0
LINE
  5
152
100
AcDbEntity
  8
1
  6
DOT_CENTER
 62
           1
100
AcDbLine
 10
577.975916532364
 20
9894.00756753122
 11
577.975916532364
 21
9941.070958714854
  0
LINE
  5
151
100
AcDbEntity
  8
1
  6
CONTINUOUS
 62
           3
100
AcDbLine
 10
635.075916532364
 20
9915.00756753122
 11
635.075916532364
 21
9905.00756753122
  0
LINE
  5
150
100
AcDbEntity
  8
1
  6
CONTINUOUS
 62
           3
100
AcDbLine
 10
624.875916532364
 20
9905.00756753122
 11
624.875916532364
 21
9915.00756753122
  0
LINE
  5
14F
100
AcDbEntity
  8
1
  6
CONTINUOUS
 62
           3
100
AcDbLine
 10
625.475916532364
 20
9881.50756753122
 11
634.475916532364
 21
9881.50756753122
  0
LINE
  5
14E
100
AcDbEntity
  8
1
  6
DOTTED
 62
           1
100
AcDbLine
 10
624.975916532364
 20
9885.00756753122
 11
634.975916532364
 21
9885.00756753122
  0
LINE
  5
14D
100
AcDbEntity
  8
1
  6
CONTINUOUS
 62
           3
100
AcDbLine
 10
625.475916532364
 20
9915.00756753122
 11
634.475916532364
 21
9915.00756753122
  0
LINE
  5
14C
100
AcDbEntity
  8
1
  6
CONTINUOUS
 62
           3
100
AcDbLine
 10
624.975916532364
 20
9882.00756753122
 11
624.975916532364
 21
9914.50756753122
  0
LINE
  5
14B
100
AcDbEntity
  8
1
  6
CONTINUOUS
 62
           3
100
AcDbLine
 10
625.375916532364
 20
9915.50756753122
 11
634.575916532364
 21
9915.50756753122
  0
LINE
  5
14A
100
AcDbEntity
  8
1
  6
CONTINUOUS
 62
           3
100
AcDbLine
 10
624.975916532364
 20
9905.00756753122
 11
616.97770100615
 21
9905.00756753122
  0
LINE
  5
149
100
AcDbEntity
  8
1
  6
CONTINUOUS
 62
           3
100
AcDbLine
 10
634.975916532364
 20
9914.50756753122
 11
634.975916532364
 21
9882.00756753122
  0
LINE
  5
148
100
AcDbEntity
  8
1
  6
DOTTED
 62
           1
100
AcDbLine
 10
624.975916532364
 20
9905.00756753122
 11
634.975916532364
 21
9905.00756753122
  0
LINE
  5
147
100
AcDbEntity
  8
1
  6
CONTINUOUS
 62
           3
100
AcDbLine
 10
942.974132058577
 20
10099.94439530622
 11
944.974132058577
 21
10099.94439530622
  0
LINE
  5
146
100
AcDbEntity
  8
1
  6
CONTINUOUS
 62
           3
100
AcDbLine
 10
944.974132058577
 20
10099.94439530622
 11
944.974132058577
 21
10004.94439530622
  0
LINE
  5
145
100
AcDbEntity
  8
1
  6
CONTINUOUS
 62
           3
100
AcDbLine
 10
944.974132058577
 20
10004.94439530622
 11
942.974132058577
 21
10004.94439530622
  0
LINE
  5
144
100
AcDbEntity
  8
1
  6
CONTINUOUS
 62
           3
100
AcDbLine
 10
942.974132058577
 20
10004.94439530622
 11
942.974132058577
 21
10099.94439530622
  0
LINE
  5
143
100
AcDbEntity
  8
1
  6
CONTINUOUS
 62
           3
100
AcDbLine
 10
942.974132058577
 20
9977.50756753122
 11
944.974132058577
 21
9977.50756753122
  0
LINE
  5
142
100
AcDbEntity
  8
1
  6
CONTINUOUS
 62
           3
100
AcDbLine
 10
944.974132058577
 20
9977.50756753122
 11
944.974132058577
 21
9852.50756753122
  0
LINE
  5
141
100
AcDbEntity
  8
1
  6
CONTINUOUS
 62
           3
100
AcDbLine
 10
944.974132058577
 20
9852.50756753122
 11
942.974132058577
 21
9852.50756753122
  0
LINE
  5
140
100
AcDbEntity
  8
1
  6
CONTINUOUS
 62
           3
100
AcDbLine
 10
1013.63628503086
 20
9977.50756753122
 11
1100.63628503086
 21
9977.50756753122
  0
LINE
  5
13F
100
AcDbEntity
  8
1
  6
CONTINUOUS
 62
           3
100
AcDbLine
 10
1104.63628503086
 20
9973.50756753122
 11
1104.63628503086
 21
9856.50756753122
  0
LINE
  5
13E
100
AcDbEntity
  8
1
  6
CONTINUOUS
 62
           3
100
AcDbLine
 10
1100.63628503086
 20
9852.50756753122
 11
1013.63628503086
 21
9852.50756753122
  0
LINE
  5
13D
100
AcDbEntity
  8
1
  6
CONTINUOUS
 62
           3
100
AcDbLine
 10
1009.63628503086
 20
9856.50756753122
 11
1009.63628503086
 21
9973.50756753122
  0
LINE
  5
13C
100
AcDbEntity
  8
1
  6
DOT_CENTER
 62
           1
100
AcDbLine
 10
1022.13628503086
 20
9972.37556814096
 11
1022.13628503086
 21
9957.420570091881
  0
LINE
  5
13B
100
AcDbEntity
  8
1
  6
DOT_CENTER
 62
           1
100
AcDbLine
 10
1014.633340057165
 20
9965.00756753122
 11
1029.708942929224
 21
9965.00756753122
  0
LINE
  5
13A
100
AcDbEntity
  8
1
  6
DOT_CENTER
 62
           1
100
AcDbLine
 10
1084.563627132496
 20
9965.00756753122
 11
1099.639230004555
 21
9965.00756753122
  0
LINE
  5
139
100
AcDbEntity
  8
1
  6
DOT_CENTER
 62
           1
100
AcDbLine
 10
1092.13628503086
 20
9957.420570091881
 11
1092.13628503086
 21
9972.37556814096
  0
LINE
  5
138
100
AcDbEntity
  8
1
  6
DOT_CENTER
 62
           1
100
AcDbLine
 10
1092.13628503086
 20
9857.63956692148
 11
1092.13628503086
 21
9872.594564970559
  0
LINE
  5
137
100
AcDbEntity
  8
1
  6
DOT_CENTER
 62
           1
100
AcDbLine
 10
1099.639230004555
 20
9865.00756753122
 11
1084.563627132496
 21
9865.00756753122
  0
LINE
  5
136
100
AcDbEntity
  8
1
  6
DOT_CENTER
 62
           1
100
AcDbLine
 10
1029.708942929224
 20
9865.00756753122
 11
1014.633340057165
 21
9865.00756753122
  0
LINE
  5
135
100
AcDbEntity
  8
1
  6
DOT_CENTER
 62
           1
100
AcDbLine
 10
1022.13628503086
 20
9872.594564970559
 11
1022.13628503086
 21
9857.63956692148
  0
LINE
  5
134
100
AcDbEntity
  8
1
  6
DOT_CENTER
 62
           1
100
AcDbLine
 10
1001.455754141291
 20
9915.00756753122
 11
1116.085700867539
 21
9915.00756753122
  0
LINE
  5
133
100
AcDbEntity
  8
1
  6
DOT_CENTER
 62
           1
100
AcDbLine
 10
1057.13628503086
 20
9986.795638125261
 11
1057.13628503086
 21
9841.75366471654
  0
LINE
  5
132
100
AcDbEntity
  8
1
  6
CONTINUOUS
 62
           6
100
AcDbLine
 10
1041.63628503086
 20
9944.50756753122
 11
1042.63628503086
 21
9944.50756753122
  0
LINE
  5
131
100
AcDbEntity
  8
1
  6
CONTINUOUS
 62
           6
100
AcDbLine
 10
1042.63628503086
 20
9944.50756753122
 11
1042.63628503086
 21
9943.50756753122
  0
LINE
  5
130
100
AcDbEntity
  8
1
  6
CONTINUOUS
 62
           6
100
AcDbLine
 10
1042.63628503086
 20
9940.50756753122
 11
1041.63628503086
 21
9940.50756753122
  0
LINE
  5
12F
100
AcDbEntity
  8
1
  6
CONTINUOUS
 62
           6
100
AcDbLine
 10
1041.63628503086
 20
9940.50756753122
 11
1041.63628503086
 21
9941.50756753122
  0
LINE
  5
12E
100
AcDbEntity
  8
1
  6
CONTINUOUS
 62
           6
100
AcDbLine
 10
1040.13628503086
 20
9943.00756753122
 11
1041.13628503086
 21
9943.00756753122
  0
LINE
  5
12D
100
AcDbEntity
  8
1
  6
CONTINUOUS
 62
           6
100
AcDbLine
 10
1044.13628503086
 20
9943.00756753122
 11
1044.13628503086
 21
9942.00756753122
  0
LINE
  5
12C
100
AcDbEntity
  8
1
  6
CONTINUOUS
 62
           6
100
AcDbLine
 10
1044.13628503086
 20
9942.00756753122
 11
1043.13628503086
 21
9942.00756753122
  0
LINE
  5
12B
100
AcDbEntity
  8
1
  6
CONTINUOUS
 62
           6
100
AcDbLine
 10
1040.13628503086
 20
9942.00756753122
 11
1040.13628503086
 21
9943.00756753122
  0
LINE
  5
12A
100
AcDbEntity
  8
1
  6
CONTINUOUS
 62
           6
100
AcDbLine
 10
1041.63628503086
 20
9943.50756753122
 11
1041.63628503086
 21
9944.50756753122
  0
LINE
  5
129
100
AcDbEntity
  8
1
  6
CONTINUOUS
 62
           6
100
AcDbLine
 10
1043.13628503086
 20
9943.00756753122
 11
1044.13628503086
 21
9943.00756753122
  0
LINE
  5
128
100
AcDbEntity
  8
1
  6
CONTINUOUS
 62
           6
100
AcDbLine
 10
1041.13628503086
 20
9942.00756753122
 11
1040.13628503086
 21
9942.00756753122
  0
LINE
  5
127
100
AcDbEntity
  8
1
  6
CONTINUOUS
 62
           6
100
AcDbLine
 10
1042.63628503086
 20
9941.50756753122
 11
1042.63628503086
 21
9940.50756753122
  0
LINE
  5
126
100
AcDbEntity
  8
1
  6
CONTINUOUS
 62
           6
100
AcDbLine
 10
1071.63628503086
 20
9940.50756753122
 11
1071.63628503086
 21
9941.50756753122
  0
LINE
  5
125
100
AcDbEntity
  8
1
  6
CONTINUOUS
 62
           6
100
AcDbLine
 10
1074.13628503086
 20
9942.00756753122
 11
1073.13628503086
 21
9942.00756753122
  0
LINE
  5
124
100
AcDbEntity
  8
1
  6
CONTINUOUS
 62
           6
100
AcDbLine
 10
1070.13628503086
 20
9943.00756753122
 11
1071.13628503086
 21
9943.00756753122
  0
LINE
  5
123
100
AcDbEntity
  8
1
  6
CONTINUOUS
 62
           6
100
AcDbLine
 10
1072.63628503086
 20
9944.50756753122
 11
1072.63628503086
 21
9943.50756753122
  0
LINE
  5
122
100
AcDbEntity
  8
1
  6
CONTINUOUS
 62
           6
100
AcDbLine
 10
1074.13628503086
 20
9943.00756753122
 11
1074.13628503086
 21
9942.00756753122
  0
LINE
  5
121
100
AcDbEntity
  8
1
  6
CONTINUOUS
 62
           6
100
AcDbLine
 10
1071.13628503086
 20
9942.00756753122
 11
1070.13628503086
 21
9942.00756753122
  0
LINE
  5
120
100
AcDbEntity
  8
1
  6
CONTINUOUS
 62
           6
100
AcDbLine
 10
1070.13628503086
 20
9942.00756753122
 11
1070.13628503086
 21
9943.00756753122
  0
LINE
  5
11F
100
AcDbEntity
  8
1
  6
CONTINUOUS
 62
           6
100
AcDbLine
 10
1073.13628503086
 20
9943.00756753122
 11
1074.13628503086
 21
9943.00756753122
  0
LINE
  5
11E
100
AcDbEntity
  8
1
  6
CONTINUOUS
 62
           6
100
AcDbLine
 10
1072.63628503086
 20
9941.50756753122
 11
1072.63628503086
 21
9940.50756753122
  0
LINE
  5
11D
100
AcDbEntity
  8
1
  6
CONTINUOUS
 62
           6
100
AcDbLine
 10
1072.63628503086
 20
9940.50756753122
 11
1071.63628503086
 21
9940.50756753122
  0
LINE
  5
11C
100
AcDbEntity
  8
1
  6
CONTINUOUS
 62
           6
100
AcDbLine
 10
1071.63628503086
 20
9943.50756753122
 11
1071.63628503086
 21
9944.50756753122
  0
LINE
  5
11B
100
AcDbEntity
  8
1
  6
CONTINUOUS
 62
           6
100
AcDbLine
 10
1071.63628503086
 20
9944.50756753122
 11
1072.63628503086
 21
9944.50756753122
  0
LINE
  5
11A
100
AcDbEntity
  8
1
  6
CONTINUOUS
 62
           6
100
AcDbLine
 10
1072.63628503086
 20
9885.50756753122
 11
1071.63628503086
 21
9885.50756753122
  0
LINE
  5
119
100
AcDbEntity
  8
1
  6
CONTINUOUS
 62
           6
100
AcDbLine
 10
1071.63628503086
 20
9885.50756753122
 11
1071.63628503086
 21
9886.50756753122
  0
LINE
  5
118
100
AcDbEntity
  8
1
  6
CONTINUOUS
 62
           6
100
AcDbLine
 10
1071.63628503086
 20
9889.50756753122
 11
1072.63628503086
 21
9889.50756753122
  0
LINE
  5
117
100
AcDbEntity
  8
1
  6
CONTINUOUS
 62
           6
100
AcDbLine
 10
1072.63628503086
 20
9889.50756753122
 11
1072.63628503086
 21
9888.50756753122
  0
LINE
  5
116
100
AcDbEntity
  8
1
  6
CONTINUOUS
 62
           6
100
AcDbLine
 10
1074.13628503086
 20
9887.00756753122
 11
1073.13628503086
 21
9887.00756753122
  0
LINE
  5
115
100
AcDbEntity
  8
1
  6
CONTINUOUS
 62
           6
100
AcDbLine
 10
1070.13628503086
 20
9887.00756753122
 11
1070.13628503086
 21
9888.00756753122
  0
LINE
  5
114
100
AcDbEntity
  8
1
  6
CONTINUOUS
 62
           6
100
AcDbLine
 10
1070.13628503086
 20
9888.00756753122
 11
1071.13628503086
 21
9888.00756753122
  0
LINE
  5
113
100
AcDbEntity
  8
1
  6
CONTINUOUS
 62
           6
100
AcDbLine
 10
1074.13628503086
 20
9888.00756753122
 11
1074.13628503086
 21
9887.00756753122
  0
LINE
  5
112
100
AcDbEntity
  8
1
  6
CONTINUOUS
 62
           6
100
AcDbLine
 10
1072.63628503086
 20
9886.50756753122
 11
1072.63628503086
 21
9885.50756753122
  0
LINE
  5
111
100
AcDbEntity
  8
1
  6
CONTINUOUS
 62
           6
100
AcDbLine
 10
1071.13628503086
 20
9887.00756753122
 11
1070.13628503086
 21
9887.00756753122
  0
LINE
  5
110
100
AcDbEntity
  8
1
  6
CONTINUOUS
 62
           6
100
AcDbLine
 10
1073.13628503086
 20
9888.00756753122
 11
1074.13628503086
 21
9888.00756753122
  0
LINE
  5
10F
100
AcDbEntity
  8
1
  6
CONTINUOUS
 62
           6
100
AcDbLine
 10
1071.63628503086
 20
9888.50756753122
 11
1071.63628503086
 21
9889.50756753122
  0
LINE
  5
10E
100
AcDbEntity
  8
1
  6
CONTINUOUS
 62
           6
100
AcDbLine
 10
1042.63628503086
 20
9889.50756753122
 11
1042.63628503086
 21
9888.50756753122
  0
LINE
  5
10D
100
AcDbEntity
  8
1
  6
CONTINUOUS
 62
           6
100
AcDbLine
 10
1040.13628503086
 20
9888.00756753122
 11
1041.13628503086
 21
9888.00756753122
  0
LINE
  5
10C
100
AcDbEntity
  8
1
  6
CONTINUOUS
 62
           6
100
AcDbLine
 10
1044.13628503086
 20
9887.00756753122
 11
1043.13628503086
 21
9887.00756753122
  0
LINE
  5
10B
100
AcDbEntity
  8
1
  6
CONTINUOUS
 62
           6
100
AcDbLine
 10
1041.63628503086
 20
9885.50756753122
 11
1041.63628503086
 21
9886.50756753122
  0
LINE
  5
10A
100
AcDbEntity
  8
1
  6
CONTINUOUS
 62
           6
100
AcDbLine
 10
1040.13628503086
 20
9887.00756753122
 11
1040.13628503086
 21
9888.00756753122
  0
LINE
  5
109
100
AcDbEntity
  8
1
  6
CONTINUOUS
 62
           6
100
AcDbLine
 10
1043.13628503086
 20
9888.00756753122
 11
1044.13628503086
 21
9888.00756753122
  0
LINE
  5
108
100
AcDbEntity
  8
1
  6
CONTINUOUS
 62
           6
100
AcDbLine
 10
1044.13628503086
 20
9888.00756753122
 11
1044.13628503086
 21
9887.00756753122
  0
LINE
  5
107
100
AcDbEntity
  8
1
  6
CONTINUOUS
 62
           6
100
AcDbLine
 10
1041.13628503086
 20
9887.00756753122
 11
1040.13628503086
 21
9887.00756753122
  0
LINE
  5
106
100
AcDbEntity
  8
1
  6
CONTINUOUS
 62
           6
100
AcDbLine
 10
1041.63628503086
 20
9888.50756753122
 11
1041.63628503086
 21
9889.50756753122
  0
LINE
  5
105
100
AcDbEntity
  8
1
  6
CONTINUOUS
 62
           6
100
AcDbLine
 10
1041.63628503086
 20
9889.50756753122
 11
1042.63628503086
 21
9889.50756753122
  0
LINE
  5
104
100
AcDbEntity
  8
1
  6
CONTINUOUS
 62
           6
100
AcDbLine
 10
1042.63628503086
 20
9886.50756753122
 11
1042.63628503086
 21
9885.50756753122
  0
LINE
  5
103
100
AcDbEntity
  8
1
  6
CONTINUOUS
 62
           6
100
AcDbLine
 10
1042.63628503086
 20
9885.50756753122
 11
1041.63628503086
 21
9885.50756753122
  0
LINE
  5
102
100
AcDbEntity
  8
1
  6
CONTINUOUS
 62
           3
100
AcDbLine
 10
942.974132058577
 20
9852.50756753122
 11
942.974132058577
 21
9977.50756753122
  0
LINE
  5
101
100
AcDbEntity
  8
1
  6
DOTTED
 62
           1
100
AcDbLine
 10
942.974132058577
 20
9969.057567531221
 11
944.974132058577
 21
9969.057567531221
  0
LINE
  5
100
100
AcDbEntity
  8
1
  6
DOTTED
 62
           1
100
AcDbLine
 10
942.974132058577
 20
9960.957567531221
 11
944.974132058577
 21
9960.957567531221
  0
LINE
  5
FF
100
AcDbEntity
  8
1
  6
DOT_CENTER
 62
           1
100
AcDbLine
 10
937.841964233264
 20
9965.00756753122
 11
950.961964233264
 21
9965.00756753122
  0
LINE
  5
FE
100
AcDbEntity
  8
1
  6
DOT_CENTER
 62
           1
100
AcDbLine
 10
937.841964233264
 20
9865.00756753122
 11
950.961964233264
 21
9865.00756753122
  0
LINE
  5
FD
100
AcDbEntity
  8
1
  6
DOTTED
 62
           1
100
AcDbLine
 10
942.974132058577
 20
9860.957567531219
 11
944.974132058577
 21
9860.957567531219
  0
LINE
  5
FC
100
AcDbEntity
  8
1
  6
DOTTED
 62
           1
100
AcDbLine
 10
942.974132058577
 20
9869.057567531221
 11
944.974132058577
 21
9869.057567531221
  0
LINE
  5
FB
100
AcDbEntity
  8
1
  6
CONTINUOUS
 62
           3
100
AcDbLine
 10
457.337897501442
 20
9973.258367069344
 11
418.63821731669
 21
9946.7567679931
  0
LINE
  5
FA
100
AcDbEntity
  8
1
  6
CONTINUOUS
 62
           3
100
AcDbLine
 10
407.337897501442
 20
9946.7567679931
 11
368.638217316691
 21
9973.258367069344
  0
LINE
  5
F9
100
AcDbEntity
  8
1
  6
CONTINUOUS
 62
           3
100
AcDbLine
 10
354.737257870944
 20
9959.357407623596
 11
381.238856947188
 21
9920.657727438846
  0
LINE
  5
F8
100
AcDbEntity
  8
1
  6
CONTINUOUS
 62
           3
100
AcDbLine
 10
381.238856947188
 20
9909.357407623596
 11
354.737257870944
 21
9870.657727438846
  0
LINE
  5
F7
100
AcDbEntity
  8
1
  6
CONTINUOUS
 62
           3
100
AcDbLine
 10
368.638217316691
 20
9856.7567679931
 11
407.337897501442
 21
9883.258367069344
  0
LINE
  5
F6
100
AcDbEntity
  8
1
  6
CONTINUOUS
 62
           3
100
AcDbLine
 10
418.638217316691
 20
9883.258367069344
 11
457.337897501442
 21
9856.7567679931
  0
LINE
  5
F5
100
AcDbEntity
  8
1
  6
CONTINUOUS
 62
           3
100
AcDbLine
 10
471.238856947188
 20
9870.657727438846
 11
444.737257870944
 21
9909.357407623596
  0
LINE
  5
F4
100
AcDbEntity
  8
1
  6
CONTINUOUS
 62
           3
100
AcDbLine
 10
444.737257870944
 20
9920.657727438846
 11
471.238856947188
 21
9959.357407623596
  0
LINE
  5
F3
100
AcDbEntity
  8
1
  6
CONTINUOUS
 62
           3
100
AcDbLine
 10
459.588057409066
 20
9967.607567531222
 11
466.388057409066
 21
9967.607567531222
  0
LINE
  5
F2
100
AcDbEntity
  8
1
  6
CONTINUOUS
 62
           3
100
AcDbLine
 10
466.388057409066
 20
9962.407567531222
 11
459.588057409066
 21
9962.407567531222
  0
LINE
  5
F1
100
AcDbEntity
  8
1
  6
DOT_CENTER
 62
           1
100
AcDbLine
 10
454.442765748198
 20
9965.00756753122
 11
471.812352782181
 21
9965.00756753122
  0
LINE
  5
F0
100
AcDbEntity
  8
1
  6
DOT_CENTER
 62
           1
100
AcDbLine
 10
459.588057409066
 20
9969.901664761072
 11
459.588057409066
 21
9960.21680411182
  0
LINE
  5
EF
100
AcDbEntity
  8
1
  6
DOT_CENTER
 62
           1
100
AcDbLine
 10
466.388057409066
 20
9969.849029648851
 11
466.388057409066
 21
9960.479979672942
  0
LINE
  5
EE
100
AcDbEntity
  8
1
  6
DOT_CENTER
 62
           1
100
AcDbLine
 10
462.988057409066
 20
9971.24139714798
 11
462.988057409066
 21
9958.20025772406
  0
LINE
  5
ED
100
AcDbEntity
  8
1
  6
DOT_CENTER
 62
           1
100
AcDbLine
 10
358.580074214294
 20
9969.415550725993
 11
367.801552335347
 21
9960.194072604942
  0
LINE
  5
EC
100
AcDbEntity
  8
1
  6
DOT_CENTER
 62
           1
100
AcDbLine
 10
361.968789770867
 20
9970.83516128149
 11
368.593708542109
 21
9964.210242510248
  0
LINE
  5
EB
100
AcDbEntity
  8
1
  6
DOT_CENTER
 62
           1
100
AcDbLine
 10
357.123245014019
 20
9966.064053814202
 11
363.971475653951
 21
9959.215823174267
  0
LINE
  5
EA
100
AcDbEntity
  8
1
  6
DOT_CENTER
 62
           1
100
AcDbLine
 10
356.945623728449
 20
9958.965133850605
 11
369.227776506589
 21
9971.247286628744
  0
LINE
  5
E9
100
AcDbEntity
  8
1
  6
CONTINUOUS
 62
           3
100
AcDbLine
 10
367.230698096186
 20
9965.57325295617
 11
362.422371984117
 21
9960.764926844102
  0
LINE
  5
E8
100
AcDbEntity
  8
1
  6
CONTINUOUS
 62
           3
100
AcDbLine
 10
358.745416721947
 20
9964.441882106274
 11
363.553742834015
 21
9969.25020821834
  0
LINE
  5
E7
100
AcDbEntity
  8
1
  6
CONTINUOUS
 62
           3
100
AcDbLine
 10
371.245416721947
 20
9951.941882106274
 11
376.053742834015
 21
9956.75020821834
  0
LINE
  5
E6
100
AcDbEntity
  8
1
  6
CONTINUOUS
 62
           3
100
AcDbLine
 10
379.730698096186
 20
9953.07325295617
 11
374.922371984117
 21
9948.264926844102
  0
LINE
  5
E5
100
AcDbEntity
  8
1
  6
DOT_CENTER
 62
           1
100
AcDbLine
 10
369.445623728449
 20
9946.465133850605
 11
381.727776506589
 21
9958.747286628744
  0
LINE
  5
E4
100
AcDbEntity
  8
1
  6
DOT_CENTER
 62
           1
100
AcDbLine
 10
369.623245014019
 20
9953.564053814202
 11
376.471475653951
 21
9946.715823174267
  0
LINE
  5
E3
100
AcDbEntity
  8
1
  6
DOT_CENTER
 62
           1
100
AcDbLine
 10
374.468789770867
 20
9958.33516128149
 11
381.093708542109
 21
9951.710242510248
  0
LINE
  5
E2
100
AcDbEntity
  8
1
  6
DOT_CENTER
 62
           1
100
AcDbLine
 10
371.080074214294
 20
9956.915550725993
 11
380.301552335347
 21
9947.694072604942
  0
LINE
  5
E1
100
AcDbEntity
  8
1
  6
DOT_CENTER
 62
           1
100
AcDbLine
 10
450.488057409066
 20
9958.74139714798
 11
450.488057409066
 21
9945.70025772406
  0
LINE
  5
E0
100
AcDbEntity
  8
1
  6
DOT_CENTER
 62
           1
100
AcDbLine
 10
453.888057409066
 20
9957.349029648851
 11
453.888057409066
 21
9947.979979672942
  0
LINE
  5
DF
100
AcDbEntity
  8
1
  6
DOT_CENTER
 62
           1
100
AcDbLine
 10
447.088057409066
 20
9957.401664761072
 11
447.088057409066
 21
9947.71680411182
  0
LINE
  5
DE
100
AcDbEntity
  8
1
  6
DOT_CENTER
 62
           1
100
AcDbLine
 10
441.942765748198
 20
9952.50756753122
 11
459.312352782181
 21
9952.50756753122
  0
LINE
  5
DD
100
AcDbEntity
  8
1
  6
CONTINUOUS
 62
           3
100
AcDbLine
 10
453.888057409066
 20
9949.907567531222
 11
447.088057409066
 21
9949.907567531222
  0
LINE
  5
DC
100
AcDbEntity
  8
1
  6
CONTINUOUS
 62
           3
100
AcDbLine
 10
447.088057409066
 20
9955.107567531222
 11
453.888057409066
 21
9955.107567531222
  0
LINE
  5
DB
100
AcDbEntity
  8
1
  6
DOT_CENTER
 62
           1
100
AcDbLine
 10
356.754227792307
 20
9865.00756753122
 11
369.795367216226
 21
9865.00756753122
  0
LINE
  5
DA
100
AcDbEntity
  8
1
  6
DOT_CENTER
 62
           1
100
AcDbLine
 10
358.146595291437
 20
9868.407567531222
 11
367.515645267347
 21
9868.407567531222
  0
LINE
  5
D9
100
AcDbEntity
  8
1
  6
DOT_CENTER
 62
           1
100
AcDbLine
 10
358.093960179216
 20
9861.607567531222
 11
367.778820828467
 21
9861.607567531222
  0
LINE
  5
D8
100
AcDbEntity
  8
1
  6
DOT_CENTER
 62
           1
100
AcDbLine
 10
362.988057409066
 20
9856.462275870354
 11
362.988057409066
 21
9873.831862904337
  0
LINE
  5
D7
100
AcDbEntity
  8
1
  6
CONTINUOUS
 62
           3
100
AcDbLine
 10
365.588057409066
 20
9868.407567531222
 11
365.588057409066
 21
9861.607567531222
  0
LINE
  5
D6
100
AcDbEntity
  8
1
  6
CONTINUOUS
 62
           3
100
AcDbLine
 10
360.388057409065
 20
9861.607567531222
 11
360.388057409065
 21
9868.407567531222
  0
LINE
  5
D5
100
AcDbEntity
  8
1
  6
CONTINUOUS
 62
           3
100
AcDbLine
 10
372.888057409065
 20
9874.107567531222
 11
372.888057409065
 21
9880.907567531222
  0
LINE
  5
D4
100
AcDbEntity
  8
1
  6
CONTINUOUS
 62
           3
100
AcDbLine
 10
378.088057409066
 20
9880.907567531222
 11
378.088057409066
 21
9874.107567531222
  0
LINE
  5
D3
100
AcDbEntity
  8
1
  6
DOT_CENTER
 62
           1
100
AcDbLine
 10
375.488057409066
 20
9868.962275870354
 11
375.488057409066
 21
9886.331862904337
  0
LINE
  5
D2
100
AcDbEntity
  8
1
  6
DOT_CENTER
 62
           1
100
AcDbLine
 10
370.593960179216
 20
9874.107567531222
 11
380.278820828467
 21
9874.107567531222
  0
LINE
  5
D1
100
AcDbEntity
  8
1
  6
DOT_CENTER
 62
           1
100
AcDbLine
 10
370.646595291437
 20
9880.907567531222
 11
380.015645267347
 21
9880.907567531222
  0
LINE
  5
D0
100
AcDbEntity
  8
1
  6
DOT_CENTER
 62
           1
100
AcDbLine
 10
369.254227792307
 20
9877.50756753122
 11
382.295367216226
 21
9877.50756753122
  0
LINE
  5
CF
100
AcDbEntity
  8
1
  6
DOT_CENTER
 62
           1
100
AcDbLine
 10
441.836912903614
 20
9877.50756753122
 11
457.985928250721
 21
9877.50756753122
  0
LINE
  5
CE
100
AcDbEntity
  8
1
  6
DOT_CENTER
 62
           1
100
AcDbLine
 10
454.627504705084
 20
9865.00756753122
 11
470.919431692432
 21
9865.00756753122
  0
LINE
  5
CD
100
AcDbEntity
  8
1
  6
DOT_CENTER
 62
           1
100
AcDbLine
 10
462.988057409066
 20
9872.25795595156
 11
462.988057409066
 21
9857.39514536661
  0
LINE
  5
CC
100
AcDbEntity
  8
1
  6
DOT_CENTER
 62
           1
100
AcDbLine
 10
450.488057409066
 20
9885.97747341459
 11
450.488057409066
 21
9868.399341665079
  0
LINE
  5
CB
100
AcDbEntity
  8
1
  6
DOT_CENTER
 62
           1
100
AcDbLine
 10
362.988057409066
 20
9972.402961508711
 11
362.988057409066
 21
9956.019345562312
  0
LINE
  5
CA
100
AcDbEntity
  8
1
  6
DOT_CENTER
 62
           1
100
AcDbLine
 10
354.792859670438
 20
9965.00756753122
 11
371.900613338233
 21
9965.00756753122
  0
LINE
  5
C9
100
AcDbEntity
  8
1
  6
DOT_CENTER
 62
           1
100
AcDbLine
 10
365.202339415392
 20
9952.50756753122
 11
384.482506247352
 21
9952.50756753122
  0
LINE
  5
C8
100
AcDbEntity
  8
1
  6
DOT_CENTER
 62
           1
100
AcDbLine
 10
375.488057409066
 20
9961.178826827201
 11
375.488057409066
 21
9943.527969868361
  0
LINE
  5
C7
100
AcDbEntity
  8
1
  6
CONTINUOUS
 62
           6
100
AcDbLine
 10
403.488057409066
 20
9926.50756753122
 11
403.488057409066
 21
9925.50756753122
  0
LINE
  5
C6
100
AcDbEntity
  8
1
  6
CONTINUOUS
 62
           6
100
AcDbLine
 10
401.988057409066
 20
9927.00756753122
 11
400.988057409066
 21
9927.00756753122
  0
LINE
  5
C5
100
AcDbEntity
  8
1
  6
CONTINUOUS
 62
           6
100
AcDbLine
 10
403.988057409066
 20
9928.00756753122
 11
404.988057409066
 21
9928.00756753122
  0
LINE
  5
C4
100
AcDbEntity
  8
1
  6
CONTINUOUS
 62
           6
100
AcDbLine
 10
402.488057409066
 20
9928.50756753122
 11
402.488057409066
 21
9929.50756753122
  0
LINE
  5
C3
100
AcDbEntity
  8
1
  6
CONTINUOUS
 62
           6
100
AcDbLine
 10
400.988057409066
 20
9927.00756753122
 11
400.988057409066
 21
9928.00756753122
  0
LINE
  5
C2
100
AcDbEntity
  8
1
  6
CONTINUOUS
 62
           6
100
AcDbLine
 10
404.988057409066
 20
9927.00756753122
 11
403.988057409066
 21
9927.00756753122
  0
LINE
  5
C1
100
AcDbEntity
  8
1
  6
CONTINUOUS
 62
           6
100
AcDbLine
 10
404.988057409066
 20
9928.00756753122
 11
404.988057409066
 21
9927.00756753122
  0
LINE
  5
C0
100
AcDbEntity
  8
1
  6
CONTINUOUS
 62
           6
100
AcDbLine
 10
400.988057409066
 20
9928.00756753122
 11
401.988057409066
 21
9928.00756753122
  0
LINE
  5
BF
100
AcDbEntity
  8
1
  6
CONTINUOUS
 62
           6
100
AcDbLine
 10
402.488057409066
 20
9925.50756753122
 11
402.488057409066
 21
9926.50756753122
  0
LINE
  5
BE
100
AcDbEntity
  8
1
  6
CONTINUOUS
 62
           6
100
AcDbLine
 10
403.488057409066
 20
9925.50756753122
 11
402.488057409066
 21
9925.50756753122
  0
LINE
  5
BD
100
AcDbEntity
  8
1
  6
CONTINUOUS
 62
           6
100
AcDbLine
 10
403.488057409066
 20
9929.50756753122
 11
403.488057409066
 21
9928.50756753122
  0
LINE
  5
BC
100
AcDbEntity
  8
1
  6
CONTINUOUS
 62
           6
100
AcDbLine
 10
402.488057409066
 20
9929.50756753122
 11
403.488057409066
 21
9929.50756753122
  0
LINE
  5
BB
100
AcDbEntity
  8
1
  6
CONTINUOUS
 62
           6
100
AcDbLine
 10
422.488057409066
 20
9929.50756753122
 11
423.488057409066
 21
9929.50756753122
  0
LINE
  5
BA
100
AcDbEntity
  8
1
  6
CONTINUOUS
 62
           6
100
AcDbLine
 10
422.488057409066
 20
9928.50756753122
 11
422.488057409066
 21
9929.50756753122
  0
LINE
  5
B9
100
AcDbEntity
  8
1
  6
CONTINUOUS
 62
           6
100
AcDbLine
 10
423.488057409066
 20
9925.50756753122
 11
422.488057409066
 21
9925.50756753122
  0
LINE
  5
B8
100
AcDbEntity
  8
1
  6
CONTINUOUS
 62
           6
100
AcDbLine
 10
423.488057409066
 20
9926.50756753122
 11
423.488057409066
 21
9925.50756753122
  0
LINE
  5
B7
100
AcDbEntity
  8
1
  6
CONTINUOUS
 62
           6
100
AcDbLine
 10
423.988057409066
 20
9928.00756753122
 11
424.988057409066
 21
9928.00756753122
  0
LINE
  5
B6
100
AcDbEntity
  8
1
  6
CONTINUOUS
 62
           6
100
AcDbLine
 10
420.988057409066
 20
9927.00756753122
 11
420.988057409066
 21
9928.00756753122
  0
LINE
  5
B5
100
AcDbEntity
  8
1
  6
CONTINUOUS
 62
           6
100
AcDbLine
 10
421.988057409066
 20
9927.00756753122
 11
420.988057409066
 21
9927.00756753122
  0
LINE
  5
B4
100
AcDbEntity
  8
1
  6
CONTINUOUS
 62
           6
100
AcDbLine
 10
424.988057409066
 20
9928.00756753122
 11
424.988057409066
 21
9927.00756753122
  0
LINE
  5
B3
100
AcDbEntity
  8
1
  6
CONTINUOUS
 62
           6
100
AcDbLine
 10
423.488057409066
 20
9929.50756753122
 11
423.488057409066
 21
9928.50756753122
  0
LINE
  5
B2
100
AcDbEntity
  8
1
  6
CONTINUOUS
 62
           6
100
AcDbLine
 10
420.988057409066
 20
9928.00756753122
 11
421.988057409066
 21
9928.00756753122
  0
LINE
  5
B1
100
AcDbEntity
  8
1
  6
CONTINUOUS
 62
           6
100
AcDbLine
 10
424.988057409066
 20
9927.00756753122
 11
423.988057409066
 21
9927.00756753122
  0
LINE
  5
B0
100
AcDbEntity
  8
1
  6
CONTINUOUS
 62
           6
100
AcDbLine
 10
422.488057409066
 20
9925.50756753122
 11
422.488057409066
 21
9926.50756753122
  0
LINE
  5
AF
100
AcDbEntity
  8
1
  6
CONTINUOUS
 62
           6
100
AcDbLine
 10
422.488057409066
 20
9903.50756753122
 11
422.488057409066
 21
9904.50756753122
  0
LINE
  5
AE
100
AcDbEntity
  8
1
  6
CONTINUOUS
 62
           6
100
AcDbLine
 10
423.988057409066
 20
9903.00756753122
 11
424.988057409066
 21
9903.00756753122
  0
LINE
  5
AD
100
AcDbEntity
  8
1
  6
CONTINUOUS
 62
           6
100
AcDbLine
 10
421.988057409066
 20
9902.00756753122
 11
420.988057409066
 21
9902.00756753122
  0
LINE
  5
AC
100
AcDbEntity
  8
1
  6
CONTINUOUS
 62
           6
100
AcDbLine
 10
423.488057409066
 20
9901.50756753122
 11
423.488057409066
 21
9900.50756753122
  0
LINE
  5
AB
100
AcDbEntity
  8
1
  6
CONTINUOUS
 62
           6
100
AcDbLine
 10
424.988057409066
 20
9903.00756753122
 11
424.988057409066
 21
9902.00756753122
  0
LINE
  5
AA
100
AcDbEntity
  8
1
  6
CONTINUOUS
 62
           6
100
AcDbLine
 10
420.988057409066
 20
9903.00756753122
 11
421.988057409066
 21
9903.00756753122
  0
LINE
  5
A9
100
AcDbEntity
  8
1
  6
CONTINUOUS
 62
           6
100
AcDbLine
 10
420.988057409066
 20
9902.00756753122
 11
420.988057409066
 21
9903.00756753122
  0
LINE
  5
A8
100
AcDbEntity
  8
1
  6
CONTINUOUS
 62
           6
100
AcDbLine
 10
424.988057409066
 20
9902.00756753122
 11
423.988057409066
 21
9902.00756753122
  0
LINE
  5
A7
100
AcDbEntity
  8
1
  6
CONTINUOUS
 62
           6
100
AcDbLine
 10
423.488057409066
 20
9904.50756753122
 11
423.488057409066
 21
9903.50756753122
  0
LINE
  5
A6
100
AcDbEntity
  8
1
  6
CONTINUOUS
 62
           6
100
AcDbLine
 10
422.488057409066
 20
9904.50756753122
 11
423.488057409066
 21
9904.50756753122
  0
LINE
  5
A5
100
AcDbEntity
  8
1
  6
CONTINUOUS
 62
           6
100
AcDbLine
 10
422.488057409066
 20
9900.50756753122
 11
422.488057409066
 21
9901.50756753122
  0
LINE
  5
A4
100
AcDbEntity
  8
1
  6
CONTINUOUS
 62
           6
100
AcDbLine
 10
423.488057409066
 20
9900.50756753122
 11
422.488057409066
 21
9900.50756753122
  0
LINE
  5
A3
100
AcDbEntity
  8
1
  6
CONTINUOUS
 62
           6
100
AcDbLine
 10
403.488057409066
 20
9900.50756753122
 11
402.488057409066
 21
9900.50756753122
  0
LINE
  5
A2
100
AcDbEntity
  8
1
  6
CONTINUOUS
 62
           6
100
AcDbLine
 10
403.488057409066
 20
9901.50756753122
 11
403.488057409066
 21
9900.50756753122
  0
LINE
  5
A1
100
AcDbEntity
  8
1
  6
CONTINUOUS
 62
           6
100
AcDbLine
 10
402.488057409066
 20
9904.50756753122
 11
403.488057409066
 21
9904.50756753122
  0
LINE
  5
A0
100
AcDbEntity
  8
1
  6
CONTINUOUS
 62
           6
100
AcDbLine
 10
402.488057409066
 20
9903.50756753122
 11
402.488057409066
 21
9904.50756753122
  0
LINE
  5
9F
100
AcDbEntity
  8
1
  6
CONTINUOUS
 62
           6
100
AcDbLine
 10
401.988057409066
 20
9902.00756753122
 11
400.988057409066
 21
9902.00756753122
  0
LINE
  5
9E
100
AcDbEntity
  8
1
  6
CONTINUOUS
 62
           6
100
AcDbLine
 10
404.988057409066
 20
9903.00756753122
 11
404.988057409066
 21
9902.00756753122
  0
LINE
  5
9D
100
AcDbEntity
  8
1
  6
CONTINUOUS
 62
           6
100
AcDbLine
 10
403.988057409066
 20
9903.00756753122
 11
404.988057409066
 21
9903.00756753122
  0
LINE
  5
9C
100
AcDbEntity
  8
1
  6
CONTINUOUS
 62
           6
100
AcDbLine
 10
400.988057409066
 20
9902.00756753122
 11
400.988057409066
 21
9903.00756753122
  0
LINE
  5
9B
100
AcDbEntity
  8
1
  6
CONTINUOUS
 62
           6
100
AcDbLine
 10
402.488057409066
 20
9900.50756753122
 11
402.488057409066
 21
9901.50756753122
  0
LINE
  5
9A
100
AcDbEntity
  8
1
  6
CONTINUOUS
 62
           6
100
AcDbLine
 10
404.988057409066
 20
9902.00756753122
 11
403.988057409066
 21
9902.00756753122
  0
LINE
  5
99
100
AcDbEntity
  8
1
  6
CONTINUOUS
 62
           6
100
AcDbLine
 10
400.988057409066
 20
9903.00756753122
 11
401.988057409066
 21
9903.00756753122
  0
LINE
  5
98
100
AcDbEntity
  8
1
  6
CONTINUOUS
 62
           6
100
AcDbLine
 10
403.488057409066
 20
9904.50756753122
 11
403.488057409066
 21
9903.50756753122
  0
LINE
  5
97
100
AcDbEntity
  8
1
  6
CONTINUOUS
 62
           3
100
AcDbLine
 10
517.975916532363
 20
9932.50756753122
 11
516.975916532363
 21
9932.50756753122
  0
LINE
  5
96
100
AcDbEntity
  8
1
  6
CONTINUOUS
 62
           3
100
AcDbLine
 10
517.975916532363
 20
9897.50756753122
 11
516.975916532363
 21
9897.50756753122
  0
LINE
  5
95
100
AcDbEntity
  8
1
  6
CONTINUOUS
 62
           3
100
AcDbLine
 10
517.975916532363
 20
9932.50756753122
 11
517.975916532363
 21
9933.50756753122
  0
LINE
  5
94
100
AcDbEntity
  8
1
  6
CONTINUOUS
 62
           3
100
AcDbLine
 10
517.975916532363
 20
9897.50756753122
 11
517.975916532363
 21
9932.50756753122
  0
LINE
  5
93
100
AcDbEntity
  8
1
  6
DOT_CENTER
 62
           1
100
AcDbLine
 10
412.988057409066
 20
9982.328218092884
 11
412.988057409066
 21
9845.737740396045
  0
LINE
  5
92
100
AcDbEntity
  8
1
  6
DOT_CENTER
 62
           1
100
AcDbLine
 10
349.596468473146
 20
9915.00756753122
 11
476.411086931247
 21
9915.00756753122
  0
LINE
  5
91
100
AcDbEntity
  8
1
  6
DOTTED
 62
           1
100
AcDbLine
 10
942.974132058577
 20
10091.494395306219
 11
944.974132058577
 21
10091.494395306219
  0
LINE
  5
90
100
AcDbEntity
  8
1
  6
DOTTED
 62
           1
100
AcDbLine
 10
942.974132058577
 20
10083.394395306221
 11
944.974132058577
 21
10083.394395306221
  0
LINE
  5
8F
100
AcDbEntity
  8
1
  6
DOTTED
 62
           1
100
AcDbLine
 10
942.974132058577
 20
10021.494395306219
 11
944.974132058577
 21
10021.494395306219
  0
LINE
  5
8E
100
AcDbEntity
  8
1
  6
DOTTED
 62
           1
100
AcDbLine
 10
942.974132058577
 20
10013.394395306221
 11
944.974132058577
 21
10013.394395306221
  0
LINE
  5
8D
100
AcDbEntity
  8
1
  6
DOT_CENTER
 62
           1
100
AcDbLine
 10
938.352376897739
 20
10087.44439530622
 11
949.952376897739
 21
10087.44439530622
  0
LINE
  5
8C
100
AcDbEntity
  8
1
  6
DOT_CENTER
 62
           1
100
AcDbLine
 10
939.003816819012
 20
10017.44439530622
 11
949.813816819012
 21
10017.44439530622
  0
LINE
  5
8B
100
AcDbEntity
  8
1
  6
DOT_CENTER
 62
           1
100
AcDbLine
 10
509.201964300801
 20
9952.50756753122
 11
525.741964300801
 21
9952.50756753122
  0
LINE
  5
8A
100
AcDbEntity
  8
1
  6
DOTTED
 62
           1
100
AcDbLine
 10
514.975916532363
 20
9949.90756753122
 11
516.975916532363
 21
9949.90756753122
  0
LINE
  5
89
100
AcDbEntity
  8
1
  6
DOTTED
 62
           1
100
AcDbLine
 10
514.975916532363
 20
9955.10756753122
 11
516.975916532363
 21
9955.10756753122
  0
LINE
  5
88
100
AcDbEntity
  8
1
  6
DOTTED
 62
           1
100
AcDbLine
 10
516.975916532363
 20
9874.907567531222
 11
514.975916532363
 21
9874.907567531222
  0
LINE
  5
87
100
AcDbEntity
  8
1
  6
DOTTED
 62
           1
100
AcDbLine
 10
516.975916532363
 20
9880.107567531222
 11
514.975916532363
 21
9880.107567531222
  0
LINE
  5
86
100
AcDbEntity
  8
1
  6
DOT_CENTER
 62
           1
100
AcDbLine
 10
525.741964300801
 20
9877.50756753122
 11
509.201964300801
 21
9877.50756753122
  0
LINE
  5
85
100
AcDbEntity
  8
1
  6
DOT_CENTER
 62
           1
100
AcDbLine
 10
521.639913330924
 20
10002.44439530622
 11
509.201964300801
 21
10002.44439530622
  0
LINE
  5
84
100
AcDbEntity
  8
1
  6
DOT_CENTER
 62
           1
100
AcDbLine
 10
521.639913330924
 20
10014.94439530622
 11
509.201964300801
 21
10014.94439530622
  0
LINE
  5
83
100
AcDbEntity
  8
1
  6
DOTTED
 62
           1
100
AcDbLine
 10
516.975916532364
 20
10008.94439530622
 11
514.975916532364
 21
10008.94439530622
  0
LINE
  5
82
100
AcDbEntity
  8
1
  6
DOTTED
 62
           1
100
AcDbLine
 10
516.975916532364
 20
10020.94439530622
 11
514.975916532364
 21
10020.94439530622
  0
LINE
  5
81
100
AcDbEntity
  8
1
  6
DOT_CENTER
 62
           1
100
AcDbLine
 10
509.201964300801
 20
10089.94439530622
 11
522.47603996027
 21
10089.94439530622
  0
LINE
  5
80
100
AcDbEntity
  8
1
  6
DOTTED
 62
           1
100
AcDbLine
 10
514.975916532364
 20
10084.945484347671
 11
516.975916532364
 21
10084.945484347671
  0
LINE
  5
7F
100
AcDbEntity
  8
1
  6
DOTTED
 62
           1
100
AcDbLine
 10
514.975916532364
 20
10094.94352044064
 11
516.975916532364
 21
10094.94352044064
  0
LINE
  5
7E
100
AcDbEntity
  8
1
  6
DOTTED
 62
           1
100
AcDbLine
 10
833.985987601984
 20
10251.15674668871
 11
831.985987601984
 21
10251.15674668871
  0
LINE
  5
7D
100
AcDbEntity
  8
1
  6
DOTTED
 62
           1
100
AcDbLine
 10
833.985987601984
 20
10239.15674668871
 11
831.985987601984
 21
10239.15674668871
  0
LINE
  5
7C
100
AcDbEntity
  8
1
  6
DOT_CENTER
 62
           1
100
AcDbLine
 10
838.649984400544
 20
10245.15674668871
 11
826.212035370422
 21
10245.15674668871
  0
LINE
  5
7B
100
AcDbEntity
  8
1
  6
DOT_CENTER
 62
           1
100
AcDbLine
 10
838.649984400544
 20
10257.65674668871
 11
826.212035370422
 21
10257.65674668871
  0
LINE
  5
7A
100
AcDbEntity
  8
1
  6
DOTTED
 62
           1
100
AcDbLine
 10
833.985987601984
 20
10251.65674668871
 11
831.985987601984
 21
10251.65674668871
  0
LINE
  5
79
100
AcDbEntity
  8
1
  6
DOTTED
 62
           1
100
AcDbLine
 10
833.985987601984
 20
10263.65674668871
 11
831.985987601984
 21
10263.65674668871
  0
LINE
  5
78
100
AcDbEntity
  8
1
  6
DOTTED
 62
           1
100
AcDbLine
 10
831.985987601984
 20
10350.15587182313
 11
833.985987601984
 21
10350.15587182313
  0
LINE
  5
77
100
AcDbEntity
  8
1
  6
DOTTED
 62
           1
100
AcDbLine
 10
831.985987601984
 20
10340.15783573017
 11
833.985987601984
 21
10340.15783573017
  0
LINE
  5
76
100
AcDbEntity
  8
1
  6
DOT_CENTER
 62
           1
100
AcDbLine
 10
826.212035370422
 20
10345.15674668871
 11
839.48611102989
 21
10345.15674668871
  0
LINE
  5
75
100
AcDbEntity
  8
1
  6
DOT_CENTER
 62
           1
100
AcDbLine
 10
826.212035370422
 20
10332.65674668871
 11
839.48611102989
 21
10332.65674668871
  0
LINE
  5
74
100
AcDbEntity
  8
1
  6
DOTTED
 62
           1
100
AcDbLine
 10
831.985987601984
 20
10327.65783573017
 11
833.985987601984
 21
10327.65783573017
  0
LINE
  5
73
100
AcDbEntity
  8
1
  6
DOTTED
 62
           1
100
AcDbLine
 10
831.985987601984
 20
10337.65587182313
 11
833.985987601984
 21
10337.65587182313
  0
LINE
  5
72
100
AcDbEntity
  8
1
  6
DOT_CENTER
 62
           1
100
AcDbLine
 10
939.003816819012
 20
10260.15674668871
 11
949.813816819012
 21
10260.15674668871
  0
LINE
  5
71
100
AcDbEntity
  8
1
  6
DOT_CENTER
 62
           1
100
AcDbLine
 10
938.352376897739
 20
10330.15674668871
 11
949.952376897739
 21
10330.15674668871
  0
LINE
  5
70
100
AcDbEntity
  8
1
  6
DOTTED
 62
           1
100
AcDbLine
 10
942.974132058577
 20
10256.106746688711
 11
944.974132058577
 21
10256.106746688711
  0
LINE
  5
6F
100
AcDbEntity
  8
1
  6
DOTTED
 62
           1
100
AcDbLine
 10
942.974132058577
 20
10264.206746688709
 11
944.974132058577
 21
10264.206746688709
  0
LINE
  5
6E
100
AcDbEntity
  8
1
  6
DOTTED
 62
           1
100
AcDbLine
 10
942.974132058577
 20
10326.106746688711
 11
944.974132058577
 21
10326.106746688711
  0
LINE
  5
6D
100
AcDbEntity
  8
1
  6
DOTTED
 62
           1
100
AcDbLine
 10
942.974132058577
 20
10334.206746688709
 11
944.974132058577
 21
10334.206746688709
  0
LINE
  5
6C
100
AcDbEntity
  8
1
  6
CONTINUOUS
 62
           3
100
AcDbLine
 10
878.985987601984
 20
10289.15674668871
 11
882.485987601984
 21
10289.15674668871
  0
LINE
  5
6B
100
AcDbEntity
  8
1
  6
CONTINUOUS
 62
           3
100
AcDbLine
 10
848.985987601984
 20
10289.15674668871
 11
878.985987601984
 21
10289.15674668871
  0
LINE
  5
6A
100
AcDbEntity
  8
1
  6
CONTINUOUS
 62
           3
100
AcDbLine
 10
878.985987601984
 20
10301.15674668871
 11
848.985987601984
 21
10301.15674668871
  0
LINE
  5
69
100
AcDbEntity
  8
1
  6
CONTINUOUS
 62
           3
100
AcDbLine
 10
848.985987601984
 20
10301.15674668871
 11
836.985987601984
 21
10301.15674668871
  0
LINE
  5
68
100
AcDbEntity
  8
1
  6
CONTINUOUS
 62
           3
100
AcDbLine
 10
836.985987601984
 20
10289.15674668871
 11
848.985987601984
 21
10289.15674668871
  0
LINE
  5
67
100
AcDbEntity
  8
1
  6
CONTINUOUS
 62
           3
100
AcDbLine
 10
836.985987601984
 20
10301.15674668871
 11
834.985987601984
 21
10301.15674668871
  0
LINE
  5
66
100
AcDbEntity
  8
1
  6
CONTINUOUS
 62
           3
100
AcDbLine
 10
834.985987601984
 20
10276.51099537765
 11
834.985987601984
 21
10289.15674668871
  0
LINE
  5
65
100
AcDbEntity
  8
1
  6
CONTINUOUS
 62
           3
100
AcDbLine
 10
834.985987601984
 20
10313.802497999781
 11
834.985987601984
 21
10334.15674668871
  0
LINE
  5
64
100
AcDbEntity
  8
1
  6
CONTINUOUS
 62
           3
100
AcDbLine
 10
908.480952067174
 20
10238.396418875251
 11
910.282186373984
 21
10261.28327075541
  0
LINE
  5
63
100
AcDbEntity
  8
1
  6
CONTINUOUS
 62
           3
100
AcDbLine
 10
942.974132058577
 20
10247.65674668871
 11
942.974132058577
 21
10342.65674668871
  0
LINE
  5
62
100
AcDbEntity
  8
1
  6
CONTINUOUS
 62
           3
100
AcDbLine
 10
944.974132058577
 20
10247.65674668871
 11
942.974132058577
 21
10247.65674668871
  0
LINE
  5
61
100
AcDbEntity
  8
1
  6
CONTINUOUS
 62
           3
100
AcDbLine
 10
944.974132058577
 20
10342.65674668871
 11
944.974132058577
 21
10247.65674668871
  0
LINE
  5
60
100
AcDbEntity
  8
1
  6
CONTINUOUS
 62
           3
100
AcDbLine
 10
942.974132058577
 20
10342.65674668871
 11
944.974132058577
 21
10342.65674668871
  0
LINE
  5
5F
100
AcDbEntity
  8
1
  6
CONTINUOUS
 62
           3
100
AcDbLine
 10
905.711518344777
 20
10260.83991591212
 11
889.760841005047
 21
10259.58457038047
  0
LINE
  5
5E
100
AcDbEntity
  8
1
  6
CONTINUOUS
 62
           3
100
AcDbLine
 10
906.727362866786
 20
10247.932387435339
 11
890.776685527056
 21
10246.6770419037
  0
LINE
  5
5D
100
AcDbEntity
  8
1
  6
CONTINUOUS
 62
           3
100
AcDbLine
 10
930.278078419921
 20
10285.936261796251
 11
930.948172535961
 21
10294.450614827159
  0
LINE
  5
5C
100
AcDbEntity
  8
1
  6
CONTINUOUS
 62
           3
100
AcDbLine
 10
934.474132058577
 20
10320.15674668871
 11
942.974132058577
 21
10320.15674668871
  0
LINE
  5
5B
100
AcDbEntity
  8
1
  6
CONTINUOUS
 62
           3
100
AcDbLine
 10
921.974132058577
 20
10304.15674668871
 11
927.974132058577
 21
10304.15674668871
  0
LINE
  5
5A
100
AcDbEntity
  8
1
  6
CONTINUOUS
 62
           3
100
AcDbLine
 10
942.974132058577
 20
10270.15674668871
 11
934.474132058577
 21
10270.15674668871
  0
LINE
  5
59
100
AcDbEntity
  8
1
  6
CONTINUOUS
 62
           3
100
AcDbLine
 10
942.974132058577
 20
10320.15674668871
 11
942.974132058577
 21
10270.15674668871
  0
LINE
  5
58
100
AcDbEntity
  8
1
  6
CONTINUOUS
 62
           3
100
AcDbLine
 10
903.958243605582
 20
10295.862878550261
 11
908.480952067174
 21
10238.396418875251
  0
LINE
  5
57
100
AcDbEntity
  8
1
  6
DOT_CENTER
 62
           1
100
AcDbLine
 10
921.455352162722
 20
10123.68696528661
 11
895.765611798353
 21
10123.68696528661
  0
LINE
  5
56
100
AcDbEntity
  8
1
  6
DOT_CENTER
 62
           1
100
AcDbLine
 10
893.504022307266
 20
10313.986901135309
 11
909.460180488717
 21
10111.244688479001
  0
LINE
  5
55
100
AcDbEntity
  8
1
  6
CONTINUOUS
 62
           3
100
AcDbLine
 10
899.508696063575
 20
10124.39309714816
 11
908.480952067174
 21
10238.396418875251
  0
LINE
  5
54
100
AcDbEntity
  8
1
  6
CONTINUOUS
 62
           3
100
AcDbLine
 10
917.453208070771
 20
10122.980833425059
 11
930.252214349432
 21
10285.607627621301
  0
LINE
  5
53
100
AcDbEntity
  8
1
  6
DOT_CENTER
 62
           1
100
AcDbLine
 10
907.50172364563
 20
10111.244688479001
 11
923.457881827082
 21
10313.98690113532
  0
LINE
  5
52
100
AcDbEntity
  8
1
  6
CONTINUOUS
 62
           3
100
AcDbLine
 10
884.985987601984
 20
10286.15674668871
 11
886.443522027764
 21
10286.15674668871
  0
LINE
  5
51
100
AcDbEntity
  8
1
  6
CONTINUOUS
 62
           3
100
AcDbLine
 10
831.985987601984
 20
10235.15674668871
 11
831.985987601984
 21
10355.15674668871
  0
LINE
  5
50
100
AcDbEntity
  8
1
  6
CONTINUOUS
 62
           3
100
AcDbLine
 10
833.985987601984
 20
10235.15674668871
 11
831.985987601984
 21
10235.15674668871
  0
LINE
  5
4F
100
AcDbEntity
  8
1
  6
CONTINUOUS
 62
           3
100
AcDbLine
 10
831.985987601984
 20
10355.15674668871
 11
833.985987601984
 21
10355.15674668871
  0
LINE
  5
4E
100
AcDbEntity
  8
1
  6
CONTINUOUS
 62
           3
100
AcDbLine
 10
833.985987601984
 20
10355.15674668871
 11
833.985987601984
 21
10235.15674668871
  0
LINE
  5
4D
100
AcDbEntity
  8
1
  6
DOT_CENTER
 62
           1
100
AcDbLine
 10
863.985987601984
 20
10343.088015421519
 11
863.985987601984
 21
10248.17324544481
  0
LINE
  5
4C
100
AcDbEntity
  8
1
  6
CONTINUOUS
 62
           3
100
AcDbLine
 10
846.485987601984
 20
10290.15674668871
 11
846.485987601984
 21
10300.15674668871
  0
LINE
  5
4B
100
AcDbEntity
  8
1
  6
CONTINUOUS
 62
           3
100
AcDbLine
 10
848.985987601984
 20
10290.15674668871
 11
846.485987601984
 21
10290.15674668871
  0
LINE
  5
4A
100
AcDbEntity
  8
1
  6
CONTINUOUS
 62
           3
100
AcDbLine
 10
836.985987601984
 20
10301.15674668871
 11
836.985987601984
 21
10289.15674668871
  0
LINE
  5
49
100
AcDbEntity
  8
1
  6
CONTINUOUS
 62
           3
100
AcDbLine
 10
878.985987601984
 20
10290.15674668871
 11
878.985987601984
 21
10289.15674668871
  0
LINE
  5
48
100
AcDbEntity
  8
1
  6
CONTINUOUS
 62
           3
100
AcDbLine
 10
878.985987601984
 20
10301.15674668871
 11
878.985987601984
 21
10300.15674668871
  0
LINE
  5
47
100
AcDbEntity
  8
1
  6
CONTINUOUS
 62
           3
100
AcDbLine
 10
848.985987601984
 20
10300.15674668871
 11
878.985987601984
 21
10300.15674668871
  0
LINE
  5
46
100
AcDbEntity
  8
1
  6
CONTINUOUS
 62
           3
100
AcDbLine
 10
848.985987601984
 20
10290.15674668871
 11
848.985987601984
 21
10289.15674668871
  0
LINE
  5
45
100
AcDbEntity
  8
1
  6
CONTINUOUS
 62
           3
100
AcDbLine
 10
878.985987601984
 20
10290.15674668871
 11
848.985987601984
 21
10290.15674668871
  0
LINE
  5
44
100
AcDbEntity
  8
1
  6
CONTINUOUS
 62
           3
100
AcDbLine
 10
848.985987601984
 20
10301.15674668871
 11
848.985987601984
 21
10300.15674668871
  0
LINE
  5
43
100
AcDbEntity
  8
1
  6
CONTINUOUS
 62
           3
100
AcDbLine
 10
846.485987601984
 20
10300.15674668871
 11
848.985987601984
 21
10300.15674668871
  0
LINE
  5
42
100
AcDbEntity
  8
1
  6
CONTINUOUS
 62
           3
100
AcDbLine
 10
883.985987601984
 20
10288.15674668871
 11
883.985987601984
 21
10287.15674668871
  0
LINE
  5
41
100
AcDbEntity
  8
1
  6
CONTINUOUS
 62
           3
100
AcDbLine
 10
884.985987601984
 20
10304.15674668871
 11
894.985987601984
 21
10304.15674668871
  0
LINE
  5
40
100
AcDbEntity
  8
1
  6
DOTTED
 62
           1
100
AcDbLine
 10
886.443522027764
 20
10286.15674668871
 11
894.985987601984
 21
10286.15674668871
  0
LINE
  5
3F
100
AcDbEntity
  8
1
  6
CONTINUOUS
 62
           3
100
AcDbLine
 10
883.985987601984
 20
10299.65674668871
 11
883.985987601984
 21
10290.65674668871
  0
LINE
  5
3E
100
AcDbEntity
  8
1
  6
CONTINUOUS
 62
           3
100
AcDbLine
 10
878.985987601984
 20
10300.15674668871
 11
883.485987601984
 21
10300.15674668871
  0
LINE
  5
3D
100
AcDbEntity
  8
1
  6
CONTINUOUS
 62
           3
100
AcDbLine
 10
883.985987601984
 20
10299.65674668871
 11
883.985987601984
 21
10290.98517381346
  0
LINE
  5
3C
100
AcDbEntity
  8
1
  6
CONTINUOUS
 62
           3
100
AcDbLine
 10
883.985987601984
 20
10303.15674668871
 11
883.985987601984
 21
10302.15674668871
  0
LINE
  5
3B
100
AcDbEntity
  8
1
  6
CONTINUOUS
 62
           3
100
AcDbLine
 10
883.485987601984
 20
10290.15674668871
 11
878.985987601984
 21
10290.15674668871
  0
LINE
  5
3A
100
AcDbEntity
  8
1
  6
CONTINUOUS
 62
           3
100
AcDbLine
 10
886.013731598386
 20
10294.450614827159
 11
899.508696063576
 21
10122.980833425059
  0
LINE
  5
39
100
AcDbEntity
  8
1
  6
DOTTED
 62
           1
100
AcDbLine
 10
908.480952067174
 20
10238.396418875251
 11
917.453208070772
 21
10124.39309714816
  0
LINE
  5
38
100
AcDbEntity
  8
1
  6
CONTINUOUS
 62
           3
100
AcDbLine
 10
910.282186373984
 20
10261.28327075541
 11
913.003660528765
 21
10295.862878550261
  0
LINE
  5
37
100
AcDbEntity
  8
1
  6
DOT_CENTER
 62
           1
100
AcDbLine
 10
908.480952067174
 20
10321.53568067042
 11
908.480952067174
 21
10105.040921633879
  0
LINE
  5
36
100
AcDbEntity
  8
1
  6
CONTINUOUS
 62
           3
100
AcDbLine
 10
932.974132058577
 20
10318.65674668871
 11
932.974132058577
 21
10271.65674668871
  0
LINE
  5
35
100
AcDbEntity
  8
1
  6
DOTTED
 62
           1
100
AcDbLine
 10
927.974132058577
 20
10286.15674668871
 11
921.975916532363
 21
10286.15674668871
  0
LINE
  5
34
100
AcDbEntity
  8
1
  6
CONTINUOUS
 62
           3
100
AcDbLine
 10
930.252214349432
 20
10285.607627621301
 11
930.278078419921
 21
10285.936261796251
  0
LINE
  5
33
100
AcDbEntity
  8
1
  6
CONTINUOUS
 62
           3
100
AcDbLine
 10
883.485987601984
 20
10334.15674668871
 11
883.485987601984
 21
10302.15674668871
  0
LINE
  5
32
100
AcDbEntity
  8
1
  6
CONTINUOUS
 62
           3
100
AcDbLine
 10
882.485987601984
 20
10301.15674668871
 11
878.985987601984
 21
10301.15674668871
  0
LINE
  5
31
100
AcDbEntity
  8
1
  6
CONTINUOUS
 62
           3
100
AcDbLine
 10
834.985987601984
 20
10301.15674668871
 11
834.985987601984
 21
10313.802497999781
  0
LINE
  5
30
100
AcDbEntity
  8
1
  6
CONTINUOUS
 62
           3
100
AcDbLine
 10
836.985987601984
 20
10336.15674668871
 11
881.485987601984
 21
10336.15674668871
  0
LINE
  5
2F
100
AcDbEntity
  8
1
  6
CONTINUOUS
 62
           3
100
AcDbLine
 10
834.985987601984
 20
10289.15674668871
 11
836.985987601984
 21
10289.15674668871
  0
LINE
  5
2E
100
AcDbEntity
  8
1
  6
CONTINUOUS
 62
           3
100
AcDbLine
 10
883.485987601984
 20
10288.15674668871
 11
883.485987601984
 21
10256.15674668871
  0
LINE
  5
2D
100
AcDbEntity
  8
1
  6
CONTINUOUS
 62
           3
100
AcDbLine
 10
881.485987601984
 20
10254.15674668871
 11
836.985987601984
 21
10254.15674668871
  0
LINE
  5
2C
100
AcDbEntity
  8
1
  6
CONTINUOUS
 62
           3
100
AcDbLine
 10
834.985987601984
 20
10256.15674668871
 11
834.985987601984
 21
10276.51099537765
  0
LINE
  5
2B
100
AcDbEntity
  8
1
  6
DOT_CENTER
 62
           1
100
AcDbLine
 10
810.715681808498
 20
10295.15674668871
 11
956.083006906498
 21
10295.15674668871
  0
LINE
  5
2A
100
AcDbEntity
  8
1
  6
DOT_CENTER
 62
           1
100
AcDbLine
 10
921.975916532363
 20
10068.205004898569
 11
921.975916532363
 21
10061.44439530622
  0
LINE
  5
29
100
AcDbEntity
  8
1
  6
DOT_CENTER
 62
           1
100
AcDbLine
 10
921.975916532363
 20
10061.44439530622
 11
921.975916532363
 21
10043.44439530622
  0
LINE
  5
28
100
AcDbEntity
  8
1
  6
DOT_CENTER
 62
           1
100
AcDbLine
 10
921.975916532363
 20
10043.44439530622
 11
921.975916532363
 21
10036.33500489857
  0
ENDSEC
  0
SECTION
  2
OBJECTS
  0
DICTIONARY
  5
19
100
AcDbDictionary
  3
ACAD_GROUP
350
1A
  3
ACAD_MLINESTYLE
350
1B
  0
DICTIONARY
  5
1A
102
{ACAD_REACTORS
330
19
102
}
100
AcDbDictionary
  0
DICTIONARY
  5
1B
102
{ACAD_REACTORS
330
19
102
}
100
AcDbDictionary
  3
STANDARD
350
1C
  0
MLINESTYLE
  5
1C
102
{ACAD_REACTORS
330
1B
102
}
100
AcDbMlineStyle
  2
STANDARD
 70
           0
  3

 62
           0
 51
90.0
 52
90.0
 71
           2
 49
0.5
 62
         256
  6
BYLAYER
 49
-0.5
 62
         256
  6
BYLAYER
  0
ENDSEC
  0
EOF
