  0
SECTION
  2
HEADER
  9
$ACADVER
  1
AC1014
  9
$ACADMAINTVER
 70
           0
  9
$DWGCODEPAGE
  3
DOS932
  9
$INSBASE
 10
0.0
 20
0.0
 30
0.0
  9
$EXTMIN
 10
1.000000000000E+20
 20
1.000000000000E+20
 30
1.000000000000E+20
  9
$EXTMAX
 10
-1.000000000000E+20
 20
-1.000000000000E+20
 30
-1.000000000000E+20
  9
$LIMMIN
 10
0.0
 20
0.0
  9
$LIMMAX
 10
0.0
 20
0.0
  9
$ORTHOMODE
 70
           0
  9
$REGENMODE
 70
           1
  9
$FILLMODE
 70
           1
  9
$QTEXTMODE
 70
           0
  9
$MIRRTEXT
 70
           1
  9
$DRAGMODE
 70
           2
  9
$LTSCALE
 40
1.0
  9
$OSMODE
 70
           0
  9
$ATTMODE
 70
           1
  9
$TEXTSIZE
 40
0.2
  9
$TRACEWID
 40
0.05
  9
$TEXTSTYLE
  7
STANDARD
  9
$CLAYER
  8
0
  9
$CELTYPE
  6
CONTINUOUS
  9
$CECOLOR
 62
         256
  9
$CELTSCALE
 40
1.0
  9
$DELOBJ
 70
           1
  9
$DISPSILH
 70
           0
  9
$DIMSCALE
 40
1.0
  9
$DIMASZ
 40
0.18
  9
$DIMEXO
 40
0.0625
  9
$DIMDLI
 40
0.38
  9
$DIMRND
 40
0.0
  9
$DIMDLE
 40
0.0
  9
$DIMEXE
 40
0.18
  9
$DIMTP
 40
0.0
  9
$DIMTM
 40
0.0
  9
$DIMTXT
 40
0.18
  9
$DIMCEN
 40
0.09
  9
$DIMTSZ
 40
0.0
  9
$DIMTOL
 70
           0
  9
$DIMLIM
 70
           0
  9
$DIMTIH
 70
           1
  9
$DIMTOH
 70
           1
  9
$DIMSE1
 70
           0
  9
$DIMSE2
 70
           0
  9
$DIMTAD
 70
           0
  9
$DIMZIN
 70
           0
  9
$DIMBLK
  1

  9
$DIMASO
 70
           1
  9
$DIMSHO
 70
           1
  9
$DIMPOST
  1

  9
$DIMAPOST
  1

  9
$DIMALT
 70
           0
  9
$DIMALTD
 70
           2
  9
$DIMALTF
 40
25.4
  9
$DIMLFAC
 40
1.0
  9
$DIMTOFL
 70
           0
  9
$DIMTVP
 40
0.0
  9
$DIMTIX
 70
           0
  9
$DIMSOXD
 70
           0
  9
$DIMSAH
 70
           0
  9
$DIMBLK1
  1

  9
$DIMBLK2
  1

  9
$DIMSTYLE
  2
STANDARD
  9
$DIMCLRD
 70
           0
  9
$DIMCLRE
 70
           0
  9
$DIMCLRT
 70
           0
  9
$DIMTFAC
 40
1.0
  9
$DIMGAP
 40
0.09
  9
$DIMJUST
 70
           0
  9
$DIMSD1
 70
           0
  9
$DIMSD2
 70
           0
  9
$DIMTOLJ
 70
           1
  9
$DIMTZIN
 70
           0
  9
$DIMALTZ
 70
           0
  9
$DIMALTTZ
 70
           0
  9
$DIMFIT
 70
           3
  9
$DIMUPT
 70
           0
  9
$DIMUNIT
 70
           2
  9
$DIMDEC
 70
           4
  9
$DIMTDEC
 70
           4
  9
$DIMALTU
 70
           2
  9
$DIMALTTD
 70
           2
  9
$DIMTXSTY
  7
STANDARD
  9
$DIMAUNIT
 70
           0
  9
$LUNITS
 70
           2
  9
$LUPREC
 70
           4
  9
$SKETCHINC
 40
0.1
  9
$FILLETRAD
 40
0.0
  9
$AUNITS
 70
           0
  9
$AUPREC
 70
           0
  9
$MENU
  1
acad
  9
$ELEVATION
 40
0.0
  9
$PELEVATION
 40
0.0
  9
$THICKNESS
 40
0.0
  9
$LIMCHECK
 70
           0
  9
$BLIPMODE
 70
           1
  9
$CHAMFERA
 40
0.0
  9
$CHAMFERB
 40
0.0
  9
$CHAMFERC
 40
0.0
  9
$CHAMFERD
 40
0.0
  9
$SKPOLY
 70
           0
  9
$TDCREATE
 40
0.000000000
  9
$TDUPDATE
 40
0.000000000
  9
$TDINDWG
 40
0.0000000000
  9
$TDUSRTIMER
 40
0.0000000000
  9
$USRTIMER
 70
           1
  9
$ANGBASE
 50
0.0
  9
$ANGDIR
 70
           0
  9
$PDMODE
 70
           0
  9
$PDSIZE
 40
0.0
  9
$PLINEWID
 40
0.0
  9
$COORDS
 70
           0
  9
$SPLFRAME
 70
           0
  9
$SPLINETYPE
 70
           6
  9
$SPLINESEGS
 70
           8
  9
$ATTDIA
 70
           0
  9
$ATTREQ
 70
           1
  9
$HANDLING
 70
           1
  9
$HANDSEED
  5
39B
  9
$SURFTAB1
 70
           6
  9
$SURFTAB2
 70
           6
  9
$SURFTYPE
 70
           6
  9
$SURFU
 70
           6
  9
$SURFV
 70
           6
  9
$UCSNAME
  2

  9
$UCSORG
 10
0.0
 20
0.0
 30
0.0
  9
$UCSXDIR
 10
1.0
 20
0.0
 30
0.0
  9
$UCSYDIR
 10
0.0
 20
1.0
 30
0.0
  9
$PUCSNAME
  2

  9
$PUCSORG
 10
0.0
 20
0.0
 30
0.0
  9
$PUCSXDIR
 10
1.0
 20
0.0
 30
0.0
  9
$PUCSYDIR
 10
0.0
 20
1.0
 30
0.0
  9
$USERI1
 70
           0
  9
$USERI2
 70
           0
  9
$USERI3
 70
           0
  9
$USERI4
 70
           0
  9
$USERI5
 70
           0
  9
$USERR1
 40
0.0
  9
$USERR2
 40
0.0
  9
$USERR3
 40
0.0
  9
$USERR4
 40
0.0
  9
$USERR5
 40
0.0
  9
$WORLDVIEW
 70
           1
  9
$SHADEDGE
 70
           3
  9
$SHADEDIF
 70
          70
  9
$TILEMODE
 70
           1
  9
$MAXACTVP
 70
          16
  9
$PINSBASE
 10
0.0
 20
0.0
 30
0.0
  9
$PLIMCHECK
 70
           0
  9
$PEXTMIN
 10
1.000000000000E+20
 20
1.000000000000E+20
 30
1.000000000000E+20
  9
$PEXTMAX
 10
-1.000000000000E+20
 20
-1.000000000000E+20
 30
-1.000000000000E+20
  9
$PLIMMIN
 10
0.0
 20
0.0
  9
$PLIMMAX
 10
12.0
 20
9.0
  9
$UNITMODE
 70
           0
  9
$VISRETAIN
 70
           0
  9
$PLINEGEN
 70
           1
  9
$PSLTSCALE
 70
           0
  9
$TREEDEPTH
 70
        3020
  9
$PICKSTYLE
 70
           1
  9
$CMLSTYLE
  2
STANDARD
  9
$CMLJUST
 70
           0
  9
$CMLSCALE
 40
1.0
  9
$PROXYGRAPHICS
 70
           0
  9
$MEASUREMENT
 70
           1
  0
ENDSEC
  0
SECTION
  2
CLASSES
  0
CLASS
  1
LWPOLYLINE
  2
AcDbPolyline
  3
"AutoCAD"
 90
        0
280
           0
281
           1
  0
CLASS
  1
IMAGE
  2
AcDbRasterImage
  3
ISM
 90
      127
280
           0
281
           1
  0
CLASS
  1
OLE2FRAME
  2
AcDbOle2Frame
  3
""
 90
        0
280
           0
281
           1
  0
CLASS
  1
HATCH
  2
AcDbHatch
  3
"ACAD_SEDONA"
 90
        0
280
           0
281
           1
  0
CLASS
  1
DICTIONARYVAR
  2
AcDbDictionaryVar
  3
"AutoCAD"
 90
        0
280
           0
281
           0
  0
CLASS
  1
RASTERVARIABLES
  2
AcDbRasterVariables
  3
ISM
 90
        0
280
           0
281
           0
  0
CLASS
  1
IMAGEDEF
  2
AcDbRasterImageDef
  3
ISM
 90
        0
280
           0
281
           0
  0
CLASS
  1
IMAGEDEF_REACTOR
  2
AcDbRasterImageDefReactor
  3
ISM
 90
        1
280
           0
281
           0
  0
CLASS
  1
IDBUFFER
  2
AcDbIdBuffer
  3
"Acad"
 90
        0
280
           0
281
           0
  0
CLASS
  1
SPATIAL_FILTER
  2
AcDbSpatialFilter
  3
"Acad"
 90
        0
280
           0
281
           0
  0
CLASS
  1
XRECORD
  2
AcDbXrecord
  3
"<Built In>"
 90
        0
280
           0
281
           0
  0
CLASS
  1
SORTENTSTABLE
  2
AcDbSortentsTable
  3
"AutoCAD"
 90
        0
280
           0
281
           0
  0
CLASS
  1
LAYER_INDEX
  2
AcDbLayerIndex
  3
"Acad"
 90
        0
280
           0
281
           0
  0
CLASS
  1
SPATIAL_INDEX
  2
AcDbSpatialIndex
  3
"Acad"
 90
        0
280
           0
281
           0
  0
CLASS
  1
OBJECT_PTR
  2
CAseDLPNTableRecord
  3
"ASE-LPNTableRecord"
 90
        1
280
           0
281
           0
  0
CLASS
  1
LAYOUT
  2
AcDbLayout
  3
"AutoCAD 2000"
 90
        1
280
           0
281
           0
  0
CLASS
  1
PLOTSETTINGS
  2
AcDbPlotSettings
  3
"AutoCAD 2000"
 90
        1
280
           0
281
           0
  0
CLASS
  1
ACDBDICTIONARYWDFLT
  2
AcDbDictionaryWithDefault
  3
"AutoCAD 2000"
 90
        1
280
           0
281
           0
  0
CLASS
  1
ACDBPLACEHOLDER
  2
AcDbPlaceHolder
  3
"AutoCAD 2000"
 90
        1
280
           0
281
           0
  0
CLASS
  1
VBA_PROJECT
  2
AcDbVbaProject
  3
"acadvba"
 90
        1
280
           0
281
           0
  0
CLASS
  1
WIPEOUT
  2
AcDbWipeout
  3
WipeOut|AutoCAD Express Tool|expresstools@autodesk.com
 90
      127
280
           0
281
           1
  0
CLASS
  1
WIPEOUTVARIABLES
  2
AcDbWipeoutVariables
  3
WipeOut|AutoCAD Express Tool|expresstools@autodesk.com
 90
        0
280
           0
281
           0
  0
CLASS
  1
RTEXT
  2
RText
  3
RText|AutoCAD Express Tool|expresstools@autodesk.com
 90
        0
280
           0
281
           1
  0
CLASS
  1
ARCALIGNEDTEXT
  2
AcDbArcAlignedText
  3
ATEXT|AutoCAD Express Tool|expresstools@autodesk.com
 90
        0
280
           0
281
           1
  0
ENDSEC
  0
SECTION
  2
TABLES
  0
TABLE
  2
VPORT
  5
7
100
AcDbSymbolTable
 70
           1
  0
VPORT
  5
15
100
AcDbSymbolTableRecord
100
AcDbViewportTableRecord
  2
*ACTIVE
 70
           0
 10
0.0
 20
0.0
 11
1.0
 21
1.0
 12
6.591288
 22
4.579184
 13
0.0
 23
0.0
 14
1.0
 24
1.0
 15
0.0
 25
0.0
 16
0.0
 26
0.0
 36
1.0
 17
0.0
 27
0.0
 37
0.0
 40
9.158369
 41
0.688564
 42
50.0
 43
0.0
 44
0.0
 50
0.0
 51
0.0
 71
           0
 72
         100
 73
           1
 74
           1
 75
           0
 76
           0
 77
           0
 78
           0
  0
ENDTAB
  0
TABLE
  2
LTYPE
  5
4
100
AcDbSymbolTable
 70
          10
  0
LTYPE
  5
11
100
AcDbSymbolTableRecord
100
AcDbLinetypeTableRecord
  2
BYBLOCK
 70
          64
  3

 72
          65
 73
           0
 40
0.0
  0
LTYPE
  5
12
100
AcDbSymbolTableRecord
100
AcDbLinetypeTableRecord
  2
BYLAYER
 70
          64
  3

 72
          65
 73
           0
 40
0.0
  0
LTYPE
  5
13
100
AcDbSymbolTableRecord
100
AcDbLinetypeTableRecord
  2
CONTINUOUS
 70
          64
  3
Solid line
 72
          65
 73
           0
 40
0.0
  0
LTYPE
  5
1D
100
AcDbSymbolTableRecord
100
AcDbLinetypeTableRecord
  2
DASHED
 70
          64
  3
Dashed
 72
          65
 73
           2
 40
15.0
 49
12.0
 74
           0
 49
-3.0
 74
           0
  0
LTYPE
  5
1E
100
AcDbSymbolTableRecord
100
AcDbLinetypeTableRecord
  2
DOTTED
 70
          64
  3
Dotted
 72
          65
 73
           2
 40
3.5
 49
0.5
 74
           0
 49
-3.0
 74
           0
  0
LTYPE
  5
1F
100
AcDbSymbolTableRecord
100
AcDbLinetypeTableRecord
  2
DOT_CENTER
 70
          64
  3
Dot_Center
 72
          65
 73
           4
 40
2.0
 49
1.25
 74
           0
 49
-0.25
 74
           0
 49
0.25
 74
           0
 49
-0.25
 74
           0
  0
LTYPE
  5
20
100
AcDbSymbolTableRecord
100
AcDbLinetypeTableRecord
  2
LONG_DASHED
 70
          64
  3
Long_Dashed
 72
          65
 73
           2
 40
2.0
 49
1.5
 74
           0
 49
-0.5
 74
           0
  0
LTYPE
  5
21
100
AcDbSymbolTableRecord
100
AcDbLinetypeTableRecord
  2
DASH_CENTER
 70
          64
  3
Dash_Center
 72
          65
 73
           4
 40
36.0
 49
24.0
 74
           0
 49
-3.0
 74
           0
 49
6.0
 74
           0
 49
-3.0
 74
           0
  0
LTYPE
  5
22
100
AcDbSymbolTableRecord
100
AcDbLinetypeTableRecord
  2
PHANTOM
 70
          64
  3
Phantom
 72
          65
 73
           6
 40
2.5
 49
1.25
 74
           0
 49
-0.25
 74
           0
 49
0.25
 74
           0
 49
-0.25
 74
           0
 49
0.25
 74
           0
 49
-0.25
 74
           0
  0
LTYPE
  5
23
100
AcDbSymbolTableRecord
100
AcDbLinetypeTableRecord
  2
CENTER_DASH_DASH
 70
          64
  3
Center_Dash_Dash
 72
          65
 73
           6
 40
22.0
 49
12.0
 74
           0
 49
-3.0
 74
           0
 49
0.5
 74
           0
 49
-3.0
 74
           0
 49
0.5
 74
           0
 49
-3.0
 74
           0
  0
ENDTAB
  0
TABLE
  2
LAYER
  5
2
100
AcDbSymbolTable
 70
           2
  0
LAYER
  5
14
100
AcDbSymbolTableRecord
100
AcDbLayerTableRecord
  2
0
 70
           0
 62
           7
  6
CONTINUOUS
  0
LAYER
  5
24
100
AcDbSymbolTableRecord
100
AcDbLayerTableRecord
  2
1
 70
           0
 62
           7
  6
CONTINUOUS
  0
ENDTAB
  0
TABLE
  2
STYLE
  5
3
100
AcDbSymbolTable
 70
           3
  0
STYLE
  5
17
100
AcDbSymbolTableRecord
100
AcDbTextStyleTableRecord
  2
STANDARD
 70
           0
 40
0.0
 41
1.0
 50
0.0
 71
           0
 42
0.0
  3
txt
  4

  0
STYLE
  5
396
100
AcDbSymbolTableRecord
100
AcDbTextStyleTableRecord
  2
CONVERTER_1
 70
           0
 40
0.0
 41
0.72
 50
0.0
 71
           0
 42
0.0
  3
MS Gothic
  4

1001
ACAD
1000
MS Gothic
1071
    32785
  0
STYLE
  5
398
100
AcDbSymbolTableRecord
100
AcDbTextStyleTableRecord
  2
CONVERTER_2
 70
           0
 40
0.0
 41
1.125
 50
0.0
 71
           0
 42
0.0
  3
txt
  4

  0
ENDTAB
  0
TABLE
  2
VIEW
  5
5
100
AcDbSymbolTable
 70
           0
  0
ENDTAB
  0
TABLE
  2
UCS
  5
6
100
AcDbSymbolTable
 70
           0
  0
ENDTAB
  0
TABLE
  2
APPID
  5
8
100
AcDbSymbolTable
 70
           1
  0
APPID
  5
16
100
AcDbSymbolTableRecord
100
AcDbRegAppTableRecord
  2
ACAD
 70
           0
  0
ENDTAB
  0
TABLE
  2
DIMSTYLE
  5
9
100
AcDbSymbolTable
 70
           1
  0
DIMSTYLE
105
18
100
AcDbSymbolTableRecord
100
AcDbDimStyleTableRecord
  2
STANDARD
 70
           0
  3

  4

  5

  6

  7

 40
1.0
 41
0.18
 42
0.0625
 43
0.38
 44
0.18
 45
0.0
 46
0.0
 47
0.0
 48
0.0
 71
           0
 72
           0
 73
           1
 74
           1
 75
           0
 76
           0
 77
           0
 78
           0
140
0.18
141
0.09
142
0.0
143
25.4
144
1.0
145
0.0
146
1.0
147
0.09
170
           0
171
           2
172
           0
173
           0
174
           0
175
           0
176
           0
177
           0
178
           0
270
           2
271
           4
272
           4
273
           2
274
           2
275
           0
280
           0
281
           0
282
           0
283
           1
284
           0
285
           0
286
           0
287
           0
288
           0
340
17
  0
ENDTAB
  0
TABLE
  2
BLOCK_RECORD
  5
1
100
AcDbSymbolTable
 70
           0
  0
BLOCK_RECORD
  5
A
100
AcDbSymbolTableRecord
100
AcDbBlockTableRecord
  2
*MODEL_SPACE
  0
BLOCK_RECORD
  5
B
100
AcDbSymbolTableRecord
100
AcDbBlockTableRecord
  2
*PAPER_SPACE
  0
ENDTAB
  0
ENDSEC
  0
SECTION
  2
BLOCKS
  0
BLOCK
  5
D
100
AcDbEntity
  8
0
100
AcDbBlockBegin
  2
*MODEL_SPACE
 70
           0
 10
0.0
 20
0.0
 30
0.0
  3
*MODEL_SPACE
  1

  0
ENDBLK
  5
E
100
AcDbEntity
  8
0
100
AcDbBlockEnd
  0
BLOCK
  5
F
100
AcDbEntity
 67
           1
  8
0
100
AcDbBlockBegin
  2
*PAPER_SPACE
 70
           0
 10
0.0
 20
0.0
 30
0.0
  3
*PAPER_SPACE
  1

  0
ENDBLK
  5
10
100
AcDbEntity
 67
           1
  8
0
100
AcDbBlockEnd
  0
ENDSEC
  0
SECTION
  2
ENTITIES
  0
MTEXT
  5
399
100
AcDbEntity
  8
1
 62
           1
100
AcDbMText
 10
1029.201028897635
 20
11830.197647099671
 30
0.0
 40
7.799804672134
 41
0.0
 71
           5
 72
           1
  1
STV-2S
  7
CONVERTER_2
  0
MTEXT
  5
397
100
AcDbEntity
  8
1
 62
           1
100
AcDbMText
 10
1029.201028897635
 20
11812.547647099669
 30
0.0
 40
7.799804672134
 41
0.0
 71
           5
 72
           1
  1
Ｓ-ＴＶアーム ２軸・スタンド型
  7
CONVERTER_1
  0
ARC
  5
395
100
AcDbEntity
  8
1
  6
CONTINUOUS
 62
           3
100
AcDbCircle
 10
855.900664182922
 20
11528.64846788563
 40
4.0
100
AcDbArc
 50
0.0
 51
90.0
  0
ARC
  5
394
100
AcDbEntity
  8
1
  6
CONTINUOUS
 62
           3
100
AcDbCircle
 10
840.902448656708
 20
11545.19846788563
 40
1.0
100
AcDbArc
 50
90.0
 51
180.0
  0
ARC
  5
393
100
AcDbEntity
  8
1
  6
CONTINUOUS
 62
           3
100
AcDbCircle
 10
840.902448656709
 20
11533.64846788563
 40
1.0
100
AcDbArc
 50
180.0
 51
-90.000000000013
  0
ARC
  5
392
100
AcDbEntity
  8
1
  6
CONTINUOUS
 62
           3
100
AcDbCircle
 10
858.904233130495
 20
11547.19846788563
 40
1.0
100
AcDbArc
 50
-90.0
 51
0.0
  0
ARC
  5
391
100
AcDbEntity
  8
1
  6
CONTINUOUS
 62
           3
100
AcDbCircle
 10
855.900664182922
 20
11585.64846788563
 40
4.0
100
AcDbArc
 50
-90.0
 51
0.0
  0
ARC
  5
390
100
AcDbEntity
  8
1
  6
CONTINUOUS
 62
           3
100
AcDbCircle
 10
840.902448656708
 20
11569.098467885629
 40
1.0
100
AcDbArc
 50
180.0
 51
-90.0
  0
ARC
  5
38F
100
AcDbEntity
  8
1
  6
CONTINUOUS
 62
           3
100
AcDbCircle
 10
840.902448656708
 20
11580.64846788563
 40
1.0
100
AcDbArc
 50
90.0
 51
180.0
  0
ARC
  5
38E
100
AcDbEntity
  8
1
  6
CONTINUOUS
 62
           3
100
AcDbCircle
 10
858.904233130495
 20
11567.098467885629
 40
1.0
100
AcDbArc
 50
0.0
 51
90.0
  0
ARC
  5
38D
100
AcDbEntity
  8
1
  6
CONTINUOUS
 62
           3
100
AcDbCircle
 10
690.222956732397
 20
11546.14846788563
 40
10.0
100
AcDbArc
 50
-90.0
 51
-60.000000000001
  0
ARC
  5
38C
100
AcDbEntity
  8
1
  6
CONTINUOUS
 62
           3
100
AcDbCircle
 10
714.634499464278
 20
11577.14846788563
 40
9.999999999997
100
AcDbArc
 50
-120.00000000001
 51
-90.0
  0
ARC
  5
38B
100
AcDbEntity
  8
1
  6
CONTINUOUS
 62
           3
100
AcDbCircle
 10
714.634499464278
 20
11537.14846788563
 40
10.0
100
AcDbArc
 50
90.0
 51
119.999999999984
  0
ARC
  5
38A
100
AcDbEntity
  8
1
  6
CONTINUOUS
 62
           3
100
AcDbCircle
 10
690.222956732397
 20
11568.14846788563
 40
10.000000000005
100
AcDbArc
 50
60.000000000016
 51
90.0
  0
ARC
  5
389
100
AcDbEntity
  8
1
  6
CONTINUOUS
 62
           3
100
AcDbCircle
 10
686.904233130495
 20
11547.14846788563
 40
1.0
100
AcDbArc
 50
-90.0
 51
0.0
  0
ARC
  5
388
100
AcDbEntity
  8
1
  6
CONTINUOUS
 62
           3
100
AcDbCircle
 10
686.904233130495
 20
11567.14846788563
 40
1.0
100
AcDbArc
 50
0.0
 51
90.0
  0
ARC
  5
387
100
AcDbEntity
  8
1
  6
CONTINUOUS
 62
           3
100
AcDbCircle
 10
668.902448656708
 20
11537.14846788563
 40
1.0
100
AcDbArc
 50
180.0
 51
-90.0
  0
ARC
  5
386
100
AcDbEntity
  8
1
  6
CONTINUOUS
 62
           3
100
AcDbCircle
 10
668.902448656708
 20
11545.14846788563
 40
1.0
100
AcDbArc
 50
90.0
 51
180.0
  0
ARC
  5
385
100
AcDbEntity
  8
1
  6
CONTINUOUS
 62
           3
100
AcDbCircle
 10
668.902448656708
 20
11577.14846788563
 40
1.0
100
AcDbArc
 50
90.0
 51
180.0
  0
ARC
  5
384
100
AcDbEntity
  8
1
  6
CONTINUOUS
 62
           3
100
AcDbCircle
 10
668.902448656708
 20
11569.14846788563
 40
1.0
100
AcDbArc
 50
180.0
 51
-89.999999999974
  0
ARC
  5
383
100
AcDbEntity
  8
1
  6
CONTINUOUS
 62
           3
100
AcDbCircle
 10
857.404233130495
 20
11566.64846788563
 40
0.5
100
AcDbArc
 50
0.0
 51
90.0
  0
ARC
  5
382
100
AcDbEntity
  8
1
  6
CONTINUOUS
 62
           3
100
AcDbCircle
 10
857.404233130495
 20
11547.64846788563
 40
0.5
100
AcDbArc
 50
-90.0
 51
0.0
  0
ARC
  5
381
100
AcDbEntity
  8
1
  6
CONTINUOUS
 62
           3
100
AcDbCircle
 10
724.002448656709
 20
11557.44846788563
 40
0.200000000001
100
AcDbArc
 50
90.0
 51
180.0
  0
ARC
  5
380
100
AcDbEntity
  8
1
  6
CONTINUOUS
 62
           3
100
AcDbCircle
 10
733.802448656709
 20
11557.44846788563
 40
0.2
100
AcDbArc
 50
0.0
 51
90.0
  0
ARC
  5
37F
100
AcDbEntity
  8
1
  6
CONTINUOUS
 62
           3
100
AcDbCircle
 10
734.202448656709
 20
11547.348467885629
 40
0.2
100
AcDbArc
 50
180.0
 51
-90.0
  0
ARC
  5
37E
100
AcDbEntity
  8
1
  6
CONTINUOUS
 62
           3
100
AcDbCircle
 10
723.602448656708
 20
11547.348467885629
 40
0.199999999999
100
AcDbArc
 50
-90.0
 51
0.0
  0
CIRCLE
  5
37D
100
AcDbEntity
  8
1
  6
CONTINUOUS
 62
           3
100
AcDbCircle
 10
1030.822293889428
 20
11519.64846788563
 40
2.6
  0
CIRCLE
  5
37C
100
AcDbEntity
  8
1
  6
CONTINUOUS
 62
           3
100
AcDbCircle
 10
1018.322293889428
 20
11507.14846788563
 40
2.6
  0
CIRCLE
  5
37B
100
AcDbEntity
  8
1
  6
CONTINUOUS
 62
           3
100
AcDbCircle
 10
472.705336135129
 20
11612.14846788563
 40
2.5
  0
CIRCLE
  5
37A
100
AcDbEntity
  8
1
  6
CONTINUOUS
 62
           3
100
AcDbCircle
 10
502.705336135129
 20
11612.14846788563
 40
2.5
  0
CIRCLE
  5
379
100
AcDbEntity
  8
1
  6
DOTTED
 62
           1
100
AcDbCircle
 10
502.705336135129
 20
11584.64846788563
 40
2.5
  0
CIRCLE
  5
378
100
AcDbEntity
  8
1
  6
DOTTED
 62
           1
100
AcDbCircle
 10
472.705336135129
 20
11584.64846788563
 40
2.5
  0
CIRCLE
  5
377
100
AcDbEntity
  8
1
  6
DOTTED
 62
           1
100
AcDbCircle
 10
472.705336135129
 20
11557.14846788563
 40
2.5
  0
CIRCLE
  5
376
100
AcDbEntity
  8
1
  6
DOTTED
 62
           1
100
AcDbCircle
 10
502.705336135129
 20
11557.14846788563
 40
2.5
  0
CIRCLE
  5
375
100
AcDbEntity
  8
1
  6
DOTTED
 62
           1
100
AcDbCircle
 10
502.705336135129
 20
11529.64846788563
 40
2.5
  0
CIRCLE
  5
374
100
AcDbEntity
  8
1
  6
DOTTED
 62
           1
100
AcDbCircle
 10
472.705336135129
 20
11529.64846788563
 40
2.5
  0
CIRCLE
  5
373
100
AcDbEntity
  8
1
  6
CONTINUOUS
 62
           3
100
AcDbCircle
 10
472.705336135129
 20
11502.14846788563
 40
2.5
  0
CIRCLE
  5
372
100
AcDbEntity
  8
1
  6
CONTINUOUS
 62
           3
100
AcDbCircle
 10
502.705336135129
 20
11502.14846788563
 40
2.5
  0
CIRCLE
  5
371
100
AcDbEntity
  8
1
  6
CONTINUOUS
 62
           3
100
AcDbCircle
 10
676.902448656709
 20
11768.969985875719
 40
7.0
  0
CIRCLE
  5
370
100
AcDbEntity
  8
1
  6
CONTINUOUS
 62
           3
100
AcDbCircle
 10
848.902448656709
 20
11768.969985875719
 40
7.0
  0
CIRCLE
  5
36F
100
AcDbEntity
  8
1
  6
CONTINUOUS
 62
           3
100
AcDbCircle
 10
537.705336135129
 20
11507.14846788563
 40
2.6
  0
CIRCLE
  5
36E
100
AcDbEntity
  8
1
  6
CONTINUOUS
 62
           3
100
AcDbCircle
 10
525.205336135129
 20
11519.64846788563
 40
2.6
  0
CIRCLE
  5
36D
100
AcDbEntity
  8
1
  6
CONTINUOUS
 62
           3
100
AcDbCircle
 10
477.705336135129
 20
11569.64846788563
 40
3.5
  0
CIRCLE
  5
36C
100
AcDbEntity
  8
1
  6
CONTINUOUS
 62
           3
100
AcDbCircle
 10
497.705336135129
 20
11569.64846788563
 40
3.5
  0
CIRCLE
  5
36B
100
AcDbEntity
  8
1
  6
CONTINUOUS
 62
           3
100
AcDbCircle
 10
497.705336135129
 20
11544.64846788563
 40
3.5
  0
CIRCLE
  5
36A
100
AcDbEntity
  8
1
  6
CONTINUOUS
 62
           3
100
AcDbCircle
 10
477.705336135129
 20
11544.64846788563
 40
3.5
  0
CIRCLE
  5
369
100
AcDbEntity
  8
1
  6
CONTINUOUS
 62
           3
100
AcDbCircle
 10
1068.322293889428
 20
11376.64846788563
 40
15.0
  0
CIRCLE
  5
368
100
AcDbEntity
  8
1
  6
CONTINUOUS
 62
           3
100
AcDbCircle
 10
1083.322293889428
 20
11419.64846788563
 40
2.5
  0
CIRCLE
  5
367
100
AcDbEntity
  8
1
  6
CONTINUOUS
 62
           3
100
AcDbCircle
 10
1053.322293889428
 20
11419.64846788563
 40
2.5
  0
CIRCLE
  5
366
100
AcDbEntity
  8
1
  6
CONTINUOUS
 62
           3
100
AcDbCircle
 10
1053.322293889428
 20
11447.14846788563
 40
2.5
  0
CIRCLE
  5
365
100
AcDbEntity
  8
1
  6
CONTINUOUS
 62
           3
100
AcDbCircle
 10
1083.322293889428
 20
11447.14846788563
 40
2.5
  0
CIRCLE
  5
364
100
AcDbEntity
  8
1
  6
CONTINUOUS
 62
           3
100
AcDbCircle
 10
1053.322293889428
 20
11474.64846788563
 40
2.5
  0
CIRCLE
  5
363
100
AcDbEntity
  8
1
  6
CONTINUOUS
 62
           3
100
AcDbCircle
 10
1083.322293889428
 20
11474.64846788563
 40
2.5
  0
CIRCLE
  5
362
100
AcDbEntity
  8
1
  6
CONTINUOUS
 62
           3
100
AcDbCircle
 10
1053.322293889428
 20
11502.14846788563
 40
2.5
  0
CIRCLE
  5
361
100
AcDbEntity
  8
1
  6
CONTINUOUS
 62
           3
100
AcDbCircle
 10
1083.322293889428
 20
11502.14846788563
 40
2.5
  0
CIRCLE
  5
360
100
AcDbEntity
  8
1
  6
CONTINUOUS
 62
           3
100
AcDbCircle
 10
1053.322293889428
 20
11557.14846788563
 40
2.5
  0
CIRCLE
  5
35F
100
AcDbEntity
  8
1
  6
CONTINUOUS
 62
           3
100
AcDbCircle
 10
1083.322293889428
 20
11557.14846788563
 40
2.5
  0
CIRCLE
  5
35E
100
AcDbEntity
  8
1
  6
CONTINUOUS
 62
           3
100
AcDbCircle
 10
1053.322293889428
 20
11612.14846788563
 40
2.5
  0
CIRCLE
  5
35D
100
AcDbEntity
  8
1
  6
CONTINUOUS
 62
           3
100
AcDbCircle
 10
1083.322293889428
 20
11612.14846788563
 40
2.5
  0
CIRCLE
  5
35C
100
AcDbEntity
  8
1
  6
CONTINUOUS
 62
           3
100
AcDbCircle
 10
1053.322293889428
 20
11639.64846788563
 40
2.5
  0
CIRCLE
  5
35B
100
AcDbEntity
  8
1
  6
CONTINUOUS
 62
           3
100
AcDbCircle
 10
1083.322293889428
 20
11639.64846788563
 40
2.5
  0
CIRCLE
  5
35A
100
AcDbEntity
  8
1
  6
DOTTED
 62
           1
100
AcDbCircle
 10
842.900664182922
 20
11768.969985875719
 40
3.75
  0
CIRCLE
  5
359
100
AcDbEntity
  8
1
  6
CONTINUOUS
 62
           3
100
AcDbCircle
 10
787.900664182922
 20
11826.469985875719
 40
3.75
  0
CIRCLE
  5
358
100
AcDbEntity
  8
1
  6
CONTINUOUS
 62
           3
100
AcDbCircle
 10
842.900664182922
 20
11826.469985875719
 40
3.75
  0
CIRCLE
  5
357
100
AcDbEntity
  8
1
  6
CONTINUOUS
 62
           3
100
AcDbCircle
 10
842.900664182922
 20
11711.469985875719
 40
3.75
  0
CIRCLE
  5
356
100
AcDbEntity
  8
1
  6
CONTINUOUS
 62
           3
100
AcDbCircle
 10
787.900664182922
 20
11711.469985875719
 40
3.75
  0
CIRCLE
  5
355
100
AcDbEntity
  8
1
  6
CONTINUOUS
 62
           3
100
AcDbCircle
 10
502.705336135129
 20
11639.64846788563
 40
2.5
  0
CIRCLE
  5
354
100
AcDbEntity
  8
1
  6
CONTINUOUS
 62
           3
100
AcDbCircle
 10
472.705336135129
 20
11639.64846788563
 40
2.5
  0
CIRCLE
  5
353
100
AcDbEntity
  8
1
  6
CONTINUOUS
 62
           3
100
AcDbCircle
 10
502.705336135129
 20
11474.64846788563
 40
2.5
  0
CIRCLE
  5
352
100
AcDbEntity
  8
1
  6
CONTINUOUS
 62
           3
100
AcDbCircle
 10
472.705336135129
 20
11474.64846788563
 40
2.5
  0
CIRCLE
  5
351
100
AcDbEntity
  8
1
  6
CONTINUOUS
 62
           3
100
AcDbCircle
 10
502.705336135129
 20
11447.14846788563
 40
2.5
  0
CIRCLE
  5
350
100
AcDbEntity
  8
1
  6
CONTINUOUS
 62
           3
100
AcDbCircle
 10
472.705336135129
 20
11447.14846788563
 40
2.5
  0
CIRCLE
  5
34F
100
AcDbEntity
  8
1
  6
CONTINUOUS
 62
           3
100
AcDbCircle
 10
472.705336135129
 20
11419.64846788563
 40
2.5
  0
CIRCLE
  5
34E
100
AcDbEntity
  8
1
  6
CONTINUOUS
 62
           3
100
AcDbCircle
 10
502.705336135129
 20
11419.64846788563
 40
2.5
  0
CIRCLE
  5
34D
100
AcDbEntity
  8
1
  6
CONTINUOUS
 62
           3
100
AcDbCircle
 10
487.705336135129
 20
11376.64846788563
 40
15.0
  0
CIRCLE
  5
34C
100
AcDbEntity
  8
1
  6
CONTINUOUS
 62
           3
100
AcDbCircle
 10
1083.322293889428
 20
11584.64846788563
 40
5.0
  0
CIRCLE
  5
34B
100
AcDbEntity
  8
1
  6
CONTINUOUS
 62
           3
100
AcDbCircle
 10
1053.322293889428
 20
11584.64846788563
 40
5.0
  0
CIRCLE
  5
34A
100
AcDbEntity
  8
1
  6
CONTINUOUS
 62
           3
100
AcDbCircle
 10
1053.322293889428
 20
11529.64846788563
 40
5.0
  0
CIRCLE
  5
349
100
AcDbEntity
  8
1
  6
CONTINUOUS
 62
           3
100
AcDbCircle
 10
1083.322293889428
 20
11529.64846788563
 40
5.0
  0
CIRCLE
  5
348
100
AcDbEntity
  8
1
  6
DOTTED
 62
           1
100
AcDbCircle
 10
1053.322293889428
 20
11584.64846788563
 40
2.5
  0
CIRCLE
  5
347
100
AcDbEntity
  8
1
  6
DOTTED
 62
           1
100
AcDbCircle
 10
1083.322293889428
 20
11584.64846788563
 40
2.5
  0
CIRCLE
  5
346
100
AcDbEntity
  8
1
  6
DOTTED
 62
           1
100
AcDbCircle
 10
1083.322293889428
 20
11529.64846788563
 40
2.5
  0
CIRCLE
  5
345
100
AcDbEntity
  8
1
  6
DOTTED
 62
           1
100
AcDbCircle
 10
1053.322293889428
 20
11529.64846788563
 40
2.5
  0
ARC
  5
344
100
AcDbEntity
  8
1
  6
CONTINUOUS
 62
           3
100
AcDbCircle
 10
1105.822293889429
 20
11523.04846788563
 40
2.599999999999
100
AcDbArc
 50
0.0
 51
89.999999999975
  0
ARC
  5
343
100
AcDbEntity
  8
1
  6
CONTINUOUS
 62
           3
100
AcDbCircle
 10
1105.822293889429
 20
11523.04846788563
 40
2.6
100
AcDbArc
 50
89.999999999975
 51
180.0
  0
ARC
  5
342
100
AcDbEntity
  8
1
  6
CONTINUOUS
 62
           3
100
AcDbCircle
 10
1105.822293889429
 20
11516.248467885631
 40
2.6
100
AcDbArc
 50
180.0
 51
-90.0
  0
ARC
  5
341
100
AcDbEntity
  8
1
  6
CONTINUOUS
 62
           3
100
AcDbCircle
 10
1105.822293889429
 20
11516.248467885631
 40
2.6
100
AcDbArc
 50
-90.0
 51
0.0
  0
ARC
  5
340
100
AcDbEntity
  8
1
  6
CONTINUOUS
 62
           3
100
AcDbCircle
 10
1118.322293889429
 20
11503.748467885631
 40
2.6
100
AcDbArc
 50
-90.0
 51
0.0
  0
ARC
  5
33F
100
AcDbEntity
  8
1
  6
CONTINUOUS
 62
           3
100
AcDbCircle
 10
1118.322293889429
 20
11503.748467885631
 40
2.600000000001
100
AcDbArc
 50
180.0
 51
-90.0
  0
ARC
  5
33E
100
AcDbEntity
  8
1
  6
CONTINUOUS
 62
           3
100
AcDbCircle
 10
1118.322293889429
 20
11510.54846788563
 40
2.6
100
AcDbArc
 50
89.999999999975
 51
180.0
  0
ARC
  5
33D
100
AcDbEntity
  8
1
  6
CONTINUOUS
 62
           3
100
AcDbCircle
 10
1118.322293889429
 20
11510.54846788563
 40
2.599999999999
100
AcDbArc
 50
0.0
 51
89.999999999975
  0
ARC
  5
33C
100
AcDbEntity
  8
1
  6
CONTINUOUS
 62
           3
100
AcDbCircle
 10
1034.222293889428
 20
11594.64846788563
 40
2.600000000002
100
AcDbArc
 50
0.0
 51
90.0
  0
ARC
  5
33B
100
AcDbEntity
  8
1
  6
CONTINUOUS
 62
           3
100
AcDbCircle
 10
1034.222293889428
 20
11594.64846788563
 40
2.6
100
AcDbArc
 50
-90.0
 51
0.0
  0
ARC
  5
33A
100
AcDbEntity
  8
1
  6
CONTINUOUS
 62
           3
100
AcDbCircle
 10
1027.422293889428
 20
11594.64846788563
 40
2.599999999999
100
AcDbArc
 50
180.0
 51
-90.0
  0
ARC
  5
339
100
AcDbEntity
  8
1
  6
CONTINUOUS
 62
           3
100
AcDbCircle
 10
1027.422293889428
 20
11594.64846788563
 40
2.6
100
AcDbArc
 50
90.0
 51
180.0
  0
ARC
  5
338
100
AcDbEntity
  8
1
  6
CONTINUOUS
 62
           3
100
AcDbCircle
 10
1103.418130833394
 20
11597.052630941669
 40
2.599999999998
100
AcDbArc
 50
44.99999999994
 51
135.000000000056
  0
ARC
  5
337
100
AcDbEntity
  8
1
  6
CONTINUOUS
 62
           3
100
AcDbCircle
 10
1103.418130833394
 20
11597.052630941669
 40
2.599999999997
100
AcDbArc
 50
135.000000000056
 51
-134.999999999943
  0
ARC
  5
336
100
AcDbEntity
  8
1
  6
CONTINUOUS
 62
           3
100
AcDbCircle
 10
1108.226456945462
 20
11592.244304829601
 40
2.600000000003
100
AcDbArc
 50
-134.999999999897
 51
-45.000000000081
  0
ARC
  5
335
100
AcDbEntity
  8
1
  6
CONTINUOUS
 62
           3
100
AcDbCircle
 10
1108.226456945462
 20
11592.244304829601
 40
2.600000000004
100
AcDbArc
 50
-45.000000000081
 51
44.999999999911
  0
ARC
  5
334
100
AcDbEntity
  8
1
  6
CONTINUOUS
 62
           3
100
AcDbCircle
 10
1120.726456945462
 20
11604.744304829601
 40
2.600000000004
100
AcDbArc
 50
-45.000000000081
 51
44.999999999911
  0
ARC
  5
333
100
AcDbEntity
  8
1
  6
CONTINUOUS
 62
           3
100
AcDbCircle
 10
1120.726456945462
 20
11604.744304829601
 40
2.600000000003
100
AcDbArc
 50
-134.999999999897
 51
-45.000000000081
  0
ARC
  5
332
100
AcDbEntity
  8
1
  6
CONTINUOUS
 62
           3
100
AcDbCircle
 10
1115.918130833394
 20
11609.552630941669
 40
2.599999999997
100
AcDbArc
 50
135.000000000056
 51
-134.999999999943
  0
ARC
  5
331
100
AcDbEntity
  8
1
  6
CONTINUOUS
 62
           3
100
AcDbCircle
 10
1115.918130833394
 20
11609.552630941669
 40
2.599999999998
100
AcDbArc
 50
44.99999999994
 51
135.000000000056
  0
ARC
  5
330
100
AcDbEntity
  8
1
  6
CONTINUOUS
 62
           3
100
AcDbCircle
 10
1014.922293889428
 20
11607.14846788563
 40
2.6
100
AcDbArc
 50
90.0
 51
180.0
  0
ARC
  5
32F
100
AcDbEntity
  8
1
  6
CONTINUOUS
 62
           3
100
AcDbCircle
 10
1014.922293889428
 20
11607.14846788563
 40
2.599999999999
100
AcDbArc
 50
180.0
 51
-90.0
  0
ARC
  5
32E
100
AcDbEntity
  8
1
  6
CONTINUOUS
 62
           3
100
AcDbCircle
 10
1021.722293889428
 20
11607.14846788563
 40
2.6
100
AcDbArc
 50
-90.0
 51
0.0
  0
ARC
  5
32D
100
AcDbEntity
  8
1
  6
CONTINUOUS
 62
           3
100
AcDbCircle
 10
1021.722293889428
 20
11607.14846788563
 40
2.600000000002
100
AcDbArc
 50
0.0
 51
90.0
  0
ARC
  5
32C
100
AcDbEntity
  8
1
  6
CONTINUOUS
 62
           3
100
AcDbCircle
 10
1028.322293889428
 20
11557.14846788563
 40
9.999999999998
100
AcDbArc
 50
-34.403401743795
 51
34.403401743838
  0
ARC
  5
32B
100
AcDbEntity
  8
1
  6
CONTINUOUS
 62
           3
100
AcDbCircle
 10
1018.322293889428
 20
11607.14846788563
 40
9.999999999998
100
AcDbArc
 50
55.596598256177
 51
-145.596598256202
  0
ARC
  5
32A
100
AcDbEntity
  8
1
  6
CONTINUOUS
 62
           3
100
AcDbCircle
 10
1018.322293889428
 20
11507.14846788563
 40
9.999999999996
100
AcDbArc
 50
145.596598256195
 51
-55.596598256172
  0
ARC
  5
329
100
AcDbEntity
  8
1
  6
CONTINUOUS
 62
           3
100
AcDbCircle
 10
1118.322293889428
 20
11507.14846788563
 40
9.999999999999
100
AcDbArc
 50
-124.403401743831
 51
34.403401743838
  0
ARC
  5
328
100
AcDbEntity
  8
1
  6
CONTINUOUS
 62
           3
100
AcDbCircle
 10
1108.322293889428
 20
11557.14846788563
 40
10.000000000002
100
AcDbArc
 50
145.596598256156
 51
-145.596598256202
  0
ARC
  5
327
100
AcDbEntity
  8
1
  6
CONTINUOUS
 62
           3
100
AcDbCircle
 10
1118.322293889428
 20
11607.14846788563
 40
9.999999999999
100
AcDbArc
 50
-34.403401743791
 51
124.403401743827
  0
ARC
  5
326
100
AcDbEntity
  8
1
  6
CONTINUOUS
 62
           3
100
AcDbCircle
 10
645.902448656709
 20
11557.14846788563
 40
19.5
100
AcDbArc
 50
-90.0
 51
-63.823047828332
  0
ARC
  5
325
100
AcDbEntity
  8
1
  6
CONTINUOUS
 62
           3
100
AcDbCircle
 10
645.902448656709
 20
11557.14846788563
 40
19.5
100
AcDbArc
 50
-63.823047828332
 51
63.823047828332
  0
ARC
  5
324
100
AcDbEntity
  8
1
  6
CONTINUOUS
 62
           3
100
AcDbCircle
 10
645.902448656709
 20
11557.14846788563
 40
19.5
100
AcDbArc
 50
63.823047828332
 51
90.0
  0
ARC
  5
323
100
AcDbEntity
  8
1
  6
DOTTED
 62
           1
100
AcDbCircle
 10
848.902448656709
 20
11768.969985875719
 40
9.000000000001
100
AcDbArc
 50
-94.499999999992
 51
85.500000000005
  0
ARC
  5
322
100
AcDbEntity
  8
1
  6
CONTINUOUS
 62
           3
100
AcDbCircle
 10
676.902448656709
 20
11768.969985875719
 40
9.0
100
AcDbArc
 50
90.0
 51
-90.0
  0
ARC
  5
321
100
AcDbEntity
  8
1
  6
CONTINUOUS
 62
           3
100
AcDbCircle
 10
676.902448656709
 20
11529.39846788563
 40
49.25
100
AcDbArc
 50
81.82876644005
 51
98.17123355995
  0
ARC
  5
320
100
AcDbEntity
  8
1
  6
CONTINUOUS
 62
           3
100
AcDbCircle
 10
848.902448656709
 20
11532.89846788563
 40
49.25
100
AcDbArc
 50
81.82876644005
 51
98.17123355995
  0
ARC
  5
31F
100
AcDbEntity
  8
1
  6
CONTINUOUS
 62
           3
100
AcDbCircle
 10
487.705336135129
 20
11597.14846788563
 40
9.999999999999
100
AcDbArc
 50
-124.403401743826
 51
-55.596598256174
  0
ARC
  5
31E
100
AcDbEntity
  8
1
  6
CONTINUOUS
 62
           3
100
AcDbCircle
 10
437.705336135129
 20
11607.14846788563
 40
9.999999999999
100
AcDbArc
 50
55.596598256174
 51
-145.596598256208
  0
ARC
  5
31D
100
AcDbEntity
  8
1
  6
CONTINUOUS
 62
           3
100
AcDbCircle
 10
447.705336135129
 20
11557.14846788563
 40
9.999999999998
100
AcDbArc
 50
-34.403401743797
 51
34.403401743843
  0
ARC
  5
31C
100
AcDbEntity
  8
1
  6
CONTINUOUS
 62
           3
100
AcDbCircle
 10
437.705336135129
 20
11507.14846788563
 40
10.000000000003
100
AcDbArc
 50
145.59659825616
 51
-55.596598256169
  0
ARC
  5
31B
100
AcDbEntity
  8
1
  6
CONTINUOUS
 62
           3
100
AcDbCircle
 10
487.705336135129
 20
11517.14846788563
 40
9.999999999999
100
AcDbArc
 50
55.596598256174
 51
124.403401743826
  0
ARC
  5
31A
100
AcDbEntity
  8
1
  6
CONTINUOUS
 62
           3
100
AcDbCircle
 10
537.705336135129
 20
11507.14846788563
 40
9.999999999999
100
AcDbArc
 50
-124.403401743826
 51
34.403401743803
  0
ARC
  5
319
100
AcDbEntity
  8
1
  6
CONTINUOUS
 62
           3
100
AcDbCircle
 10
537.705336135129
 20
11607.14846788563
 40
9.999999999998
100
AcDbArc
 50
-34.403401743797
 51
124.40340174382
  0
ARC
  5
318
100
AcDbEntity
  8
1
  6
CONTINUOUS
 62
           3
100
AcDbCircle
 10
527.705336135129
 20
11557.14846788563
 40
10.000000000003
100
AcDbArc
 50
145.59659825616
 51
-145.596598256206
  0
ARC
  5
317
100
AcDbEntity
  8
1
  6
CONTINUOUS
 62
           3
100
AcDbCircle
 10
1096.17320516802
 20
11336.79755660704
 40
4.410000000914
100
AcDbArc
 50
168.874983335488
 51
-150.835303463503
  0
ARC
  5
316
100
AcDbEntity
  8
1
  6
CONTINUOUS
 62
           3
100
AcDbCircle
 10
1040.471382610836
 20
11336.79755660704
 40
4.410000000001
100
AcDbArc
 50
78.874983333132
 51
119.164696536497
  0
ARC
  5
315
100
AcDbEntity
  8
1
  6
CONTINUOUS
 62
           3
100
AcDbCircle
 10
1096.17320516802
 20
11336.79755660704
 40
4.410000000914
100
AcDbArc
 50
60.835303463511
 51
101.125016666868
  0
ARC
  5
314
100
AcDbEntity
  8
1
  6
CONTINUOUS
 62
           3
100
AcDbCircle
 10
1040.471382610836
 20
11336.79755660704
 40
4.41
100
AcDbArc
 50
11.125016666848
 51
78.874983333132
  0
ARC
  5
313
100
AcDbEntity
  8
1
  6
CONTINUOUS
 62
           3
100
AcDbCircle
 10
1040.471382610836
 20
11336.79755660704
 40
4.410000000916
100
AcDbArc
 50
-29.164696536497
 51
11.125016666893
  0
ARC
  5
312
100
AcDbEntity
  8
1
  6
CONTINUOUS
 62
           3
100
AcDbCircle
 10
1096.17320516802
 20
11336.79755660704
 40
4.410000000001
100
AcDbArc
 50
101.125016666867
 51
168.874983335532
  0
ARC
  5
311
100
AcDbEntity
  8
1
  6
CONTINUOUS
 62
           3
100
AcDbCircle
 10
871.784821820061
 20
11335.764310248491
 40
5.010000000318
100
AcDbArc
 50
77.130980034836
 51
112.091040129136
  0
ARC
  5
310
100
AcDbEntity
  8
1
  6
CONTINUOUS
 62
           3
100
AcDbCircle
 10
871.784821820061
 20
11335.764310248491
 40
5.01
100
AcDbArc
 50
112.091040129159
 51
-167.130980034827
  0
ARC
  5
30F
100
AcDbEntity
  8
1
  6
CONTINUOUS
 62
           3
100
AcDbCircle
 10
459.854424856537
 20
11336.79755660704
 40
4.41
100
AcDbArc
 50
11.125016666849
 51
78.874983333129
  0
ARC
  5
30E
100
AcDbEntity
  8
1
  6
CONTINUOUS
 62
           3
100
AcDbCircle
 10
515.556247413721
 20
11336.79755660704
 40
4.410000000001
100
AcDbArc
 50
101.125016666866
 51
168.874983335533
  0
ARC
  5
30D
100
AcDbEntity
  8
1
  6
CONTINUOUS
 62
           3
100
AcDbCircle
 10
868.150664182925
 20
11584.64846788563
 40
7.249999999998
100
AcDbArc
 50
-43.60281897272
 51
43.60281897272
  0
ARC
  5
30C
100
AcDbEntity
  8
1
  6
CONTINUOUS
 62
           3
100
AcDbCircle
 10
868.150664182925
 20
11529.64846788563
 40
7.249999999998
100
AcDbArc
 50
-43.60281897272
 51
43.60281897272
  0
ARC
  5
30B
100
AcDbEntity
  8
1
  6
CONTINUOUS
 62
           3
100
AcDbCircle
 10
619.902448656709
 20
11752.969985875719
 40
4.0
100
AcDbArc
 50
180.0
 51
-138.590377890784
  0
ARC
  5
30A
100
AcDbEntity
  8
1
  6
CONTINUOUS
 62
           3
100
AcDbCircle
 10
664.402448656709
 20
11775.969985875719
 40
1.0
100
AcDbArc
 50
-90.0
 51
0.0
  0
ARC
  5
309
100
AcDbEntity
  8
1
  6
CONTINUOUS
 62
           3
100
AcDbCircle
 10
618.902448656709
 20
11807.969985875719
 40
2.0
100
AcDbArc
 50
90.0
 51
180.0
  0
ARC
  5
308
100
AcDbEntity
  8
1
  6
CONTINUOUS
 62
           3
100
AcDbCircle
 10
663.402448656709
 20
11807.969985875719
 40
2.0
100
AcDbArc
 50
0.0
 51
90.0
  0
ARC
  5
307
100
AcDbEntity
  8
1
  6
CONTINUOUS
 62
           3
100
AcDbCircle
 10
664.402448656709
 20
11761.969985875719
 40
1.0
100
AcDbArc
 50
0.0
 51
90.0
  0
ARC
  5
306
100
AcDbEntity
  8
1
  6
CONTINUOUS
 62
           3
100
AcDbCircle
 10
618.902448656709
 20
11729.969985875719
 40
2.0
100
AcDbArc
 50
180.0
 51
-90.0
  0
ARC
  5
305
100
AcDbEntity
  8
1
  6
CONTINUOUS
 62
           3
100
AcDbCircle
 10
663.402448656709
 20
11729.969985875719
 40
2.0
100
AcDbArc
 50
-90.0
 51
0.0
  0
ARC
  5
304
100
AcDbEntity
  8
1
  6
CONTINUOUS
 62
           3
100
AcDbCircle
 10
617.902448656709
 20
11575.64846788563
 40
1.0
100
AcDbArc
 50
90.0
 51
180.0
  0
ARC
  5
303
100
AcDbEntity
  8
1
  6
CONTINUOUS
 62
           3
100
AcDbCircle
 10
617.902448656709
 20
11538.64846788563
 40
1.0
100
AcDbArc
 50
180.0
 51
-90.0
  0
ARC
  5
302
100
AcDbEntity
  8
1
  6
CONTINUOUS
 62
           3
100
AcDbCircle
 10
854.900664182922
 20
11782.969985875719
 40
5.0
100
AcDbArc
 50
-90.0
 51
0.0
  0
ARC
  5
301
100
AcDbEntity
  8
1
  6
CONTINUOUS
 62
           3
100
AcDbCircle
 10
861.400664182922
 20
11521.14846788563
 40
1.5
100
AcDbArc
 50
180.0
 51
-90.0
  0
ARC
  5
300
100
AcDbEntity
  8
1
  6
CONTINUOUS
 62
           3
100
AcDbCircle
 10
861.400664182922
 20
11593.14846788563
 40
1.5
100
AcDbArc
 50
90.0
 51
180.0
  0
ARC
  5
2FF
100
AcDbEntity
  8
1
  6
CONTINUOUS
 62
           3
100
AcDbCircle
 10
861.400664182922
 20
11792.469985875719
 40
1.5
100
AcDbArc
 50
90.0
 51
180.0
  0
ARC
  5
2FE
100
AcDbEntity
  8
1
  6
CONTINUOUS
 62
           3
100
AcDbCircle
 10
861.400664182922
 20
11745.469985875719
 40
1.5
100
AcDbArc
 50
180.0
 51
-90.0
  0
ARC
  5
2FD
100
AcDbEntity
  8
1
  6
CONTINUOUS
 62
           3
100
AcDbCircle
 10
733.402448656709
 20
11556.64846788563
 40
0.5
100
AcDbArc
 50
0.0
 51
90.0
  0
ARC
  5
2FC
100
AcDbEntity
  8
1
  6
CONTINUOUS
 62
           3
100
AcDbCircle
 10
724.402448656709
 20
11556.64846788563
 40
0.5
100
AcDbArc
 50
90.0
 51
180.0
  0
ARC
  5
2FB
100
AcDbEntity
  8
1
  6
CONTINUOUS
 62
           3
100
AcDbCircle
 10
724.402448656709
 20
11524.14846788563
 40
0.5
100
AcDbArc
 50
180.0
 51
-90.0
  0
ARC
  5
2FA
100
AcDbEntity
  8
1
  6
CONTINUOUS
 62
           3
100
AcDbCircle
 10
733.402448656709
 20
11524.14846788563
 40
0.5
100
AcDbArc
 50
-90.0
 51
0.0
  0
ARC
  5
2F9
100
AcDbEntity
  8
1
  6
CONTINUOUS
 62
           3
100
AcDbCircle
 10
685.404233130496
 20
11547.64846788563
 40
0.5
100
AcDbArc
 50
-90.0
 51
0.0
  0
ARC
  5
2F8
100
AcDbEntity
  8
1
  6
CONTINUOUS
 62
           3
100
AcDbCircle
 10
685.404233130496
 20
11566.64846788563
 40
0.5
100
AcDbArc
 50
0.0
 51
90.0
  0
ARC
  5
2F7
100
AcDbEntity
  8
1
  6
CONTINUOUS
 62
           3
100
AcDbCircle
 10
664.402448656709
 20
11541.14846788563
 40
1.5
100
AcDbArc
 50
-90.0
 51
0.0
  0
ARC
  5
2F6
100
AcDbEntity
  8
1
  6
CONTINUOUS
 62
           3
100
AcDbCircle
 10
664.402448656709
 20
11573.14846788563
 40
1.5
100
AcDbArc
 50
0.0
 51
90.0
  0
ARC
  5
2F5
100
AcDbEntity
  8
1
  6
CONTINUOUS
 62
           3
100
AcDbCircle
 10
667.902448656709
 20
11569.14846788563
 40
2.0
100
AcDbArc
 50
180.0
 51
-90.0
  0
ARC
  5
2F4
100
AcDbEntity
  8
1
  6
CONTINUOUS
 62
           3
100
AcDbCircle
 10
667.902448656709
 20
11545.14846788563
 40
2.0
100
AcDbArc
 50
90.0
 51
180.0
  0
ARC
  5
2F3
100
AcDbEntity
  8
1
  6
CONTINUOUS
 62
           3
100
AcDbCircle
 10
666.402448656709
 20
11566.64846788563
 40
0.5
100
AcDbArc
 50
90.0
 51
180.0
  0
ARC
  5
2F2
100
AcDbEntity
  8
1
  6
CONTINUOUS
 62
           3
100
AcDbCircle
 10
666.402448656709
 20
11547.64846788563
 40
0.5
100
AcDbArc
 50
180.0
 51
-90.0
  0
ARC
  5
2F1
100
AcDbEntity
  8
1
  6
CONTINUOUS
 62
           3
100
AcDbCircle
 10
665.402448656709
 20
11773.469985875719
 40
0.5
100
AcDbArc
 50
0.0
 51
90.0
  0
ARC
  5
2F0
100
AcDbEntity
  8
1
  6
CONTINUOUS
 62
           3
100
AcDbCircle
 10
665.402448656709
 20
11764.469985875719
 40
0.5
100
AcDbArc
 50
-90.0
 51
0.0
  0
ARC
  5
2EF
100
AcDbEntity
  8
1
  6
CONTINUOUS
 62
           3
100
AcDbCircle
 10
663.902448656709
 20
11761.969985875719
 40
2.0
100
AcDbArc
 50
0.0
 51
90.0
  0
ARC
  5
2EE
100
AcDbEntity
  8
1
  6
CONTINUOUS
 62
           3
100
AcDbCircle
 10
666.902448656709
 20
11760.969985875719
 40
1.0
100
AcDbArc
 50
180.0
 51
-90.0
  0
ARC
  5
2ED
100
AcDbEntity
  8
1
  6
CONTINUOUS
 62
           3
100
AcDbCircle
 10
666.902448656709
 20
11776.969985875719
 40
1.0
100
AcDbArc
 50
90.0
 51
180.0
  0
ARC
  5
2EC
100
AcDbEntity
  8
1
  6
CONTINUOUS
 62
           3
100
AcDbCircle
 10
663.902448656709
 20
11775.969985875719
 40
2.0
100
AcDbArc
 50
-90.0
 51
0.0
  0
ARC
  5
2EB
100
AcDbEntity
  8
1
  6
CONTINUOUS
 62
           3
100
AcDbCircle
 10
619.902448656709
 20
11784.969985875719
 40
3.999999999997
100
AcDbArc
 50
138.590377890784
 51
180.0
  0
ARC
  5
2EA
100
AcDbEntity
  8
1
  6
CONTINUOUS
 62
           3
100
AcDbCircle
 10
534.305336135129
 20
11607.14846788563
 40
2.6
100
AcDbArc
 50
90.0
 51
180.0
  0
ARC
  5
2E9
100
AcDbEntity
  8
1
  6
CONTINUOUS
 62
           3
100
AcDbCircle
 10
534.305336135129
 20
11607.14846788563
 40
2.6
100
AcDbArc
 50
180.0
 51
-90.0
  0
ARC
  5
2E8
100
AcDbEntity
  8
1
  6
CONTINUOUS
 62
           3
100
AcDbCircle
 10
541.105336135129
 20
11607.14846788563
 40
2.6
100
AcDbArc
 50
-90.0
 51
90.0
  0
ARC
  5
2E7
100
AcDbEntity
  8
1
  6
CONTINUOUS
 62
           3
100
AcDbCircle
 10
440.109499191163
 20
11609.552630941669
 40
2.599999999997
100
AcDbArc
 50
44.999999999941
 51
135.000000000057
  0
ARC
  5
2E6
100
AcDbEntity
  8
1
  6
CONTINUOUS
 62
           3
100
AcDbCircle
 10
440.109499191163
 20
11609.552630941669
 40
2.600000000003
100
AcDbArc
 50
-45.000000000052
 51
44.999999999941
  0
ARC
  5
2E5
100
AcDbEntity
  8
1
  6
CONTINUOUS
 62
           3
100
AcDbCircle
 10
435.301173079095
 20
11604.744304829601
 40
2.600000000004
100
AcDbArc
 50
-134.999999999917
 51
-45.000000000096
  0
ARC
  5
2E4
100
AcDbEntity
  8
1
  6
CONTINUOUS
 62
           3
100
AcDbCircle
 10
435.301173079095
 20
11604.744304829601
 40
2.599999999996
100
AcDbArc
 50
135.000000000087
 51
-134.999999999917
  0
ARC
  5
2E3
100
AcDbEntity
  8
1
  6
CONTINUOUS
 62
           3
100
AcDbCircle
 10
447.801173079095
 20
11592.244304829601
 40
2.599999999996
100
AcDbArc
 50
135.000000000087
 51
-134.999999999917
  0
ARC
  5
2E2
100
AcDbEntity
  8
1
  6
CONTINUOUS
 62
           3
100
AcDbCircle
 10
447.801173079095
 20
11592.244304829601
 40
2.600000000004
100
AcDbArc
 50
-134.999999999917
 51
-45.000000000096
  0
ARC
  5
2E1
100
AcDbEntity
  8
1
  6
CONTINUOUS
 62
           3
100
AcDbCircle
 10
452.609499191163
 20
11597.052630941669
 40
2.600000000003
100
AcDbArc
 50
-45.000000000053
 51
44.999999999941
  0
ARC
  5
2E0
100
AcDbEntity
  8
1
  6
CONTINUOUS
 62
           3
100
AcDbCircle
 10
452.609499191163
 20
11597.052630941669
 40
2.599999999997
100
AcDbArc
 50
44.999999999941
 51
135.000000000057
  0
ARC
  5
2DF
100
AcDbEntity
  8
1
  6
CONTINUOUS
 62
           3
100
AcDbCircle
 10
528.605336135129
 20
11594.64846788563
 40
2.599999999999
100
AcDbArc
 50
0.0
 51
90.0
  0
ARC
  5
2DE
100
AcDbEntity
  8
1
  6
CONTINUOUS
 62
           3
100
AcDbCircle
 10
528.605336135129
 20
11594.64846788563
 40
2.6
100
AcDbArc
 50
-90.0
 51
0.0
  0
ARC
  5
2DD
100
AcDbEntity
  8
1
  6
CONTINUOUS
 62
           3
100
AcDbCircle
 10
521.805336135129
 20
11594.64846788563
 40
2.6
100
AcDbArc
 50
180.0
 51
-90.0
  0
ARC
  5
2DC
100
AcDbEntity
  8
1
  6
CONTINUOUS
 62
           3
100
AcDbCircle
 10
521.805336135129
 20
11594.64846788563
 40
2.6
100
AcDbArc
 50
90.0
 51
180.0
  0
ARC
  5
2DB
100
AcDbEntity
  8
1
  6
CONTINUOUS
 62
           3
100
AcDbCircle
 10
437.705336135128
 20
11510.54846788563
 40
2.6
100
AcDbArc
 50
90.000000000014
 51
180.0
  0
ARC
  5
2DA
100
AcDbEntity
  8
1
  6
CONTINUOUS
 62
           3
100
AcDbCircle
 10
437.705336135128
 20
11510.54846788563
 40
2.600000000001
100
AcDbArc
 50
0.0
 51
90.000000000014
  0
ARC
  5
2D9
100
AcDbEntity
  8
1
  6
CONTINUOUS
 62
           3
100
AcDbCircle
 10
437.705336135128
 20
11503.748467885631
 40
2.6
100
AcDbArc
 50
-90.0
 51
0.0
  0
ARC
  5
2D8
100
AcDbEntity
  8
1
  6
CONTINUOUS
 62
           3
100
AcDbCircle
 10
437.705336135128
 20
11503.748467885631
 40
2.6
100
AcDbArc
 50
180.0
 51
-90.0
  0
ARC
  5
2D7
100
AcDbEntity
  8
1
  6
CONTINUOUS
 62
           3
100
AcDbCircle
 10
450.205336135128
 20
11516.248467885631
 40
2.6
100
AcDbArc
 50
180.0
 51
-90.0
  0
ARC
  5
2D6
100
AcDbEntity
  8
1
  6
CONTINUOUS
 62
           3
100
AcDbCircle
 10
450.205336135128
 20
11516.248467885631
 40
2.6
100
AcDbArc
 50
-90.0
 51
0.0
  0
ARC
  5
2D5
100
AcDbEntity
  8
1
  6
CONTINUOUS
 62
           3
100
AcDbCircle
 10
450.205336135128
 20
11523.04846788563
 40
2.600000000001
100
AcDbArc
 50
0.0
 51
90.000000000014
  0
ARC
  5
2D4
100
AcDbEntity
  8
1
  6
CONTINUOUS
 62
           3
100
AcDbCircle
 10
450.205336135128
 20
11523.04846788563
 40
2.6
100
AcDbArc
 50
90.000000000014
 51
180.0
  0
ARC
  5
2D3
100
AcDbEntity
  8
1
  6
CONTINUOUS
 62
           6
100
AcDbCircle
 10
478.705336135129
 20
11570.64846788563
 40
0.5
100
AcDbArc
 50
180.0
 51
-90.0
  0
ARC
  5
2D2
100
AcDbEntity
  8
1
  6
CONTINUOUS
 62
           6
100
AcDbCircle
 10
478.705336135129
 20
11568.64846788563
 40
0.5
100
AcDbArc
 50
90.0
 51
180.0
  0
ARC
  5
2D1
100
AcDbEntity
  8
1
  6
CONTINUOUS
 62
           6
100
AcDbCircle
 10
476.705336135129
 20
11568.64846788563
 40
0.5
100
AcDbArc
 50
0.0
 51
90.0
  0
ARC
  5
2D0
100
AcDbEntity
  8
1
  6
CONTINUOUS
 62
           6
100
AcDbCircle
 10
476.705336135129
 20
11570.64846788563
 40
0.5
100
AcDbArc
 50
-90.0
 51
0.0
  0
ARC
  5
2CF
100
AcDbEntity
  8
1
  6
CONTINUOUS
 62
           6
100
AcDbCircle
 10
498.705336135129
 20
11570.64846788563
 40
0.5
100
AcDbArc
 50
180.0
 51
-90.0
  0
ARC
  5
2CE
100
AcDbEntity
  8
1
  6
CONTINUOUS
 62
           6
100
AcDbCircle
 10
498.705336135129
 20
11568.64846788563
 40
0.5
100
AcDbArc
 50
90.0
 51
180.0
  0
ARC
  5
2CD
100
AcDbEntity
  8
1
  6
CONTINUOUS
 62
           6
100
AcDbCircle
 10
496.705336135129
 20
11568.64846788563
 40
0.5
100
AcDbArc
 50
0.0
 51
90.0
  0
ARC
  5
2CC
100
AcDbEntity
  8
1
  6
CONTINUOUS
 62
           6
100
AcDbCircle
 10
496.705336135129
 20
11570.64846788563
 40
0.5
100
AcDbArc
 50
-90.0
 51
0.0
  0
ARC
  5
2CB
100
AcDbEntity
  8
1
  6
CONTINUOUS
 62
           6
100
AcDbCircle
 10
496.705336135129
 20
11543.64846788563
 40
0.5
100
AcDbArc
 50
0.0
 51
90.0
  0
ARC
  5
2CA
100
AcDbEntity
  8
1
  6
CONTINUOUS
 62
           6
100
AcDbCircle
 10
496.705336135129
 20
11545.64846788563
 40
0.5
100
AcDbArc
 50
-90.0
 51
0.0
  0
ARC
  5
2C9
100
AcDbEntity
  8
1
  6
CONTINUOUS
 62
           6
100
AcDbCircle
 10
498.705336135129
 20
11545.64846788563
 40
0.5
100
AcDbArc
 50
180.0
 51
-90.0
  0
ARC
  5
2C8
100
AcDbEntity
  8
1
  6
CONTINUOUS
 62
           6
100
AcDbCircle
 10
498.705336135129
 20
11543.64846788563
 40
0.5
100
AcDbArc
 50
90.0
 51
180.0
  0
ARC
  5
2C7
100
AcDbEntity
  8
1
  6
CONTINUOUS
 62
           6
100
AcDbCircle
 10
476.705336135129
 20
11543.64846788563
 40
0.5
100
AcDbArc
 50
0.0
 51
90.0
  0
ARC
  5
2C6
100
AcDbEntity
  8
1
  6
CONTINUOUS
 62
           6
100
AcDbCircle
 10
476.705336135129
 20
11545.64846788563
 40
0.5
100
AcDbArc
 50
-90.0
 51
0.0
  0
ARC
  5
2C5
100
AcDbEntity
  8
1
  6
CONTINUOUS
 62
           6
100
AcDbCircle
 10
478.705336135129
 20
11545.64846788563
 40
0.5
100
AcDbArc
 50
180.0
 51
-90.0
  0
ARC
  5
2C4
100
AcDbEntity
  8
1
  6
CONTINUOUS
 62
           6
100
AcDbCircle
 10
478.705336135129
 20
11543.64846788563
 40
0.5
100
AcDbArc
 50
90.0
 51
180.0
  0
ARC
  5
2C3
100
AcDbEntity
  8
1
  6
CONTINUOUS
 62
           3
100
AcDbCircle
 10
867.900664182922
 20
11644.64846788563
 40
5.0
100
AcDbArc
 50
90.0
 51
180.0
  0
ARC
  5
2C2
100
AcDbEntity
  8
1
  6
CONTINUOUS
 62
           3
100
AcDbCircle
 10
869.900664182922
 20
11337.64846788563
 40
3.0
100
AcDbArc
 50
-90.0
 51
0.0
  0
ARC
  5
2C1
100
AcDbEntity
  8
1
  6
CONTINUOUS
 62
           3
100
AcDbCircle
 10
857.900664182922
 20
11701.969985875719
 40
5.0
100
AcDbArc
 50
-90.0
 51
0.0
  0
ARC
  5
2C0
100
AcDbEntity
  8
1
  6
CONTINUOUS
 62
           3
100
AcDbCircle
 10
857.900664182922
 20
11835.969985875719
 40
5.0
100
AcDbArc
 50
0.0
 51
90.0
  0
ARC
  5
2BF
100
AcDbEntity
  8
1
  6
CONTINUOUS
 62
           3
100
AcDbCircle
 10
777.900664182922
 20
11835.969985875719
 40
5.0
100
AcDbArc
 50
90.0
 51
180.0
  0
ARC
  5
2BE
100
AcDbEntity
  8
1
  6
CONTINUOUS
 62
           3
100
AcDbCircle
 10
777.900664182922
 20
11701.969985875719
 40
5.0
100
AcDbArc
 50
180.0
 51
-90.0
  0
ARC
  5
2BD
100
AcDbEntity
  8
1
  6
CONTINUOUS
 62
           3
100
AcDbCircle
 10
869.900664182922
 20
11741.969985875719
 40
3.0
100
AcDbArc
 50
-90.0
 51
0.0
  0
ARC
  5
2BC
100
AcDbEntity
  8
1
  6
CONTINUOUS
 62
           3
100
AcDbCircle
 10
869.900664182922
 20
11795.969985875719
 40
3.0
100
AcDbArc
 50
0.0
 51
90.0
  0
ARC
  5
2BB
100
AcDbEntity
  8
1
  6
CONTINUOUS
 62
           3
100
AcDbCircle
 10
1082.322293889428
 20
11585.64846788563
 40
0.5
100
AcDbArc
 50
-90.0
 51
0.0
  0
ARC
  5
2BA
100
AcDbEntity
  8
1
  6
CONTINUOUS
 62
           3
100
AcDbCircle
 10
1084.322293889428
 20
11585.64846788563
 40
0.5
100
AcDbArc
 50
180.0
 51
-90.0
  0
ARC
  5
2B9
100
AcDbEntity
  8
1
  6
CONTINUOUS
 62
           3
100
AcDbCircle
 10
1084.322293889428
 20
11583.64846788563
 40
0.5
100
AcDbArc
 50
90.0
 51
180.0
  0
ARC
  5
2B8
100
AcDbEntity
  8
1
  6
CONTINUOUS
 62
           3
100
AcDbCircle
 10
1082.322293889428
 20
11583.64846788563
 40
0.5
100
AcDbArc
 50
0.0
 51
90.0
  0
ARC
  5
2B7
100
AcDbEntity
  8
1
  6
CONTINUOUS
 62
           3
100
AcDbCircle
 10
1054.322293889428
 20
11583.64846788563
 40
0.5
100
AcDbArc
 50
90.0
 51
180.0
  0
ARC
  5
2B6
100
AcDbEntity
  8
1
  6
CONTINUOUS
 62
           3
100
AcDbCircle
 10
1052.322293889428
 20
11583.64846788563
 40
0.5
100
AcDbArc
 50
0.0
 51
90.0
  0
ARC
  5
2B5
100
AcDbEntity
  8
1
  6
CONTINUOUS
 62
           3
100
AcDbCircle
 10
1052.322293889428
 20
11585.64846788563
 40
0.5
100
AcDbArc
 50
-90.0
 51
0.0
  0
ARC
  5
2B4
100
AcDbEntity
  8
1
  6
CONTINUOUS
 62
           3
100
AcDbCircle
 10
1054.322293889428
 20
11585.64846788563
 40
0.5
100
AcDbArc
 50
180.0
 51
-90.0
  0
ARC
  5
2B3
100
AcDbEntity
  8
1
  6
CONTINUOUS
 62
           3
100
AcDbCircle
 10
1054.322293889428
 20
11528.64846788563
 40
0.5
100
AcDbArc
 50
90.0
 51
180.0
  0
ARC
  5
2B2
100
AcDbEntity
  8
1
  6
CONTINUOUS
 62
           3
100
AcDbCircle
 10
1052.322293889428
 20
11528.64846788563
 40
0.5
100
AcDbArc
 50
0.0
 51
90.0
  0
ARC
  5
2B1
100
AcDbEntity
  8
1
  6
CONTINUOUS
 62
           3
100
AcDbCircle
 10
1052.322293889428
 20
11530.64846788563
 40
0.5
100
AcDbArc
 50
-90.0
 51
0.0
  0
ARC
  5
2B0
100
AcDbEntity
  8
1
  6
CONTINUOUS
 62
           3
100
AcDbCircle
 10
1054.322293889428
 20
11530.64846788563
 40
0.5
100
AcDbArc
 50
180.0
 51
-90.0
  0
ARC
  5
2AF
100
AcDbEntity
  8
1
  6
CONTINUOUS
 62
           3
100
AcDbCircle
 10
1082.322293889428
 20
11530.64846788563
 40
0.5
100
AcDbArc
 50
-90.0
 51
0.0
  0
ARC
  5
2AE
100
AcDbEntity
  8
1
  6
CONTINUOUS
 62
           3
100
AcDbCircle
 10
1084.322293889428
 20
11530.64846788563
 40
0.5
100
AcDbArc
 50
180.0
 51
-90.0
  0
ARC
  5
2AD
100
AcDbEntity
  8
1
  6
CONTINUOUS
 62
           3
100
AcDbCircle
 10
1084.322293889428
 20
11528.64846788563
 40
0.5
100
AcDbArc
 50
90.0
 51
180.0
  0
ARC
  5
2AC
100
AcDbEntity
  8
1
  6
CONTINUOUS
 62
           3
100
AcDbCircle
 10
1082.322293889428
 20
11528.64846788563
 40
0.5
100
AcDbArc
 50
0.0
 51
90.0
  0
ARC
  5
2AB
100
AcDbEntity
  8
1
  6
CONTINUOUS
 62
           3
100
AcDbCircle
 10
854.900664182922
 20
11754.969985875719
 40
5.0
100
AcDbArc
 50
0.0
 51
90.0
  0
ARC
  5
2AA
100
AcDbEntity
  8
1
  6
CONTINUOUS
 62
           3
100
AcDbCircle
 10
848.898879709135
 20
11768.969985875719
 40
9.000000000002
100
AcDbArc
 50
94.499999999994
 51
-85.500000000007
  0
LINE
  5
2A9
100
AcDbEntity
  8
1
  6
CONTINUOUS
 62
           3
100
AcDbLine
 10
1038.322293889428
 20
11649.64846788563
 11
1038.322293889428
 21
11337.64846788563
  0
LINE
  5
2A8
100
AcDbEntity
  8
1
  6
CONTINUOUS
 62
           3
100
AcDbLine
 10
1038.322293889428
 20
11337.64846788563
 11
1044.798512143906
 21
11337.64846788563
  0
LINE
  5
2A7
100
AcDbEntity
  8
1
  6
CONTINUOUS
 62
           1
100
AcDbLine
 10
1012.322293889428
 20
11607.14846788563
 11
1012.322293889428
 21
11615.018467885629
  0
LINE
  5
2A6
100
AcDbEntity
  8
1
  6
CONTINUOUS
 62
           1
100
AcDbLine
 10
1024.322293889428
 20
11607.14846788563
 11
1024.322293889428
 21
11615.018467885629
  0
LINE
  5
2A5
100
AcDbEntity
  8
1
  6
DOT_CENTER
 62
           1
100
AcDbLine
 10
1105.822293889428
 20
11585.668870222769
 11
1105.822293889428
 21
11603.31972718161
  0
LINE
  5
2A4
100
AcDbEntity
  8
1
  6
DOT_CENTER
 62
           1
100
AcDbLine
 10
1109.409737960261
 20
11607.14846788563
 11
1126.517491628057
 21
11607.14846788563
  0
LINE
  5
2A3
100
AcDbEntity
  8
1
  6
DOT_CENTER
 62
           1
100
AcDbLine
 10
1118.322293889428
 20
11598.160245916721
 11
1118.322293889428
 21
11614.54386186312
  0
LINE
  5
2A2
100
AcDbEntity
  8
1
  6
DOT_CENTER
 62
           1
100
AcDbLine
 10
1030.822293889428
 20
11510.54024201949
 11
1030.822293889428
 21
11528.118373769001
  0
LINE
  5
2A1
100
AcDbEntity
  8
1
  6
DOT_CENTER
 62
           1
100
AcDbLine
 10
1018.322293889428
 20
11499.536045721021
 11
1018.322293889428
 21
11514.39885630597
  0
LINE
  5
2A0
100
AcDbEntity
  8
1
  6
DOT_CENTER
 62
           1
100
AcDbLine
 10
1010.390919606062
 20
11507.14846788563
 11
1026.68284659341
 21
11507.14846788563
  0
LINE
  5
29F
100
AcDbEntity
  8
1
  6
DOT_CENTER
 62
           1
100
AcDbLine
 10
1023.324423047773
 20
11519.64846788563
 11
1039.473438394881
 21
11519.64846788563
  0
LINE
  5
29E
100
AcDbEntity
  8
1
  6
DOT_CENTER
 62
           1
100
AcDbLine
 10
1099.014984082268
 20
11519.64846788563
 11
1112.056123506187
 21
11519.64846788563
  0
LINE
  5
29D
100
AcDbEntity
  8
1
  6
DOT_CENTER
 62
           1
100
AcDbLine
 10
1101.294706031147
 20
11523.04846788563
 11
1110.663756007057
 21
11523.04846788563
  0
LINE
  5
29C
100
AcDbEntity
  8
1
  6
DOT_CENTER
 62
           1
100
AcDbLine
 10
1101.031530470027
 20
11516.248467885631
 11
1110.716391119278
 21
11516.248467885631
  0
LINE
  5
29B
100
AcDbEntity
  8
1
  6
DOT_CENTER
 62
           1
100
AcDbLine
 10
1105.822293889428
 20
11528.472763258749
 11
1105.822293889429
 21
11511.10317622476
  0
LINE
  5
29A
100
AcDbEntity
  8
1
  6
CONTINUOUS
 62
           3
100
AcDbLine
 10
1103.222293889429
 20
11516.248467885631
 11
1103.222293889428
 21
11523.04846788563
  0
LINE
  5
299
100
AcDbEntity
  8
1
  6
CONTINUOUS
 62
           3
100
AcDbLine
 10
1108.422293889428
 20
11523.04846788563
 11
1108.422293889429
 21
11516.248467885631
  0
LINE
  5
298
100
AcDbEntity
  8
1
  6
CONTINUOUS
 62
           3
100
AcDbLine
 10
1120.922293889428
 20
11510.54846788563
 11
1120.922293889429
 21
11503.748467885631
  0
LINE
  5
297
100
AcDbEntity
  8
1
  6
CONTINUOUS
 62
           3
100
AcDbLine
 10
1115.722293889428
 20
11503.748467885631
 11
1115.722293889428
 21
11510.54846788563
  0
LINE
  5
296
100
AcDbEntity
  8
1
  6
DOT_CENTER
 62
           1
100
AcDbLine
 10
1118.322293889428
 20
11515.972763258749
 11
1118.322293889429
 21
11498.60317622476
  0
LINE
  5
295
100
AcDbEntity
  8
1
  6
DOT_CENTER
 62
           1
100
AcDbLine
 10
1113.531530470027
 20
11503.748467885631
 11
1123.216391119278
 21
11503.748467885631
  0
LINE
  5
294
100
AcDbEntity
  8
1
  6
DOT_CENTER
 62
           1
100
AcDbLine
 10
1113.794706031147
 20
11510.54846788563
 11
1123.163756007057
 21
11510.54846788563
  0
LINE
  5
293
100
AcDbEntity
  8
1
  6
DOT_CENTER
 62
           1
100
AcDbLine
 10
1111.514984082268
 20
11507.14846788563
 11
1124.556123506187
 21
11507.14846788563
  0
LINE
  5
292
100
AcDbEntity
  8
1
  6
CONTINUOUS
 62
           3
100
AcDbLine
 10
1027.422293889428
 20
11597.248467885631
 11
1034.222293889428
 21
11597.248467885631
  0
LINE
  5
291
100
AcDbEntity
  8
1
  6
CONTINUOUS
 62
           3
100
AcDbLine
 10
1034.222293889428
 20
11592.04846788563
 11
1027.422293889428
 21
11592.04846788563
  0
LINE
  5
290
100
AcDbEntity
  8
1
  6
DOT_CENTER
 62
           1
100
AcDbLine
 10
1021.997998516313
 20
11594.64846788563
 11
1039.367585550296
 21
11594.64846788563
  0
LINE
  5
28F
100
AcDbEntity
  8
1
  6
DOT_CENTER
 62
           1
100
AcDbLine
 10
1034.222293889428
 20
11589.857704466231
 11
1034.222293889428
 21
11599.54256511548
  0
LINE
  5
28E
100
AcDbEntity
  8
1
  6
DOT_CENTER
 62
           1
100
AcDbLine
 10
1027.422293889428
 20
11590.120880027351
 11
1027.422293889428
 21
11599.489930003259
  0
LINE
  5
28D
100
AcDbEntity
  8
1
  6
DOT_CENTER
 62
           1
100
AcDbLine
 10
1030.822293889428
 20
11587.84115807847
 11
1030.822293889428
 21
11600.88229750239
  0
LINE
  5
28C
100
AcDbEntity
  8
1
  6
DOT_CENTER
 62
           1
100
AcDbLine
 10
1101.008798963147
 20
11589.83497295935
 11
1110.2302770842
 21
11599.0564510804
  0
LINE
  5
28B
100
AcDbEntity
  8
1
  6
DOT_CENTER
 62
           1
100
AcDbLine
 10
1100.216642756386
 20
11593.85114286466
 11
1106.841561527627
 21
11600.4760616359
  0
LINE
  5
28A
100
AcDbEntity
  8
1
  6
DOT_CENTER
 62
           1
100
AcDbLine
 10
1104.838875644543
 20
11588.856723528679
 11
1111.687106284475
 21
11595.70495416861
  0
LINE
  5
289
100
AcDbEntity
  8
1
  6
DOT_CENTER
 62
           1
100
AcDbLine
 10
1099.582574791906
 20
11600.88818698316
 11
1111.864727570045
 21
11588.60603420501
  0
LINE
  5
288
100
AcDbEntity
  8
1
  6
CONTINUOUS
 62
           3
100
AcDbLine
 10
1106.387979314378
 20
11590.40582719851
 11
1101.579653202309
 21
11595.214153310581
  0
LINE
  5
287
100
AcDbEntity
  8
1
  6
CONTINUOUS
 62
           3
100
AcDbLine
 10
1105.256608464479
 20
11598.89110857275
 11
1110.064934576547
 21
11594.08278246068
  0
LINE
  5
286
100
AcDbEntity
  8
1
  6
CONTINUOUS
 62
           3
100
AcDbLine
 10
1117.756608464479
 20
11611.39110857275
 11
1122.564934576547
 21
11606.58278246068
  0
LINE
  5
285
100
AcDbEntity
  8
1
  6
CONTINUOUS
 62
           3
100
AcDbLine
 10
1118.887979314378
 20
11602.90582719851
 11
1114.079653202309
 21
11607.714153310581
  0
LINE
  5
284
100
AcDbEntity
  8
1
  6
DOT_CENTER
 62
           1
100
AcDbLine
 10
1112.082574791906
 20
11613.38818698316
 11
1124.364727570045
 21
11601.10603420501
  0
LINE
  5
283
100
AcDbEntity
  8
1
  6
DOT_CENTER
 62
           1
100
AcDbLine
 10
1117.338875644543
 20
11601.356723528679
 11
1124.187106284475
 21
11608.20495416861
  0
LINE
  5
282
100
AcDbEntity
  8
1
  6
DOT_CENTER
 62
           1
100
AcDbLine
 10
1112.716642756386
 20
11606.35114286466
 11
1119.341561527627
 21
11612.9760616359
  0
LINE
  5
281
100
AcDbEntity
  8
1
  6
DOT_CENTER
 62
           1
100
AcDbLine
 10
1113.508798963147
 20
11602.33497295935
 11
1122.7302770842
 21
11611.5564510804
  0
LINE
  5
280
100
AcDbEntity
  8
1
  6
DOT_CENTER
 62
           1
100
AcDbLine
 10
1018.322293889428
 20
11600.34115807847
 11
1018.322293889428
 21
11613.38229750239
  0
LINE
  5
27F
100
AcDbEntity
  8
1
  6
DOT_CENTER
 62
           1
100
AcDbLine
 10
1014.922293889428
 20
11602.620880027351
 11
1014.922293889428
 21
11611.989930003259
  0
LINE
  5
27E
100
AcDbEntity
  8
1
  6
DOT_CENTER
 62
           1
100
AcDbLine
 10
1021.722293889428
 20
11602.357704466231
 11
1021.722293889428
 21
11612.04256511548
  0
LINE
  5
27D
100
AcDbEntity
  8
1
  6
DOT_CENTER
 62
           1
100
AcDbLine
 10
1009.497998516313
 20
11607.14846788563
 11
1026.867585550296
 21
11607.14846788563
  0
LINE
  5
27C
100
AcDbEntity
  8
1
  6
CONTINUOUS
 62
           3
100
AcDbLine
 10
1021.722293889428
 20
11604.54846788563
 11
1014.922293889428
 21
11604.54846788563
  0
LINE
  5
27B
100
AcDbEntity
  8
1
  6
CONTINUOUS
 62
           3
100
AcDbLine
 10
1014.922293889428
 20
11609.748467885631
 11
1021.722293889428
 21
11609.748467885631
  0
LINE
  5
27A
100
AcDbEntity
  8
1
  6
CONTINUOUS
 62
           3
100
AcDbLine
 10
1010.071494351306
 20
11601.49830797801
 11
1036.573093427551
 21
11562.79862779326
  0
LINE
  5
279
100
AcDbEntity
  8
1
  6
CONTINUOUS
 62
           3
100
AcDbLine
 10
1036.57309342755
 20
11551.49830797801
 11
1010.071494351306
 21
11512.79862779326
  0
LINE
  5
278
100
AcDbEntity
  8
1
  6
CONTINUOUS
 62
           3
100
AcDbLine
 10
1098.322293889428
 20
11508.72446038095
 11
1112.672133981804
 21
11498.89766834751
  0
LINE
  5
277
100
AcDbEntity
  8
1
  6
CONTINUOUS
 62
           3
100
AcDbLine
 10
1126.573093427551
 20
11512.79862779326
 11
1100.071494351306
 21
11551.49830797801
  0
LINE
  5
276
100
AcDbEntity
  8
1
  6
CONTINUOUS
 62
           3
100
AcDbLine
 10
1100.071494351307
 20
11562.79862779326
 11
1126.57309342755
 21
11601.49830797801
  0
LINE
  5
275
100
AcDbEntity
  8
1
  6
CONTINUOUS
 62
           3
100
AcDbLine
 10
1038.322293889428
 20
11605.572475390311
 11
1023.972453797052
 21
11615.399267423751
  0
LINE
  5
274
100
AcDbEntity
  8
1
  6
CONTINUOUS
 62
           3
100
AcDbLine
 10
1112.672133981803
 20
11615.399267423751
 11
1098.322293889428
 21
11605.572475390311
  0
LINE
  5
273
100
AcDbEntity
  8
1
  6
CONTINUOUS
 62
           3
100
AcDbLine
 10
1023.972453797053
 20
11498.89766834751
 11
1038.322293889428
 21
11508.72446038095
  0
LINE
  5
272
100
AcDbEntity
  8
1
  6
DOT_CENTER
 62
           1
100
AcDbLine
 10
1068.322293889428
 20
11330.800003532189
 11
1068.322293889428
 21
11663.03089479289
  0
LINE
  5
271
100
AcDbEntity
  8
1
  6
DOT_CENTER
 62
           1
100
AcDbLine
 10
432.002120046061
 20
11557.14846788563
 11
541.97623417661
 21
11557.14846788563
  0
LINE
  5
270
100
AcDbEntity
  8
1
  6
CONTINUOUS
 62
           3
100
AcDbLine
 10
517.705336135129
 20
11605.572475390311
 11
517.705336135129
 21
11649.64846788563
  0
LINE
  5
26F
100
AcDbEntity
  8
1
  6
CONTINUOUS
 62
           3
100
AcDbLine
 10
517.705336135129
 20
11605.572475390311
 11
514.705336135129
 21
11603.5180708875
  0
LINE
  5
26E
100
AcDbEntity
  8
1
  6
CONTINUOUS
 62
           3
100
AcDbLine
 10
514.705336135129
 20
11603.5180708875
 11
514.705336135129
 21
11649.64846788563
  0
LINE
  5
26D
100
AcDbEntity
  8
1
  6
CONTINUOUS
 62
           3
100
AcDbLine
 10
514.705336135129
 20
11603.5180708875
 11
501.753257336012
 21
11594.64846788563
  0
LINE
  5
26C
100
AcDbEntity
  8
1
  6
CONTINUOUS
 62
           3
100
AcDbLine
 10
517.705336135129
 20
11508.72446038095
 11
532.055176227504
 21
11498.89766834751
  0
LINE
  5
26B
100
AcDbEntity
  8
1
  6
DOTTED
 62
           1
100
AcDbLine
 10
517.705336135129
 20
11508.72446038095
 11
517.705336135129
 21
11605.572475390311
  0
LINE
  5
26A
100
AcDbEntity
  8
1
  6
CONTINUOUS
 62
           3
100
AcDbLine
 10
514.705336135129
 20
11510.77886488376
 11
517.705336135129
 21
11508.72446038095
  0
LINE
  5
269
100
AcDbEntity
  8
1
  6
DOTTED
 62
           1
100
AcDbLine
 10
514.705336135129
 20
11510.77886488376
 11
514.705336135129
 21
11603.5180708875
  0
LINE
  5
268
100
AcDbEntity
  8
1
  6
CONTINUOUS
 62
           3
100
AcDbLine
 10
460.705336135129
 20
11510.77886488376
 11
473.657414934248
 21
11519.64846788563
  0
LINE
  5
267
100
AcDbEntity
  8
1
  6
CONTINUOUS
 62
           3
100
AcDbLine
 10
460.705336135129
 20
11510.77886488376
 11
460.705336135129
 21
11341.12468614011
  0
LINE
  5
266
100
AcDbEntity
  8
1
  6
CONTINUOUS
 62
           3
100
AcDbLine
 10
457.705336135129
 20
11508.72446038095
 11
457.705336135129
 21
11337.64846788563
  0
LINE
  5
265
100
AcDbEntity
  8
1
  6
CONTINUOUS
 62
           3
100
AcDbLine
 10
457.705336135129
 20
11508.72446038095
 11
460.705336135129
 21
11510.77886488376
  0
LINE
  5
264
100
AcDbEntity
  8
1
  6
CONTINUOUS
 62
           3
100
AcDbLine
 10
460.705336135129
 20
11603.5180708875
 11
457.705336135129
 21
11605.572475390311
  0
LINE
  5
263
100
AcDbEntity
  8
1
  6
DOTTED
 62
           1
100
AcDbLine
 10
460.705336135129
 20
11603.5180708875
 11
460.705336135129
 21
11510.77886488376
  0
LINE
  5
262
100
AcDbEntity
  8
1
  6
CONTINUOUS
 62
           3
100
AcDbLine
 10
457.705336135129
 20
11605.572475390311
 11
443.355496042754
 21
11615.399267423751
  0
LINE
  5
261
100
AcDbEntity
  8
1
  6
DOTTED
 62
           1
100
AcDbLine
 10
457.705336135129
 20
11605.572475390311
 11
457.705336135129
 21
11508.72446038095
  0
LINE
  5
260
100
AcDbEntity
  8
1
  6
CONTINUOUS
 62
           3
100
AcDbLine
 10
862.900664182922
 20
11519.64846788563
 11
862.900664182922
 21
11389.64846788563
  0
LINE
  5
25F
100
AcDbEntity
  8
1
  6
CONTINUOUS
 62
           3
100
AcDbLine
 10
862.900664182922
 20
11519.64846788563
 11
861.400664182922
 21
11519.64846788563
  0
LINE
  5
25E
100
AcDbEntity
  8
1
  6
DOTTED
 62
           1
100
AcDbLine
 10
862.900664182922
 20
11594.64846788563
 11
869.900664182922
 21
11594.64846788563
  0
LINE
  5
25D
100
AcDbEntity
  8
1
  6
CONTINUOUS
 62
           3
100
AcDbLine
 10
862.900664182922
 20
11594.64846788563
 11
862.900664182922
 21
11519.64846788563
  0
LINE
  5
25C
100
AcDbEntity
  8
1
  6
CONTINUOUS
 62
           3
100
AcDbLine
 10
616.902448656709
 20
11539.64846788563
 11
616.902448656709
 21
11574.64846788563
  0
LINE
  5
25B
100
AcDbEntity
  8
1
  6
CONTINUOUS
 62
           3
100
AcDbLine
 10
616.902448656709
 20
11574.64846788563
 11
616.902448656709
 21
11575.64846788563
  0
LINE
  5
25A
100
AcDbEntity
  8
1
  6
CONTINUOUS
 62
           3
100
AcDbLine
 10
616.902448656709
 20
11539.64846788563
 11
615.902448656709
 21
11539.64846788563
  0
LINE
  5
259
100
AcDbEntity
  8
1
  6
CONTINUOUS
 62
           3
100
AcDbLine
 10
616.902448656709
 20
11574.64846788563
 11
615.902448656709
 21
11574.64846788563
  0
LINE
  5
258
100
AcDbEntity
  8
1
  6
DOTTED
 62
           1
100
AcDbLine
 10
760.91251972633
 20
11716.369985875721
 11
758.91251972633
 21
11716.369985875721
  0
LINE
  5
257
100
AcDbEntity
  8
1
  6
DOTTED
 62
           1
100
AcDbLine
 10
760.91251972633
 20
11721.56998587572
 11
758.91251972633
 21
11721.56998587572
  0
LINE
  5
256
100
AcDbEntity
  8
1
  6
DOT_CENTER
 62
           1
100
AcDbLine
 10
769.678567494767
 20
11718.969985875719
 11
753.138567494767
 21
11718.969985875719
  0
LINE
  5
255
100
AcDbEntity
  8
1
  6
DOT_CENTER
 62
           1
100
AcDbLine
 10
753.138567494767
 20
11818.969985875719
 11
769.678567494767
 21
11818.969985875719
  0
LINE
  5
254
100
AcDbEntity
  8
1
  6
DOTTED
 62
           1
100
AcDbLine
 10
758.91251972633
 20
11816.369985875721
 11
760.91251972633
 21
11816.369985875721
  0
LINE
  5
253
100
AcDbEntity
  8
1
  6
DOTTED
 62
           1
100
AcDbLine
 10
758.91251972633
 20
11821.56998587572
 11
760.91251972633
 21
11821.56998587572
  0
LINE
  5
252
100
AcDbEntity
  8
1
  6
PHANTOM
 62
           1
100
AcDbLine
 10
760.91251972633
 20
11703.969985875719
 11
758.91251972633
 21
11703.969985875719
  0
LINE
  5
251
100
AcDbEntity
  8
1
  6
PHANTOM
 62
           1
100
AcDbLine
 10
758.91251972633
 20
11703.969985875719
 11
758.91251972633
 21
11833.969985875719
  0
LINE
  5
250
100
AcDbEntity
  8
1
  6
PHANTOM
 62
           1
100
AcDbLine
 10
758.91251972633
 20
11833.969985875719
 11
760.91251972633
 21
11833.969985875719
  0
LINE
  5
24F
100
AcDbEntity
  8
1
  6
PHANTOM
 62
           1
100
AcDbLine
 10
760.91251972633
 20
11833.969985875719
 11
760.91251972633
 21
11703.969985875719
  0
LINE
  5
24E
100
AcDbEntity
  8
1
  6
DOT_CENTER
 62
           1
100
AcDbLine
 10
467.463438894075
 20
11612.14846788563
 11
507.222213845701
 21
11612.14846788563
  0
LINE
  5
24D
100
AcDbEntity
  8
1
  6
DOT_CENTER
 62
           1
100
AcDbLine
 10
467.463438894075
 20
11584.64846788563
 11
507.222213845701
 21
11584.64846788563
  0
LINE
  5
24C
100
AcDbEntity
  8
1
  6
DOT_CENTER
 62
           1
100
AcDbLine
 10
467.463438894075
 20
11529.64846788563
 11
507.222213845701
 21
11529.64846788563
  0
LINE
  5
24B
100
AcDbEntity
  8
1
  6
DOT_CENTER
 62
           1
100
AcDbLine
 10
467.463438894075
 20
11502.14846788563
 11
507.222213845701
 21
11502.14846788563
  0
LINE
  5
24A
100
AcDbEntity
  8
1
  6
CONTINUOUS
 62
           3
100
AcDbLine
 10
514.705336135129
 20
11649.64846788563
 11
460.705336135129
 21
11649.64846788563
  0
LINE
  5
249
100
AcDbEntity
  8
1
  6
CONTINUOUS
 62
           3
100
AcDbLine
 10
460.705336135129
 20
11649.64846788563
 11
457.705336135129
 21
11649.64846788563
  0
LINE
  5
248
100
AcDbEntity
  8
1
  6
CONTINUOUS
 62
           3
100
AcDbLine
 10
660.902448656709
 20
11774.969985875719
 11
660.902448656709
 21
11773.969985875719
  0
LINE
  5
247
100
AcDbEntity
  8
1
  6
CONTINUOUS
 62
           3
100
AcDbLine
 10
630.902448656709
 20
11774.969985875719
 11
630.902448656709
 21
11773.969985875719
  0
LINE
  5
246
100
AcDbEntity
  8
1
  6
CONTINUOUS
 62
           3
100
AcDbLine
 10
664.402448656709
 20
11774.969985875719
 11
616.902448656709
 21
11774.969985875719
  0
LINE
  5
245
100
AcDbEntity
  8
1
  6
CONTINUOUS
 62
           3
100
AcDbLine
 10
618.902448656709
 20
11774.969985875719
 11
618.902448656709
 21
11762.969985875719
  0
LINE
  5
244
100
AcDbEntity
  8
1
  6
CONTINUOUS
 62
           3
100
AcDbLine
 10
616.902448656709
 20
11774.969985875719
 11
616.902448656709
 21
11807.969985875719
  0
LINE
  5
243
100
AcDbEntity
  8
1
  6
CONTINUOUS
 62
           3
100
AcDbLine
 10
665.402448656709
 20
11807.969985875719
 11
665.402448656709
 21
11775.969985875719
  0
LINE
  5
242
100
AcDbEntity
  8
1
  6
CONTINUOUS
 62
           3
100
AcDbLine
 10
618.902448656709
 20
11809.969985875719
 11
663.402448656709
 21
11809.969985875719
  0
LINE
  5
241
100
AcDbEntity
  8
1
  6
CONTINUOUS
 62
           3
100
AcDbLine
 10
665.402448656709
 20
11761.969985875719
 11
665.402448656709
 21
11729.969985875719
  0
LINE
  5
240
100
AcDbEntity
  8
1
  6
CONTINUOUS
 62
           3
100
AcDbLine
 10
616.902448656709
 20
11762.969985875719
 11
664.402448656709
 21
11762.969985875719
  0
LINE
  5
23F
100
AcDbEntity
  8
1
  6
CONTINUOUS
 62
           3
100
AcDbLine
 10
616.902448656709
 20
11729.969985875719
 11
616.902448656709
 21
11762.969985875719
  0
LINE
  5
23E
100
AcDbEntity
  8
1
  6
CONTINUOUS
 62
           3
100
AcDbLine
 10
663.402448656709
 20
11727.969985875719
 11
618.902448656709
 21
11727.969985875719
  0
LINE
  5
23D
100
AcDbEntity
  8
1
  6
CONTINUOUS
 62
           3
100
AcDbLine
 10
616.902448656709
 20
11538.64846788563
 11
616.902448656709
 21
11539.64846788563
  0
LINE
  5
23C
100
AcDbEntity
  8
1
  6
CONTINUOUS
 62
           3
100
AcDbLine
 10
617.902448656709
 20
11576.64846788563
 11
645.902448656709
 21
11576.64846788563
  0
LINE
  5
23B
100
AcDbEntity
  8
1
  6
CONTINUOUS
 62
           3
100
AcDbLine
 10
645.902448656709
 20
11537.64846788563
 11
617.902448656709
 21
11537.64846788563
  0
LINE
  5
23A
100
AcDbEntity
  8
1
  6
CONTINUOUS
 62
           3
100
AcDbLine
 10
859.900664182922
 20
11792.469985875719
 11
859.900664182922
 21
11745.469985875719
  0
LINE
  5
239
100
AcDbEntity
  8
1
  6
CONTINUOUS
 62
           3
100
AcDbLine
 10
869.900664182922
 20
11743.969985875719
 11
861.400664182922
 21
11743.969985875719
  0
LINE
  5
238
100
AcDbEntity
  8
1
  6
CONTINUOUS
 62
           3
100
AcDbLine
 10
848.900664182922
 20
11777.969985875719
 11
854.900664182922
 21
11777.969985875719
  0
LINE
  5
237
100
AcDbEntity
  8
1
  6
CONTINUOUS
 62
           3
100
AcDbLine
 10
861.400664182922
 20
11793.969985875719
 11
869.900664182922
 21
11793.969985875719
  0
LINE
  5
236
100
AcDbEntity
  8
1
  6
DOTTED
 62
           1
100
AcDbLine
 10
701.902448656709
 20
11762.469985875719
 11
701.902448656709
 21
11759.969985875719
  0
LINE
  5
235
100
AcDbEntity
  8
1
  6
DOTTED
 62
           1
100
AcDbLine
 10
691.902448656709
 20
11762.469985875719
 11
691.902448656709
 21
11759.969985875719
  0
LINE
  5
234
100
AcDbEntity
  8
1
  6
DOTTED
 62
           1
100
AcDbLine
 10
691.902448656709
 20
11762.469985875719
 11
701.902448656709
 21
11762.469985875719
  0
LINE
  5
233
100
AcDbEntity
  8
1
  6
DOTTED
 62
           1
100
AcDbLine
 10
701.902448656709
 20
11763.469985875719
 11
701.902448656709
 21
11762.469985875719
  0
LINE
  5
232
100
AcDbEntity
  8
1
  6
DOTTED
 62
           1
100
AcDbLine
 10
691.902448656709
 20
11763.469985875719
 11
691.902448656709
 21
11762.469985875719
  0
LINE
  5
231
100
AcDbEntity
  8
1
  6
DOTTED
 62
           1
100
AcDbLine
 10
691.902448656709
 20
11763.469985875719
 11
701.902448656709
 21
11763.469985875719
  0
LINE
  5
230
100
AcDbEntity
  8
1
  6
DOTTED
 62
           1
100
AcDbLine
 10
701.902448656709
 20
11774.469985875719
 11
701.902448656709
 21
11763.469985875719
  0
LINE
  5
22F
100
AcDbEntity
  8
1
  6
DOTTED
 62
           1
100
AcDbLine
 10
691.902448656709
 20
11774.469985875719
 11
691.902448656709
 21
11763.469985875719
  0
LINE
  5
22E
100
AcDbEntity
  8
1
  6
DOTTED
 62
           1
100
AcDbLine
 10
691.902448656709
 20
11774.469985875719
 11
701.902448656709
 21
11774.469985875719
  0
LINE
  5
22D
100
AcDbEntity
  8
1
  6
DOTTED
 62
           1
100
AcDbLine
 10
701.902448656709
 20
11775.469985875719
 11
701.902448656709
 21
11774.469985875719
  0
LINE
  5
22C
100
AcDbEntity
  8
1
  6
DOTTED
 62
           1
100
AcDbLine
 10
691.902448656709
 20
11775.469985875719
 11
691.902448656709
 21
11774.469985875719
  0
LINE
  5
22B
100
AcDbEntity
  8
1
  6
DOTTED
 62
           1
100
AcDbLine
 10
691.902448656709
 20
11775.469985875719
 11
701.902448656709
 21
11775.469985875719
  0
LINE
  5
22A
100
AcDbEntity
  8
1
  6
DOTTED
 62
           1
100
AcDbLine
 10
701.902448656709
 20
11777.969985875719
 11
701.902448656709
 21
11775.469985875719
  0
LINE
  5
229
100
AcDbEntity
  8
1
  6
DOTTED
 62
           1
100
AcDbLine
 10
691.902448656709
 20
11777.969985875719
 11
691.902448656709
 21
11775.469985875719
  0
LINE
  5
228
100
AcDbEntity
  8
1
  6
CONTINUOUS
 62
           3
100
AcDbLine
 10
733.902448656709
 20
11556.64846788563
 11
733.902448656709
 21
11552.14846788563
  0
LINE
  5
227
100
AcDbEntity
  8
1
  6
CONTINUOUS
 62
           3
100
AcDbLine
 10
723.902448656709
 20
11524.14846788563
 11
723.902448656709
 21
11547.14846788563
  0
LINE
  5
226
100
AcDbEntity
  8
1
  6
CONTINUOUS
 62
           3
100
AcDbLine
 10
724.402448656709
 20
11557.14846788563
 11
733.402448656709
 21
11557.14846788563
  0
LINE
  5
225
100
AcDbEntity
  8
1
  6
CONTINUOUS
 62
           3
100
AcDbLine
 10
723.902448656709
 20
11547.14846788563
 11
723.902448656709
 21
11552.14846788563
  0
LINE
  5
224
100
AcDbEntity
  8
1
  6
CONTINUOUS
 62
           3
100
AcDbLine
 10
733.902448656709
 20
11547.14846788563
 11
733.902448656709
 21
11524.14846788563
  0
LINE
  5
223
100
AcDbEntity
  8
1
  6
DOTTED
 62
           1
100
AcDbLine
 10
723.902448656709
 20
11527.14846788563
 11
733.902448656709
 21
11527.14846788563
  0
LINE
  5
222
100
AcDbEntity
  8
1
  6
CONTINUOUS
 62
           3
100
AcDbLine
 10
724.402448656709
 20
11523.64846788563
 11
733.402448656709
 21
11523.64846788563
  0
LINE
  5
221
100
AcDbEntity
  8
1
  6
CONTINUOUS
 62
           3
100
AcDbLine
 10
848.902448656709
 20
11759.969985875719
 11
666.902448656709
 21
11759.969985875719
  0
LINE
  5
220
100
AcDbEntity
  8
1
  6
CONTINUOUS
 62
           3
100
AcDbLine
 10
665.902448656709
 20
11773.469985875719
 11
665.902448656709
 21
11764.469985875719
  0
LINE
  5
21F
100
AcDbEntity
  8
1
  6
CONTINUOUS
 62
           3
100
AcDbLine
 10
685.904233130496
 20
11547.14846788563
 11
667.902448656709
 21
11547.14846788563
  0
LINE
  5
21E
100
AcDbEntity
  8
1
  6
CONTINUOUS
 62
           3
100
AcDbLine
 10
667.404233130496
 20
11567.14846788563
 11
667.902448656709
 21
11567.14846788563
  0
LINE
  5
21D
100
AcDbEntity
  8
1
  6
CONTINUOUS
 62
           3
100
AcDbLine
 10
667.902448656709
 20
11546.14846788563
 11
667.902448656709
 21
11547.14846788563
  0
LINE
  5
21C
100
AcDbEntity
  8
1
  6
CONTINUOUS
 62
           3
100
AcDbLine
 10
685.904233130496
 20
11546.14846788563
 11
685.904233130496
 21
11547.14846788563
  0
LINE
  5
21B
100
AcDbEntity
  8
1
  6
CONTINUOUS
 62
           3
100
AcDbLine
 10
685.904233130496
 20
11567.14846788563
 11
685.904233130496
 21
11568.14846788563
  0
LINE
  5
21A
100
AcDbEntity
  8
1
  6
CONTINUOUS
 62
           3
100
AcDbLine
 10
667.902448656709
 20
11567.14846788563
 11
667.902448656709
 21
11568.14846788563
  0
LINE
  5
219
100
AcDbEntity
  8
1
  6
CONTINUOUS
 62
           3
100
AcDbLine
 10
685.904233130496
 20
11566.64846788563
 11
685.904233130496
 21
11547.64846788563
  0
LINE
  5
218
100
AcDbEntity
  8
1
  6
CONTINUOUS
 62
           3
100
AcDbLine
 10
667.902448656709
 20
11547.14846788563
 11
667.404233130496
 21
11547.14846788563
  0
LINE
  5
217
100
AcDbEntity
  8
1
  6
CONTINUOUS
 62
           3
100
AcDbLine
 10
667.902448656709
 20
11567.14846788563
 11
685.904233130496
 21
11567.14846788563
  0
LINE
  5
216
100
AcDbEntity
  8
1
  6
DOT_CENTER
 62
           1
100
AcDbLine
 10
676.902448656709
 20
11528.031642483
 11
676.902448656709
 21
11585.105925380491
  0
LINE
  5
215
100
AcDbEntity
  8
1
  6
DOTTED
 62
           1
100
AcDbLine
 10
869.900664182922
 20
11519.64846788563
 11
862.900664182922
 21
11519.64846788563
  0
LINE
  5
214
100
AcDbEntity
  8
1
  6
CONTINUOUS
 62
           3
100
AcDbLine
 10
861.400664182922
 20
11594.64846788563
 11
862.900664182922
 21
11594.64846788563
  0
LINE
  5
213
100
AcDbEntity
  8
1
  6
CONTINUOUS
 62
           3
100
AcDbLine
 10
857.902448656709
 20
11547.14846788563
 11
857.902448656709
 21
11546.19846788563
  0
LINE
  5
212
100
AcDbEntity
  8
1
  6
CONTINUOUS
 62
           3
100
AcDbLine
 10
839.900664182922
 20
11547.14846788563
 11
839.900664182922
 21
11546.19846788563
  0
LINE
  5
211
100
AcDbEntity
  8
1
  6
CONTINUOUS
 62
           3
100
AcDbLine
 10
857.902448656709
 20
11568.098467885629
 11
857.902448656709
 21
11567.14846788563
  0
LINE
  5
210
100
AcDbEntity
  8
1
  6
DOT_CENTER
 62
           1
100
AcDbLine
 10
848.902448656709
 20
11585.105925380491
 11
848.902448656709
 21
11528.031642483
  0
LINE
  5
20F
100
AcDbEntity
  8
1
  6
CONTINUOUS
 62
           3
100
AcDbLine
 10
859.900664182922
 20
11521.14846788563
 11
859.900664182922
 21
11593.14846788563
  0
LINE
  5
20E
100
AcDbEntity
  8
1
  6
DOTTED
 62
           1
100
AcDbLine
 10
613.902448656709
 20
11602.74320472774
 11
615.902448656709
 21
11602.74320472774
  0
LINE
  5
20D
100
AcDbEntity
  8
1
  6
DOTTED
 62
           1
100
AcDbLine
 10
613.902448656709
 20
11597.543204727741
 11
615.902448656709
 21
11597.543204727741
  0
LINE
  5
20C
100
AcDbEntity
  8
1
  6
DOT_CENTER
 62
           1
100
AcDbLine
 10
608.128496425147
 20
11600.143204727739
 11
624.668496425147
 21
11600.143204727739
  0
LINE
  5
20B
100
AcDbEntity
  8
1
  6
DOT_CENTER
 62
           1
100
AcDbLine
 10
624.668496425147
 20
11507.14846788563
 11
608.128496425147
 21
11507.14846788563
  0
LINE
  5
20A
100
AcDbEntity
  8
1
  6
DOTTED
 62
           1
100
AcDbLine
 10
615.902448656709
 20
11509.748467885631
 11
613.902448656709
 21
11509.748467885631
  0
LINE
  5
209
100
AcDbEntity
  8
1
  6
DOTTED
 62
           1
100
AcDbLine
 10
615.902448656709
 20
11504.54846788563
 11
613.902448656709
 21
11504.54846788563
  0
LINE
  5
208
100
AcDbEntity
  8
1
  6
CONTINUOUS
 62
           3
100
AcDbLine
 10
615.902448656709
 20
11539.64846788563
 11
615.902448656709
 21
11492.14846788563
  0
LINE
  5
207
100
AcDbEntity
  8
1
  6
CONTINUOUS
 62
           3
100
AcDbLine
 10
615.902448656709
 20
11574.64846788563
 11
615.902448656709
 21
11539.64846788563
  0
LINE
  5
206
100
AcDbEntity
  8
1
  6
CONTINUOUS
 62
           3
100
AcDbLine
 10
613.902448656709
 20
11622.14846788563
 11
615.902448656709
 21
11622.14846788563
  0
LINE
  5
205
100
AcDbEntity
  8
1
  6
CONTINUOUS
 62
           3
100
AcDbLine
 10
615.902448656709
 20
11492.14846788563
 11
613.902448656709
 21
11492.14846788563
  0
LINE
  5
204
100
AcDbEntity
  8
1
  6
CONTINUOUS
 62
           3
100
AcDbLine
 10
615.902448656709
 20
11622.14846788563
 11
615.902448656709
 21
11574.64846788563
  0
LINE
  5
203
100
AcDbEntity
  8
1
  6
DOT_CENTER
 62
           1
100
AcDbLine
 10
645.902448656709
 20
11585.105925380491
 11
645.902448656709
 21
11528.031642483
  0
LINE
  5
202
100
AcDbEntity
  8
1
  6
CONTINUOUS
 62
           3
100
AcDbLine
 10
672.402448656709
 20
11547.14846788563
 11
666.402448656709
 21
11547.14846788563
  0
LINE
  5
201
100
AcDbEntity
  8
1
  6
CONTINUOUS
 62
           3
100
AcDbLine
 10
665.902448656709
 20
11566.64846788563
 11
665.902448656709
 21
11547.64846788563
  0
LINE
  5
200
100
AcDbEntity
  8
1
  6
CONTINUOUS
 62
           3
100
AcDbLine
 10
665.902448656709
 20
11569.14846788563
 11
665.902448656709
 21
11573.14846788563
  0
LINE
  5
1FF
100
AcDbEntity
  8
1
  6
CONTINUOUS
 62
           3
100
AcDbLine
 10
666.402448656709
 20
11567.14846788563
 11
672.402448656709
 21
11567.14846788563
  0
LINE
  5
1FE
100
AcDbEntity
  8
1
  6
CONTINUOUS
 62
           3
100
AcDbLine
 10
664.402448656709
 20
11539.64846788563
 11
654.504773923752
 21
11539.64846788563
  0
LINE
  5
1FD
100
AcDbEntity
  8
1
  6
CONTINUOUS
 62
           3
100
AcDbLine
 10
664.402448656709
 20
11574.64846788563
 11
654.504773923752
 21
11574.64846788563
  0
LINE
  5
1FC
100
AcDbEntity
  8
1
  6
CONTINUOUS
 62
           3
100
AcDbLine
 10
665.902448656709
 20
11541.14846788563
 11
665.902448656709
 21
11545.14846788563
  0
LINE
  5
1FB
100
AcDbEntity
  8
1
  6
CONTINUOUS
 62
           3
100
AcDbLine
 10
613.902448656709
 20
11492.14846788563
 11
613.902448656709
 21
11622.14846788563
  0
LINE
  5
1FA
100
AcDbEntity
  8
1
  6
CONTINUOUS
 62
           3
100
AcDbLine
 10
628.402448656709
 20
11773.969985875719
 11
630.902448656709
 21
11773.969985875719
  0
LINE
  5
1F9
100
AcDbEntity
  8
1
  6
CONTINUOUS
 62
           3
100
AcDbLine
 10
660.902448656709
 20
11763.969985875719
 11
630.902448656709
 21
11763.969985875719
  0
LINE
  5
1F8
100
AcDbEntity
  8
1
  6
CONTINUOUS
 62
           3
100
AcDbLine
 10
630.902448656709
 20
11763.969985875719
 11
630.902448656709
 21
11762.969985875719
  0
LINE
  5
1F7
100
AcDbEntity
  8
1
  6
CONTINUOUS
 62
           3
100
AcDbLine
 10
630.902448656709
 20
11773.969985875719
 11
660.902448656709
 21
11773.969985875719
  0
LINE
  5
1F6
100
AcDbEntity
  8
1
  6
CONTINUOUS
 62
           3
100
AcDbLine
 10
665.402448656709
 20
11763.969985875719
 11
660.902448656709
 21
11763.969985875719
  0
LINE
  5
1F5
100
AcDbEntity
  8
1
  6
CONTINUOUS
 62
           3
100
AcDbLine
 10
660.902448656709
 20
11763.969985875719
 11
660.902448656709
 21
11762.969985875719
  0
LINE
  5
1F4
100
AcDbEntity
  8
1
  6
CONTINUOUS
 62
           3
100
AcDbLine
 10
665.902448656709
 20
11776.969985875719
 11
665.902448656709
 21
11775.969985875719
  0
LINE
  5
1F3
100
AcDbEntity
  8
1
  6
CONTINUOUS
 62
           3
100
AcDbLine
 10
665.902448656709
 20
11773.469985875719
 11
665.902448656709
 21
11764.79841300047
  0
LINE
  5
1F2
100
AcDbEntity
  8
1
  6
CONTINUOUS
 62
           3
100
AcDbLine
 10
630.902448656709
 20
11763.969985875719
 11
628.402448656709
 21
11763.969985875719
  0
LINE
  5
1F1
100
AcDbEntity
  8
1
  6
CONTINUOUS
 62
           3
100
AcDbLine
 10
628.402448656709
 20
11763.969985875719
 11
628.402448656709
 21
11773.969985875719
  0
LINE
  5
1F0
100
AcDbEntity
  8
1
  6
CONTINUOUS
 62
           3
100
AcDbLine
 10
660.902448656709
 20
11773.969985875719
 11
665.402448656709
 21
11773.969985875719
  0
LINE
  5
1EF
100
AcDbEntity
  8
1
  6
CONTINUOUS
 62
           3
100
AcDbLine
 10
665.902448656709
 20
11761.969985875719
 11
665.902448656709
 21
11760.969985875719
  0
LINE
  5
1EE
100
AcDbEntity
  8
1
  6
CONTINUOUS
 62
           3
100
AcDbLine
 10
615.902448656709
 20
11833.969985875719
 11
615.902448656709
 21
11703.969985875719
  0
LINE
  5
1ED
100
AcDbEntity
  8
1
  6
CONTINUOUS
 62
           3
100
AcDbLine
 10
613.902448656709
 20
11833.969985875719
 11
615.902448656709
 21
11833.969985875719
  0
LINE
  5
1EC
100
AcDbEntity
  8
1
  6
CONTINUOUS
 62
           3
100
AcDbLine
 10
613.902448656709
 20
11703.969985875719
 11
613.902448656709
 21
11833.969985875719
  0
LINE
  5
1EB
100
AcDbEntity
  8
1
  6
CONTINUOUS
 62
           3
100
AcDbLine
 10
615.902448656709
 20
11703.969985875719
 11
613.902448656709
 21
11703.969985875719
  0
LINE
  5
1EA
100
AcDbEntity
  8
1
  6
DOTTED
 62
           1
100
AcDbLine
 10
613.902448656709
 20
11821.56998587572
 11
615.902448656709
 21
11821.56998587572
  0
LINE
  5
1E9
100
AcDbEntity
  8
1
  6
DOTTED
 62
           1
100
AcDbLine
 10
613.902448656709
 20
11816.369985875721
 11
615.902448656709
 21
11816.369985875721
  0
LINE
  5
1E8
100
AcDbEntity
  8
1
  6
DOT_CENTER
 62
           1
100
AcDbLine
 10
608.128496425147
 20
11818.969985875719
 11
624.668496425147
 21
11818.969985875719
  0
LINE
  5
1E7
100
AcDbEntity
  8
1
  6
DOT_CENTER
 62
           1
100
AcDbLine
 10
624.668496425147
 20
11718.969985875719
 11
608.128496425147
 21
11718.969985875719
  0
LINE
  5
1E6
100
AcDbEntity
  8
1
  6
DOTTED
 62
           1
100
AcDbLine
 10
615.902448656709
 20
11721.56998587572
 11
613.902448656709
 21
11721.56998587572
  0
LINE
  5
1E5
100
AcDbEntity
  8
1
  6
DOTTED
 62
           1
100
AcDbLine
 10
615.902448656709
 20
11716.369985875721
 11
613.902448656709
 21
11716.369985875721
  0
LINE
  5
1E4
100
AcDbEntity
  8
1
  6
CONTINUOUS
 62
           3
100
AcDbLine
 10
613.902448656709
 20
11755.469985875719
 11
613.902448656709
 21
11762.469985875719
  0
LINE
  5
1E3
100
AcDbEntity
  8
1
  6
CONTINUOUS
 62
           3
100
AcDbLine
 10
666.902448656709
 20
11777.969985875719
 11
848.900664182922
 21
11777.969985875719
  0
LINE
  5
1E2
100
AcDbEntity
  8
1
  6
DOT_CENTER
 62
           1
100
AcDbLine
 10
676.902448656709
 20
11751.401006871611
 11
676.902448656709
 21
11786.681006871609
  0
LINE
  5
1E1
100
AcDbEntity
  8
1
  6
CONTINUOUS
 62
           3
100
AcDbLine
 10
532.055176227506
 20
11615.399267423751
 11
517.705336135129
 21
11605.572475390311
  0
LINE
  5
1E0
100
AcDbEntity
  8
1
  6
CONTINUOUS
 62
           3
100
AcDbLine
 10
482.055176227504
 20
11588.89766834751
 11
473.657414934247
 21
11594.64846788563
  0
LINE
  5
1DF
100
AcDbEntity
  8
1
  6
CONTINUOUS
 62
           3
100
AcDbLine
 10
429.454536597007
 20
11601.49830797801
 11
455.95613567325
 21
11562.79862779326
  0
LINE
  5
1DE
100
AcDbEntity
  8
1
  6
CONTINUOUS
 62
           3
100
AcDbLine
 10
455.956135673251
 20
11551.49830797801
 11
429.454536597007
 21
11512.79862779326
  0
LINE
  5
1DD
100
AcDbEntity
  8
1
  6
CONTINUOUS
 62
           3
100
AcDbLine
 10
443.355496042753
 20
11498.89766834751
 11
457.705336135129
 21
11508.72446038095
  0
LINE
  5
1DC
100
AcDbEntity
  8
1
  6
CONTINUOUS
 62
           3
100
AcDbLine
 10
493.355496042754
 20
11525.399267423751
 11
501.753257336011
 21
11519.64846788563
  0
LINE
  5
1DB
100
AcDbEntity
  8
1
  6
CONTINUOUS
 62
           3
100
AcDbLine
 10
545.956135673251
 20
11512.79862779326
 11
519.454536597007
 21
11551.49830797801
  0
LINE
  5
1DA
100
AcDbEntity
  8
1
  6
CONTINUOUS
 62
           3
100
AcDbLine
 10
519.454536597007
 20
11562.79862779326
 11
545.956135673251
 21
11601.49830797801
  0
LINE
  5
1D9
100
AcDbEntity
  8
1
  6
CONTINUOUS
 62
           3
100
AcDbLine
 10
534.305336135129
 20
11609.748467885631
 11
541.105336135129
 21
11609.748467885631
  0
LINE
  5
1D8
100
AcDbEntity
  8
1
  6
CONTINUOUS
 62
           3
100
AcDbLine
 10
541.105336135129
 20
11604.54846788563
 11
534.305336135129
 21
11604.54846788563
  0
LINE
  5
1D7
100
AcDbEntity
  8
1
  6
DOT_CENTER
 62
           1
100
AcDbLine
 10
529.160044474261
 20
11607.14846788563
 11
546.529631508244
 21
11607.14846788563
  0
LINE
  5
1D6
100
AcDbEntity
  8
1
  6
DOT_CENTER
 62
           1
100
AcDbLine
 10
534.305336135129
 20
11612.04256511548
 11
534.305336135129
 21
11602.357704466231
  0
LINE
  5
1D5
100
AcDbEntity
  8
1
  6
DOT_CENTER
 62
           1
100
AcDbLine
 10
541.105336135129
 20
11611.989930003259
 11
541.105336135129
 21
11602.620880027351
  0
LINE
  5
1D4
100
AcDbEntity
  8
1
  6
DOT_CENTER
 62
           1
100
AcDbLine
 10
537.705336135129
 20
11613.38229750239
 11
537.705336135129
 21
11600.34115807847
  0
LINE
  5
1D3
100
AcDbEntity
  8
1
  6
DOT_CENTER
 62
           1
100
AcDbLine
 10
433.297352940357
 20
11611.5564510804
 11
442.51883106141
 21
11602.33497295935
  0
LINE
  5
1D2
100
AcDbEntity
  8
1
  6
DOT_CENTER
 62
           1
100
AcDbLine
 10
436.68606849693
 20
11612.9760616359
 11
443.310987268171
 21
11606.35114286466
  0
LINE
  5
1D1
100
AcDbEntity
  8
1
  6
DOT_CENTER
 62
           1
100
AcDbLine
 10
431.840523740082
 20
11608.20495416861
 11
438.688754380014
 21
11601.356723528679
  0
LINE
  5
1D0
100
AcDbEntity
  8
1
  6
DOT_CENTER
 62
           1
100
AcDbLine
 10
431.662902454512
 20
11601.10603420501
 11
443.945055232651
 21
11613.38818698316
  0
LINE
  5
1CF
100
AcDbEntity
  8
1
  6
CONTINUOUS
 62
           3
100
AcDbLine
 10
441.947976822248
 20
11607.714153310581
 11
437.139650710179
 21
11602.90582719851
  0
LINE
  5
1CE
100
AcDbEntity
  8
1
  6
CONTINUOUS
 62
           3
100
AcDbLine
 10
433.46269544801
 20
11606.58278246068
 11
438.271021560078
 21
11611.39110857275
  0
LINE
  5
1CD
100
AcDbEntity
  8
1
  6
CONTINUOUS
 62
           3
100
AcDbLine
 10
445.96269544801
 20
11594.08278246068
 11
450.771021560078
 21
11598.89110857275
  0
LINE
  5
1CC
100
AcDbEntity
  8
1
  6
CONTINUOUS
 62
           3
100
AcDbLine
 10
454.447976822248
 20
11595.214153310581
 11
449.639650710179
 21
11590.40582719851
  0
LINE
  5
1CB
100
AcDbEntity
  8
1
  6
DOT_CENTER
 62
           1
100
AcDbLine
 10
444.162902454512
 20
11588.60603420501
 11
456.445055232651
 21
11600.88818698316
  0
LINE
  5
1CA
100
AcDbEntity
  8
1
  6
DOT_CENTER
 62
           1
100
AcDbLine
 10
444.340523740082
 20
11595.70495416861
 11
451.188754380014
 21
11588.856723528679
  0
LINE
  5
1C9
100
AcDbEntity
  8
1
  6
DOT_CENTER
 62
           1
100
AcDbLine
 10
449.18606849693
 20
11600.4760616359
 11
455.810987268171
 21
11593.85114286466
  0
LINE
  5
1C8
100
AcDbEntity
  8
1
  6
DOT_CENTER
 62
           1
100
AcDbLine
 10
445.797352940357
 20
11599.0564510804
 11
455.01883106141
 21
11589.83497295935
  0
LINE
  5
1C7
100
AcDbEntity
  8
1
  6
DOT_CENTER
 62
           1
100
AcDbLine
 10
525.205336135129
 20
11600.88229750239
 11
525.205336135129
 21
11587.84115807847
  0
LINE
  5
1C6
100
AcDbEntity
  8
1
  6
DOT_CENTER
 62
           1
100
AcDbLine
 10
528.605336135129
 20
11599.489930003259
 11
528.605336135129
 21
11590.120880027351
  0
LINE
  5
1C5
100
AcDbEntity
  8
1
  6
DOT_CENTER
 62
           1
100
AcDbLine
 10
521.805336135129
 20
11599.54256511548
 11
521.805336135129
 21
11589.857704466231
  0
LINE
  5
1C4
100
AcDbEntity
  8
1
  6
DOT_CENTER
 62
           1
100
AcDbLine
 10
516.660044474261
 20
11594.64846788563
 11
534.029631508244
 21
11594.64846788563
  0
LINE
  5
1C3
100
AcDbEntity
  8
1
  6
CONTINUOUS
 62
           3
100
AcDbLine
 10
528.605336135129
 20
11592.04846788563
 11
521.805336135129
 21
11592.04846788563
  0
LINE
  5
1C2
100
AcDbEntity
  8
1
  6
CONTINUOUS
 62
           3
100
AcDbLine
 10
521.805336135129
 20
11597.248467885631
 11
528.605336135129
 21
11597.248467885631
  0
LINE
  5
1C1
100
AcDbEntity
  8
1
  6
DOT_CENTER
 62
           1
100
AcDbLine
 10
431.47150651837
 20
11507.14846788563
 11
444.512645942289
 21
11507.14846788563
  0
LINE
  5
1C0
100
AcDbEntity
  8
1
  6
DOT_CENTER
 62
           1
100
AcDbLine
 10
432.8638740175
 20
11510.54846788563
 11
442.23292399341
 21
11510.54846788563
  0
LINE
  5
1BF
100
AcDbEntity
  8
1
  6
DOT_CENTER
 62
           1
100
AcDbLine
 10
432.811238905279
 20
11503.748467885631
 11
442.49609955453
 21
11503.748467885631
  0
LINE
  5
1BE
100
AcDbEntity
  8
1
  6
DOT_CENTER
 62
           1
100
AcDbLine
 10
437.705336135128
 20
11498.60317622476
 11
437.705336135129
 21
11515.972763258749
  0
LINE
  5
1BD
100
AcDbEntity
  8
1
  6
CONTINUOUS
 62
           3
100
AcDbLine
 10
440.305336135129
 20
11510.54846788563
 11
440.305336135129
 21
11503.748467885631
  0
LINE
  5
1BC
100
AcDbEntity
  8
1
  6
CONTINUOUS
 62
           3
100
AcDbLine
 10
435.105336135128
 20
11503.748467885631
 11
435.105336135129
 21
11510.54846788563
  0
LINE
  5
1BB
100
AcDbEntity
  8
1
  6
CONTINUOUS
 62
           3
100
AcDbLine
 10
447.605336135128
 20
11516.248467885631
 11
447.605336135129
 21
11523.04846788563
  0
LINE
  5
1BA
100
AcDbEntity
  8
1
  6
CONTINUOUS
 62
           3
100
AcDbLine
 10
452.805336135129
 20
11523.04846788563
 11
452.805336135128
 21
11516.248467885631
  0
LINE
  5
1B9
100
AcDbEntity
  8
1
  6
DOT_CENTER
 62
           1
100
AcDbLine
 10
450.205336135128
 20
11511.10317622476
 11
450.205336135129
 21
11528.472763258749
  0
LINE
  5
1B8
100
AcDbEntity
  8
1
  6
DOT_CENTER
 62
           1
100
AcDbLine
 10
445.311238905279
 20
11516.248467885631
 11
454.99609955453
 21
11516.248467885631
  0
LINE
  5
1B7
100
AcDbEntity
  8
1
  6
DOT_CENTER
 62
           1
100
AcDbLine
 10
445.3638740175
 20
11523.04846788563
 11
454.73292399341
 21
11523.04846788563
  0
LINE
  5
1B6
100
AcDbEntity
  8
1
  6
DOT_CENTER
 62
           1
100
AcDbLine
 10
443.97150651837
 20
11519.64846788563
 11
457.012645942289
 21
11519.64846788563
  0
LINE
  5
1B5
100
AcDbEntity
  8
1
  6
DOT_CENTER
 62
           1
100
AcDbLine
 10
516.554191629676
 20
11519.64846788563
 11
532.703206976784
 21
11519.64846788563
  0
LINE
  5
1B4
100
AcDbEntity
  8
1
  6
DOT_CENTER
 62
           1
100
AcDbLine
 10
529.344783431147
 20
11507.14846788563
 11
545.636710418495
 21
11507.14846788563
  0
LINE
  5
1B3
100
AcDbEntity
  8
1
  6
DOT_CENTER
 62
           1
100
AcDbLine
 10
537.705336135129
 20
11514.39885630597
 11
537.705336135129
 21
11499.536045721021
  0
LINE
  5
1B2
100
AcDbEntity
  8
1
  6
DOT_CENTER
 62
           1
100
AcDbLine
 10
525.205336135129
 20
11528.118373769001
 11
525.205336135129
 21
11510.54024201949
  0
LINE
  5
1B1
100
AcDbEntity
  8
1
  6
DOT_CENTER
 62
           1
100
AcDbLine
 10
437.705336135129
 20
11614.54386186312
 11
437.705336135129
 21
11598.160245916721
  0
LINE
  5
1B0
100
AcDbEntity
  8
1
  6
DOT_CENTER
 62
           1
100
AcDbLine
 10
429.5101383965
 20
11607.14846788563
 11
446.617892064296
 21
11607.14846788563
  0
LINE
  5
1AF
100
AcDbEntity
  8
1
  6
DOT_CENTER
 62
           1
100
AcDbLine
 10
439.919618141455
 20
11594.64846788563
 11
459.199784973415
 21
11594.64846788563
  0
LINE
  5
1AE
100
AcDbEntity
  8
1
  6
DOT_CENTER
 62
           1
100
AcDbLine
 10
450.205336135129
 20
11603.31972718161
 11
450.205336135129
 21
11585.668870222769
  0
LINE
  5
1AD
100
AcDbEntity
  8
1
  6
CONTINUOUS
 62
           6
100
AcDbLine
 10
478.205336135129
 20
11568.64846788563
 11
478.205336135129
 21
11567.64846788563
  0
LINE
  5
1AC
100
AcDbEntity
  8
1
  6
CONTINUOUS
 62
           6
100
AcDbLine
 10
476.705336135129
 20
11569.14846788563
 11
475.705336135129
 21
11569.14846788563
  0
LINE
  5
1AB
100
AcDbEntity
  8
1
  6
CONTINUOUS
 62
           6
100
AcDbLine
 10
478.705336135129
 20
11570.14846788563
 11
479.705336135129
 21
11570.14846788563
  0
LINE
  5
1AA
100
AcDbEntity
  8
1
  6
CONTINUOUS
 62
           6
100
AcDbLine
 10
477.205336135129
 20
11570.64846788563
 11
477.205336135129
 21
11571.64846788563
  0
LINE
  5
1A9
100
AcDbEntity
  8
1
  6
CONTINUOUS
 62
           6
100
AcDbLine
 10
475.705336135129
 20
11569.14846788563
 11
475.705336135129
 21
11570.14846788563
  0
LINE
  5
1A8
100
AcDbEntity
  8
1
  6
CONTINUOUS
 62
           6
100
AcDbLine
 10
479.705336135129
 20
11569.14846788563
 11
478.705336135129
 21
11569.14846788563
  0
LINE
  5
1A7
100
AcDbEntity
  8
1
  6
CONTINUOUS
 62
           6
100
AcDbLine
 10
479.705336135129
 20
11570.14846788563
 11
479.705336135129
 21
11569.14846788563
  0
LINE
  5
1A6
100
AcDbEntity
  8
1
  6
CONTINUOUS
 62
           6
100
AcDbLine
 10
475.705336135129
 20
11570.14846788563
 11
476.705336135129
 21
11570.14846788563
  0
LINE
  5
1A5
100
AcDbEntity
  8
1
  6
CONTINUOUS
 62
           6
100
AcDbLine
 10
477.205336135129
 20
11567.64846788563
 11
477.205336135129
 21
11568.64846788563
  0
LINE
  5
1A4
100
AcDbEntity
  8
1
  6
CONTINUOUS
 62
           6
100
AcDbLine
 10
478.205336135129
 20
11567.64846788563
 11
477.205336135129
 21
11567.64846788563
  0
LINE
  5
1A3
100
AcDbEntity
  8
1
  6
CONTINUOUS
 62
           6
100
AcDbLine
 10
478.205336135129
 20
11571.64846788563
 11
478.205336135129
 21
11570.64846788563
  0
LINE
  5
1A2
100
AcDbEntity
  8
1
  6
CONTINUOUS
 62
           6
100
AcDbLine
 10
477.205336135129
 20
11571.64846788563
 11
478.205336135129
 21
11571.64846788563
  0
LINE
  5
1A1
100
AcDbEntity
  8
1
  6
CONTINUOUS
 62
           6
100
AcDbLine
 10
497.205336135129
 20
11571.64846788563
 11
498.205336135129
 21
11571.64846788563
  0
LINE
  5
1A0
100
AcDbEntity
  8
1
  6
CONTINUOUS
 62
           6
100
AcDbLine
 10
497.205336135129
 20
11570.64846788563
 11
497.205336135129
 21
11571.64846788563
  0
LINE
  5
19F
100
AcDbEntity
  8
1
  6
CONTINUOUS
 62
           6
100
AcDbLine
 10
498.205336135129
 20
11567.64846788563
 11
497.205336135129
 21
11567.64846788563
  0
LINE
  5
19E
100
AcDbEntity
  8
1
  6
CONTINUOUS
 62
           6
100
AcDbLine
 10
498.205336135129
 20
11568.64846788563
 11
498.205336135129
 21
11567.64846788563
  0
LINE
  5
19D
100
AcDbEntity
  8
1
  6
CONTINUOUS
 62
           6
100
AcDbLine
 10
498.705336135129
 20
11570.14846788563
 11
499.705336135129
 21
11570.14846788563
  0
LINE
  5
19C
100
AcDbEntity
  8
1
  6
CONTINUOUS
 62
           6
100
AcDbLine
 10
495.705336135129
 20
11569.14846788563
 11
495.705336135129
 21
11570.14846788563
  0
LINE
  5
19B
100
AcDbEntity
  8
1
  6
CONTINUOUS
 62
           6
100
AcDbLine
 10
496.705336135129
 20
11569.14846788563
 11
495.705336135129
 21
11569.14846788563
  0
LINE
  5
19A
100
AcDbEntity
  8
1
  6
CONTINUOUS
 62
           6
100
AcDbLine
 10
499.705336135129
 20
11570.14846788563
 11
499.705336135129
 21
11569.14846788563
  0
LINE
  5
199
100
AcDbEntity
  8
1
  6
CONTINUOUS
 62
           6
100
AcDbLine
 10
498.205336135129
 20
11571.64846788563
 11
498.205336135129
 21
11570.64846788563
  0
LINE
  5
198
100
AcDbEntity
  8
1
  6
CONTINUOUS
 62
           6
100
AcDbLine
 10
495.705336135129
 20
11570.14846788563
 11
496.705336135129
 21
11570.14846788563
  0
LINE
  5
197
100
AcDbEntity
  8
1
  6
CONTINUOUS
 62
           6
100
AcDbLine
 10
499.705336135129
 20
11569.14846788563
 11
498.705336135129
 21
11569.14846788563
  0
LINE
  5
196
100
AcDbEntity
  8
1
  6
CONTINUOUS
 62
           6
100
AcDbLine
 10
497.205336135129
 20
11567.64846788563
 11
497.205336135129
 21
11568.64846788563
  0
LINE
  5
195
100
AcDbEntity
  8
1
  6
CONTINUOUS
 62
           6
100
AcDbLine
 10
497.205336135129
 20
11545.64846788563
 11
497.205336135129
 21
11546.64846788563
  0
LINE
  5
194
100
AcDbEntity
  8
1
  6
CONTINUOUS
 62
           6
100
AcDbLine
 10
498.705336135129
 20
11545.14846788563
 11
499.705336135129
 21
11545.14846788563
  0
LINE
  5
193
100
AcDbEntity
  8
1
  6
CONTINUOUS
 62
           6
100
AcDbLine
 10
496.705336135129
 20
11544.14846788563
 11
495.705336135129
 21
11544.14846788563
  0
LINE
  5
192
100
AcDbEntity
  8
1
  6
CONTINUOUS
 62
           6
100
AcDbLine
 10
498.205336135129
 20
11543.64846788563
 11
498.205336135129
 21
11542.64846788563
  0
LINE
  5
191
100
AcDbEntity
  8
1
  6
CONTINUOUS
 62
           6
100
AcDbLine
 10
499.705336135129
 20
11545.14846788563
 11
499.705336135129
 21
11544.14846788563
  0
LINE
  5
190
100
AcDbEntity
  8
1
  6
CONTINUOUS
 62
           6
100
AcDbLine
 10
495.705336135129
 20
11545.14846788563
 11
496.705336135129
 21
11545.14846788563
  0
LINE
  5
18F
100
AcDbEntity
  8
1
  6
CONTINUOUS
 62
           6
100
AcDbLine
 10
495.705336135129
 20
11544.14846788563
 11
495.705336135129
 21
11545.14846788563
  0
LINE
  5
18E
100
AcDbEntity
  8
1
  6
CONTINUOUS
 62
           6
100
AcDbLine
 10
499.705336135129
 20
11544.14846788563
 11
498.705336135129
 21
11544.14846788563
  0
LINE
  5
18D
100
AcDbEntity
  8
1
  6
CONTINUOUS
 62
           6
100
AcDbLine
 10
498.205336135129
 20
11546.64846788563
 11
498.205336135129
 21
11545.64846788563
  0
LINE
  5
18C
100
AcDbEntity
  8
1
  6
CONTINUOUS
 62
           6
100
AcDbLine
 10
497.205336135129
 20
11546.64846788563
 11
498.205336135129
 21
11546.64846788563
  0
LINE
  5
18B
100
AcDbEntity
  8
1
  6
CONTINUOUS
 62
           6
100
AcDbLine
 10
497.205336135129
 20
11542.64846788563
 11
497.205336135129
 21
11543.64846788563
  0
LINE
  5
18A
100
AcDbEntity
  8
1
  6
CONTINUOUS
 62
           6
100
AcDbLine
 10
498.205336135129
 20
11542.64846788563
 11
497.205336135129
 21
11542.64846788563
  0
LINE
  5
189
100
AcDbEntity
  8
1
  6
CONTINUOUS
 62
           6
100
AcDbLine
 10
478.205336135129
 20
11542.64846788563
 11
477.205336135129
 21
11542.64846788563
  0
LINE
  5
188
100
AcDbEntity
  8
1
  6
CONTINUOUS
 62
           6
100
AcDbLine
 10
478.205336135129
 20
11543.64846788563
 11
478.205336135129
 21
11542.64846788563
  0
LINE
  5
187
100
AcDbEntity
  8
1
  6
CONTINUOUS
 62
           6
100
AcDbLine
 10
477.205336135129
 20
11546.64846788563
 11
478.205336135129
 21
11546.64846788563
  0
LINE
  5
186
100
AcDbEntity
  8
1
  6
CONTINUOUS
 62
           6
100
AcDbLine
 10
477.205336135129
 20
11545.64846788563
 11
477.205336135129
 21
11546.64846788563
  0
LINE
  5
185
100
AcDbEntity
  8
1
  6
CONTINUOUS
 62
           6
100
AcDbLine
 10
476.705336135129
 20
11544.14846788563
 11
475.705336135129
 21
11544.14846788563
  0
LINE
  5
184
100
AcDbEntity
  8
1
  6
CONTINUOUS
 62
           6
100
AcDbLine
 10
479.705336135129
 20
11545.14846788563
 11
479.705336135129
 21
11544.14846788563
  0
LINE
  5
183
100
AcDbEntity
  8
1
  6
CONTINUOUS
 62
           6
100
AcDbLine
 10
478.705336135129
 20
11545.14846788563
 11
479.705336135129
 21
11545.14846788563
  0
LINE
  5
182
100
AcDbEntity
  8
1
  6
CONTINUOUS
 62
           6
100
AcDbLine
 10
475.705336135129
 20
11544.14846788563
 11
475.705336135129
 21
11545.14846788563
  0
LINE
  5
181
100
AcDbEntity
  8
1
  6
CONTINUOUS
 62
           6
100
AcDbLine
 10
477.205336135129
 20
11542.64846788563
 11
477.205336135129
 21
11543.64846788563
  0
LINE
  5
180
100
AcDbEntity
  8
1
  6
CONTINUOUS
 62
           6
100
AcDbLine
 10
479.705336135129
 20
11544.14846788563
 11
478.705336135129
 21
11544.14846788563
  0
LINE
  5
17F
100
AcDbEntity
  8
1
  6
CONTINUOUS
 62
           6
100
AcDbLine
 10
475.705336135129
 20
11545.14846788563
 11
476.705336135129
 21
11545.14846788563
  0
LINE
  5
17E
100
AcDbEntity
  8
1
  6
CONTINUOUS
 62
           6
100
AcDbLine
 10
478.205336135129
 20
11546.64846788563
 11
478.205336135129
 21
11545.64846788563
  0
LINE
  5
17D
100
AcDbEntity
  8
1
  6
DOT_CENTER
 62
           1
100
AcDbLine
 10
477.705336135129
 20
11576.2902321613
 11
477.705336135129
 21
11537.468892546831
  0
LINE
  5
17C
100
AcDbEntity
  8
1
  6
DOT_CENTER
 62
           1
100
AcDbLine
 10
497.705336135129
 20
11576.97130829488
 11
497.705336135129
 21
11536.24295550637
  0
LINE
  5
17B
100
AcDbEntity
  8
1
  6
DOT_CENTER
 62
           1
100
AcDbLine
 10
467.69082704144
 20
11569.64846788563
 11
508.964040736822
 21
11569.64846788563
  0
LINE
  5
17A
100
AcDbEntity
  8
1
  6
DOT_CENTER
 62
           1
100
AcDbLine
 10
467.282181361287
 20
11544.64846788563
 11
508.419179829952
 21
11544.64846788563
  0
LINE
  5
179
100
AcDbEntity
  8
1
  6
CONTINUOUS
 62
           3
100
AcDbLine
 10
869.900664182922
 20
11743.969985875719
 11
869.900664182922
 21
11756.469985875719
  0
LINE
  5
178
100
AcDbEntity
  8
1
  6
CONTINUOUS
 62
           3
100
AcDbLine
 10
996.322293889428
 20
11337.64846788563
 11
1038.322293889428
 21
11337.64846788563
  0
LINE
  5
177
100
AcDbEntity
  8
1
  6
CONTINUOUS
 62
           3
100
AcDbLine
 10
1140.322293889428
 20
11337.64846788563
 11
1140.322293889428
 21
11334.64846788563
  0
LINE
  5
176
100
AcDbEntity
  8
1
  6
CONTINUOUS
 62
           3
100
AcDbLine
 10
1140.322293889428
 20
11334.64846788563
 11
1098.322293889428
 21
11334.64846788563
  0
LINE
  5
175
100
AcDbEntity
  8
1
  6
CONTINUOUS
 62
           3
100
AcDbLine
 10
996.322293889428
 20
11334.64846788563
 11
996.322293889428
 21
11337.64846788563
  0
LINE
  5
174
100
AcDbEntity
  8
1
  6
CONTINUOUS
 62
           3
100
AcDbLine
 10
1098.322293889428
 20
11337.64846788563
 11
1098.322293889428
 21
11340.64846788563
  0
LINE
  5
173
100
AcDbEntity
  8
1
  6
CONTINUOUS
 62
           3
100
AcDbLine
 10
1098.322293889428
 20
11649.64846788563
 11
1095.322293889428
 21
11649.64846788563
  0
LINE
  5
172
100
AcDbEntity
  8
1
  6
CONTINUOUS
 62
           3
100
AcDbLine
 10
1038.322293889428
 20
11334.64846788563
 11
996.322293889428
 21
11334.64846788563
  0
LINE
  5
171
100
AcDbEntity
  8
1
  6
CONTINUOUS
 62
           3
100
AcDbLine
 10
1098.322293889428
 20
11334.64846788563
 11
1095.322293889428
 21
11334.64846788563
  0
LINE
  5
170
100
AcDbEntity
  8
1
  6
CONTINUOUS
 62
           3
100
AcDbLine
 10
1041.322293889428
 20
11334.64846788563
 11
1038.322293889428
 21
11334.64846788563
  0
LINE
  5
16F
100
AcDbEntity
  8
1
  6
CONTINUOUS
 62
           3
100
AcDbLine
 10
1095.322293889428
 20
11334.64846788563
 11
1092.322293889428
 21
11334.64846788563
  0
LINE
  5
16E
100
AcDbEntity
  8
1
  6
CONTINUOUS
 62
           3
100
AcDbLine
 10
1095.322293889428
 20
11341.12468614011
 11
1095.322293889428
 21
11334.64846788563
  0
LINE
  5
16D
100
AcDbEntity
  8
1
  6
CONTINUOUS
 62
           3
100
AcDbLine
 10
1041.322293889428
 20
11341.12468614011
 11
1041.322293889428
 21
11334.64846788563
  0
LINE
  5
16C
100
AcDbEntity
  8
1
  6
CONTINUOUS
 62
           3
100
AcDbLine
 10
1092.322293889428
 20
11334.64846788563
 11
1080.822293889428
 21
11334.64846788563
  0
LINE
  5
16B
100
AcDbEntity
  8
1
  6
CONTINUOUS
 62
           3
100
AcDbLine
 10
1044.322293889428
 20
11334.64846788563
 11
1041.322293889428
 21
11334.64846788563
  0
LINE
  5
16A
100
AcDbEntity
  8
1
  6
CONTINUOUS
 62
           3
100
AcDbLine
 10
1098.322293889428
 20
11340.64846788563
 11
1098.322293889428
 21
11649.64846788563
  0
LINE
  5
169
100
AcDbEntity
  8
1
  6
CONTINUOUS
 62
           3
100
AcDbLine
 10
1098.322293889428
 20
11337.64846788563
 11
1140.322293889428
 21
11337.64846788563
  0
LINE
  5
168
100
AcDbEntity
  8
1
  6
CONTINUOUS
 62
           3
100
AcDbLine
 10
1055.822293889428
 20
11334.64846788563
 11
1055.822293889428
 21
11337.64846788563
  0
LINE
  5
167
100
AcDbEntity
  8
1
  6
CONTINUOUS
 62
           3
100
AcDbLine
 10
1055.822293889428
 20
11334.64846788563
 11
1044.322293889428
 21
11334.64846788563
  0
LINE
  5
166
100
AcDbEntity
  8
1
  6
CONTINUOUS
 62
           3
100
AcDbLine
 10
1055.822293889428
 20
11344.64846788563
 11
1080.822293889428
 21
11344.64846788563
  0
LINE
  5
165
100
AcDbEntity
  8
1
  6
CONTINUOUS
 62
           3
100
AcDbLine
 10
1080.822293889428
 20
11344.64846788563
 11
1080.822293889428
 21
11337.64846788563
  0
LINE
  5
164
100
AcDbEntity
  8
1
  6
CONTINUOUS
 62
           3
100
AcDbLine
 10
1080.822293889428
 20
11334.64846788563
 11
1055.822293889428
 21
11334.64846788563
  0
LINE
  5
163
100
AcDbEntity
  8
1
  6
DOTTED
 62
           1
100
AcDbLine
 10
1080.822293889428
 20
11337.64846788563
 11
1091.846075634018
 21
11337.64846788563
  0
LINE
  5
162
100
AcDbEntity
  8
1
  6
CONTINUOUS
 62
           3
100
AcDbLine
 10
1080.822293889428
 20
11337.64846788563
 11
1080.822293889428
 21
11334.64846788563
  0
LINE
  5
161
100
AcDbEntity
  8
1
  6
CONTINUOUS
 62
           3
100
AcDbLine
 10
1091.846075634018
 20
11337.64846788563
 11
1098.322293889428
 21
11337.64846788563
  0
LINE
  5
160
100
AcDbEntity
  8
1
  6
CONTINUOUS
 62
           3
100
AcDbLine
 10
1055.822293889428
 20
11337.64846788563
 11
1055.822293889428
 21
11344.64846788563
  0
LINE
  5
15F
100
AcDbEntity
  8
1
  6
DOTTED
 62
           1
100
AcDbLine
 10
1044.798512143906
 20
11337.64846788563
 11
1055.822293889428
 21
11337.64846788563
  0
LINE
  5
15E
100
AcDbEntity
  8
1
  6
CONTINUOUS
 62
           3
100
AcDbLine
 10
1055.822293889428
 20
11337.64846788563
 11
1080.822293889428
 21
11337.64846788563
  0
LINE
  5
15D
100
AcDbEntity
  8
1
  6
DOTTED
 62
           1
100
AcDbLine
 10
1041.322293889428
 20
11649.64846788563
 11
1041.322293889428
 21
11341.12468614011
  0
LINE
  5
15C
100
AcDbEntity
  8
1
  6
DOTTED
 62
           1
100
AcDbLine
 10
1095.322293889428
 20
11341.12468614011
 11
1095.322293889428
 21
11649.64846788563
  0
LINE
  5
15B
100
AcDbEntity
  8
1
  6
DOT_CENTER
 62
           1
100
AcDbLine
 10
1047.203257130972
 20
11376.64846788563
 11
1089.66395141021
 21
11376.64846788563
  0
LINE
  5
15A
100
AcDbEntity
  8
1
  6
DOT_CENTER
 62
           1
100
AcDbLine
 10
1048.080396648374
 20
11419.64846788563
 11
1087.8391716
 21
11419.64846788563
  0
LINE
  5
159
100
AcDbEntity
  8
1
  6
DOT_CENTER
 62
           1
100
AcDbLine
 10
1048.080396648374
 20
11447.14846788563
 11
1087.8391716
 21
11447.14846788563
  0
LINE
  5
158
100
AcDbEntity
  8
1
  6
DOT_CENTER
 62
           1
100
AcDbLine
 10
1048.080396648374
 20
11474.64846788563
 11
1087.8391716
 21
11474.64846788563
  0
LINE
  5
157
100
AcDbEntity
  8
1
  6
DOT_CENTER
 62
           1
100
AcDbLine
 10
1048.080396648374
 20
11502.14846788563
 11
1087.8391716
 21
11502.14846788563
  0
LINE
  5
156
100
AcDbEntity
  8
1
  6
DOT_CENTER
 62
           1
100
AcDbLine
 10
1048.080396648374
 20
11612.14846788563
 11
1087.8391716
 21
11612.14846788563
  0
LINE
  5
155
100
AcDbEntity
  8
1
  6
DOT_CENTER
 62
           1
100
AcDbLine
 10
1048.080396648374
 20
11639.64846788563
 11
1087.8391716
 21
11639.64846788563
  0
LINE
  5
154
100
AcDbEntity
  8
1
  6
DOT_CENTER
 62
           1
100
AcDbLine
 10
1053.322293889428
 20
11652.555836105201
 11
1053.322293889428
 21
11410.197975712441
  0
LINE
  5
153
100
AcDbEntity
  8
1
  6
DOT_CENTER
 62
           1
100
AcDbLine
 10
1010.822293889428
 20
11344.64846788563
 11
1010.822293889428
 21
11330.34714941635
  0
LINE
  5
152
100
AcDbEntity
  8
1
  6
DOTTED
 62
           1
100
AcDbLine
 10
1007.072293889428
 20
11334.64846788563
 11
1007.072293889428
 21
11337.64846788563
  0
LINE
  5
151
100
AcDbEntity
  8
1
  6
DOTTED
 62
           1
100
AcDbLine
 10
1014.572293889428
 20
11334.64846788563
 11
1014.572293889428
 21
11337.64846788563
  0
LINE
  5
150
100
AcDbEntity
  8
1
  6
DOTTED
 62
           1
100
AcDbLine
 10
1122.072293889428
 20
11337.64846788563
 11
1122.072293889428
 21
11334.64846788563
  0
LINE
  5
14F
100
AcDbEntity
  8
1
  6
DOTTED
 62
           1
100
AcDbLine
 10
1129.572293889428
 20
11337.64846788563
 11
1129.572293889428
 21
11334.64846788563
  0
LINE
  5
14E
100
AcDbEntity
  8
1
  6
DOT_CENTER
 62
           1
100
AcDbLine
 10
1125.822293889428
 20
11330.34714941635
 11
1125.822293889428
 21
11344.64846788563
  0
LINE
  5
14D
100
AcDbEntity
  8
1
  6
DOTTED
 62
           1
100
AcDbLine
 10
1072.072293889428
 20
11337.64846788563
 11
1072.072293889428
 21
11334.64846788563
  0
LINE
  5
14C
100
AcDbEntity
  8
1
  6
DOTTED
 62
           1
100
AcDbLine
 10
1064.572293889428
 20
11337.64846788563
 11
1064.572293889428
 21
11334.64846788563
  0
LINE
  5
14B
100
AcDbEntity
  8
1
  6
CONTINUOUS
 62
           3
100
AcDbLine
 10
866.900664182922
 20
11334.64846788563
 11
772.900664182922
 21
11334.64846788563
  0
LINE
  5
14A
100
AcDbEntity
  8
1
  6
CONTINUOUS
 62
           3
100
AcDbLine
 10
772.900664182922
 20
11334.64846788563
 11
772.900664182922
 21
11337.64846788563
  0
LINE
  5
149
100
AcDbEntity
  8
1
  6
CONTINUOUS
 62
           3
100
AcDbLine
 10
862.900664182922
 20
11337.64846788563
 11
862.900664182922
 21
11334.64846788563
  0
LINE
  5
148
100
AcDbEntity
  8
1
  6
CONTINUOUS
 62
           3
100
AcDbLine
 10
869.900664182922
 20
11334.64846788563
 11
866.900664182922
 21
11334.64846788563
  0
LINE
  5
147
100
AcDbEntity
  8
1
  6
CONTINUOUS
 62
           3
100
AcDbLine
 10
869.900664182922
 20
11649.64846788563
 11
872.900664182922
 21
11649.64846788563
  0
LINE
  5
146
100
AcDbEntity
  8
1
  6
CONTINUOUS
 62
           3
100
AcDbLine
 10
869.900664182922
 20
11340.406513389071
 11
869.900664182922
 21
11337.64846788563
  0
LINE
  5
145
100
AcDbEntity
  8
1
  6
DOTTED
 62
           1
100
AcDbLine
 10
869.900664182922
 20
11649.64846788563
 11
869.900664182922
 21
11340.406513389071
  0
LINE
  5
144
100
AcDbEntity
  8
1
  6
CONTINUOUS
 62
           3
100
AcDbLine
 10
862.900664182922
 20
11644.64846788563
 11
862.900664182922
 21
11594.64846788563
  0
LINE
  5
143
100
AcDbEntity
  8
1
  6
CONTINUOUS
 62
           3
100
AcDbLine
 10
830.900664182922
 20
11337.64846788563
 11
872.900664182922
 21
11337.64846788563
  0
LINE
  5
142
100
AcDbEntity
  8
1
  6
CONTINUOUS
 62
           3
100
AcDbLine
 10
867.900664182922
 20
11649.64846788563
 11
869.900664182922
 21
11649.64846788563
  0
LINE
  5
141
100
AcDbEntity
  8
1
  6
DOT_CENTER
 62
           1
100
AcDbLine
 10
787.900664182922
 20
11327.850701295651
 11
787.900664182922
 21
11352.067564991779
  0
LINE
  5
140
100
AcDbEntity
  8
1
  6
CONTINUOUS
 62
           3
100
AcDbLine
 10
830.900664182922
 20
11346.64846788563
 11
862.900664182922
 21
11389.64846788563
  0
LINE
  5
13F
100
AcDbEntity
  8
1
  6
CONTINUOUS
 62
           3
100
AcDbLine
 10
830.900664182922
 20
11337.64846788563
 11
830.900664182922
 21
11346.64846788563
  0
LINE
  5
13E
100
AcDbEntity
  8
1
  6
CONTINUOUS
 62
           3
100
AcDbLine
 10
772.900664182922
 20
11337.64846788563
 11
830.900664182922
 21
11337.64846788563
  0
LINE
  5
13D
100
AcDbEntity
  8
1
  6
DOT_CENTER
 62
           1
100
AcDbLine
 10
842.900664182922
 20
11327.850701295651
 11
842.900664182922
 21
11352.067564991779
  0
LINE
  5
13C
100
AcDbEntity
  8
1
  6
DOTTED
 62
           1
100
AcDbLine
 10
839.150664182922
 20
11334.64846788563
 11
839.150664182922
 21
11337.64846788563
  0
LINE
  5
13B
100
AcDbEntity
  8
1
  6
DOTTED
 62
           1
100
AcDbLine
 10
846.650664182922
 20
11334.64846788563
 11
846.650664182922
 21
11337.64846788563
  0
LINE
  5
13A
100
AcDbEntity
  8
1
  6
DOTTED
 62
           1
100
AcDbLine
 10
791.650664182922
 20
11334.64846788563
 11
791.650664182922
 21
11337.64846788563
  0
LINE
  5
139
100
AcDbEntity
  8
1
  6
DOTTED
 62
           1
100
AcDbLine
 10
784.150664182922
 20
11334.64846788563
 11
784.150664182922
 21
11337.64846788563
  0
LINE
  5
138
100
AcDbEntity
  8
1
  6
DOTTED
 62
           1
100
AcDbLine
 10
869.900664182922
 20
11361.64846788563
 11
872.900664182922
 21
11361.64846788563
  0
LINE
  5
137
100
AcDbEntity
  8
1
  6
DOTTED
 62
           1
100
AcDbLine
 10
869.900664182922
 20
11391.64846788563
 11
872.900664182922
 21
11391.64846788563
  0
LINE
  5
136
100
AcDbEntity
  8
1
  6
DOTTED
 62
           1
100
AcDbLine
 10
869.900664182922
 20
11417.14846788563
 11
872.900664182922
 21
11417.14846788563
  0
LINE
  5
135
100
AcDbEntity
  8
1
  6
DOTTED
 62
           1
100
AcDbLine
 10
869.900664182922
 20
11422.14846788563
 11
872.900664182922
 21
11422.14846788563
  0
LINE
  5
134
100
AcDbEntity
  8
1
  6
DOT_CENTER
 62
           1
100
AcDbLine
 10
865.972178802051
 20
11419.64846788563
 11
878.592178802051
 21
11419.64846788563
  0
LINE
  5
133
100
AcDbEntity
  8
1
  6
DOT_CENTER
 62
           1
100
AcDbLine
 10
858.99675339418
 20
11376.64846788563
 11
881.60675339418
 21
11376.64846788563
  0
LINE
  5
132
100
AcDbEntity
  8
1
  6
DOT_CENTER
 62
           1
100
AcDbLine
 10
865.972178802051
 20
11447.14846788563
 11
878.592178802051
 21
11447.14846788563
  0
LINE
  5
131
100
AcDbEntity
  8
1
  6
DOTTED
 62
           1
100
AcDbLine
 10
869.900664182922
 20
11449.64846788563
 11
872.900664182922
 21
11449.64846788563
  0
LINE
  5
130
100
AcDbEntity
  8
1
  6
DOTTED
 62
           1
100
AcDbLine
 10
869.900664182922
 20
11444.64846788563
 11
872.900664182922
 21
11444.64846788563
  0
LINE
  5
12F
100
AcDbEntity
  8
1
  6
DOT_CENTER
 62
           1
100
AcDbLine
 10
865.972178802051
 20
11474.64846788563
 11
878.592178802051
 21
11474.64846788563
  0
LINE
  5
12E
100
AcDbEntity
  8
1
  6
DOTTED
 62
           1
100
AcDbLine
 10
869.900664182922
 20
11477.14846788563
 11
872.900664182922
 21
11477.14846788563
  0
LINE
  5
12D
100
AcDbEntity
  8
1
  6
DOTTED
 62
           1
100
AcDbLine
 10
869.900664182922
 20
11472.14846788563
 11
872.900664182922
 21
11472.14846788563
  0
LINE
  5
12C
100
AcDbEntity
  8
1
  6
DOT_CENTER
 62
           1
100
AcDbLine
 10
865.972178802051
 20
11502.14846788563
 11
878.592178802051
 21
11502.14846788563
  0
LINE
  5
12B
100
AcDbEntity
  8
1
  6
DOTTED
 62
           1
100
AcDbLine
 10
869.900664182922
 20
11504.64846788563
 11
872.900664182922
 21
11504.64846788563
  0
LINE
  5
12A
100
AcDbEntity
  8
1
  6
DOTTED
 62
           1
100
AcDbLine
 10
869.900664182922
 20
11499.64846788563
 11
872.900664182922
 21
11499.64846788563
  0
LINE
  5
129
100
AcDbEntity
  8
1
  6
DOT_CENTER
 62
           1
100
AcDbLine
 10
865.972178802051
 20
11529.64846788563
 11
884.606023424364
 21
11529.64846788563
  0
LINE
  5
128
100
AcDbEntity
  8
1
  6
DOTTED
 62
           1
100
AcDbLine
 10
869.900664182922
 20
11532.14846788563
 11
872.900664182922
 21
11532.14846788563
  0
LINE
  5
127
100
AcDbEntity
  8
1
  6
DOTTED
 62
           1
100
AcDbLine
 10
869.900664182922
 20
11527.14846788563
 11
872.900664182922
 21
11527.14846788563
  0
LINE
  5
126
100
AcDbEntity
  8
1
  6
DOTTED
 62
           1
100
AcDbLine
 10
869.900664182922
 20
11559.64846788563
 11
872.900664182922
 21
11559.64846788563
  0
LINE
  5
125
100
AcDbEntity
  8
1
  6
DOTTED
 62
           1
100
AcDbLine
 10
869.900664182922
 20
11554.64846788563
 11
872.900664182922
 21
11554.64846788563
  0
LINE
  5
124
100
AcDbEntity
  8
1
  6
DOT_CENTER
 62
           1
100
AcDbLine
 10
865.972178802051
 20
11584.64846788563
 11
884.606023424364
 21
11584.64846788563
  0
LINE
  5
123
100
AcDbEntity
  8
1
  6
DOTTED
 62
           1
100
AcDbLine
 10
869.900664182922
 20
11587.14846788563
 11
872.900664182922
 21
11587.14846788563
  0
LINE
  5
122
100
AcDbEntity
  8
1
  6
DOTTED
 62
           1
100
AcDbLine
 10
869.900664182922
 20
11582.14846788563
 11
872.900664182922
 21
11582.14846788563
  0
LINE
  5
121
100
AcDbEntity
  8
1
  6
DOT_CENTER
 62
           1
100
AcDbLine
 10
865.972178802051
 20
11612.14846788563
 11
878.592178802051
 21
11612.14846788563
  0
LINE
  5
120
100
AcDbEntity
  8
1
  6
DOTTED
 62
           1
100
AcDbLine
 10
869.900664182922
 20
11614.64846788563
 11
872.900664182922
 21
11614.64846788563
  0
LINE
  5
11F
100
AcDbEntity
  8
1
  6
DOTTED
 62
           1
100
AcDbLine
 10
869.900664182922
 20
11609.64846788563
 11
872.900664182922
 21
11609.64846788563
  0
LINE
  5
11E
100
AcDbEntity
  8
1
  6
DOT_CENTER
 62
           1
100
AcDbLine
 10
865.972178802051
 20
11639.64846788563
 11
878.592178802051
 21
11639.64846788563
  0
LINE
  5
11D
100
AcDbEntity
  8
1
  6
DOTTED
 62
           1
100
AcDbLine
 10
869.900664182922
 20
11642.14846788563
 11
872.900664182922
 21
11642.14846788563
  0
LINE
  5
11C
100
AcDbEntity
  8
1
  6
DOTTED
 62
           1
100
AcDbLine
 10
869.900664182922
 20
11637.14846788563
 11
872.900664182922
 21
11637.14846788563
  0
LINE
  5
11B
100
AcDbEntity
  8
1
  6
CONTINUOUS
 62
           3
100
AcDbLine
 10
824.900664182922
 20
11795.969985875719
 11
824.900664182922
 21
11798.969985875719
  0
LINE
  5
11A
100
AcDbEntity
  8
1
  6
CONTINUOUS
 62
           3
100
AcDbLine
 10
824.900664182922
 20
11738.969985875719
 11
824.900664182922
 21
11741.969985875719
  0
LINE
  5
119
100
AcDbEntity
  8
1
  6
CONTINUOUS
 62
           3
100
AcDbLine
 10
862.900664182922
 20
11738.969985875719
 11
824.900664182922
 21
11738.969985875719
  0
LINE
  5
118
100
AcDbEntity
  8
1
  6
CONTINUOUS
 62
           3
100
AcDbLine
 10
862.900664182922
 20
11798.969985875719
 11
869.900664182922
 21
11798.969985875719
  0
LINE
  5
117
100
AcDbEntity
  8
1
  6
CONTINUOUS
 62
           3
100
AcDbLine
 10
862.900664182922
 20
11835.969985875719
 11
862.900664182922
 21
11798.969985875719
  0
LINE
  5
116
100
AcDbEntity
  8
1
  6
CONTINUOUS
 62
           3
100
AcDbLine
 10
862.900664182922
 20
11738.969985875719
 11
862.900664182922
 21
11701.969985875719
  0
LINE
  5
115
100
AcDbEntity
  8
1
  6
CONTINUOUS
 62
           3
100
AcDbLine
 10
859.900664182922
 20
11795.969985875719
 11
859.900664182922
 21
11798.969985875719
  0
LINE
  5
114
100
AcDbEntity
  8
1
  6
CONTINUOUS
 62
           3
100
AcDbLine
 10
869.900664182922
 20
11741.969985875719
 11
824.900664182922
 21
11741.969985875719
  0
LINE
  5
113
100
AcDbEntity
  8
1
  6
CONTINUOUS
 62
           3
100
AcDbLine
 10
869.900664182922
 20
11795.969985875719
 11
869.900664182922
 21
11781.469985875719
  0
LINE
  5
112
100
AcDbEntity
  8
1
  6
CONTINUOUS
 62
           3
100
AcDbLine
 10
824.900664182922
 20
11795.969985875719
 11
869.900664182922
 21
11795.969985875719
  0
LINE
  5
111
100
AcDbEntity
  8
1
  6
CONTINUOUS
 62
           3
100
AcDbLine
 10
869.900664182922
 20
11738.969985875719
 11
862.900664182922
 21
11738.969985875719
  0
LINE
  5
110
100
AcDbEntity
  8
1
  6
CONTINUOUS
 62
           3
100
AcDbLine
 10
872.900664182922
 20
11795.969985875719
 11
872.900664182922
 21
11741.969985875719
  0
LINE
  5
10F
100
AcDbEntity
  8
1
  6
CONTINUOUS
 62
           3
100
AcDbLine
 10
824.900664182922
 20
11798.969985875719
 11
862.900664182922
 21
11798.969985875719
  0
LINE
  5
10E
100
AcDbEntity
  8
1
  6
CONTINUOUS
 62
           3
100
AcDbLine
 10
859.900664182922
 20
11738.969985875719
 11
859.900664182922
 21
11741.969985875719
  0
LINE
  5
10D
100
AcDbEntity
  8
1
  6
DOT_CENTER
 62
           1
100
AcDbLine
 10
779.149596548541
 20
11826.469985875719
 11
851.084192920352
 21
11826.469985875719
  0
LINE
  5
10C
100
AcDbEntity
  8
1
  6
DOT_CENTER
 62
           1
100
AcDbLine
 10
779.149596548541
 20
11711.469985875719
 11
851.084192920352
 21
11711.469985875719
  0
LINE
  5
10B
100
AcDbEntity
  8
1
  6
DOT_CENTER
 62
           1
100
AcDbLine
 10
842.900664182922
 20
11702.05108174829
 11
842.900664182922
 21
11835.54933575119
  0
LINE
  5
10A
100
AcDbEntity
  8
1
  6
DOT_CENTER
 62
           1
100
AcDbLine
 10
787.900664182922
 20
11702.71305656153
 11
787.900664182922
 21
11835.328677480111
  0
LINE
  5
109
100
AcDbEntity
  8
1
  6
CONTINUOUS
 62
           3
100
AcDbLine
 10
857.900664182922
 20
11696.969985875719
 11
777.900664182922
 21
11696.969985875719
  0
LINE
  5
108
100
AcDbEntity
  8
1
  6
CONTINUOUS
 62
           3
100
AcDbLine
 10
777.900664182922
 20
11840.969985875719
 11
857.900664182922
 21
11840.969985875719
  0
LINE
  5
107
100
AcDbEntity
  8
1
  6
CONTINUOUS
 62
           3
100
AcDbLine
 10
772.900664182922
 20
11701.969985875719
 11
772.900664182922
 21
11757.969985875719
  0
LINE
  5
106
100
AcDbEntity
  8
1
  6
DOTTED
 62
           1
100
AcDbLine
 10
862.900664182922
 20
11781.469985875719
 11
862.900664182922
 21
11756.469985875719
  0
LINE
  5
105
100
AcDbEntity
  8
1
  6
DOTTED
 62
           1
100
AcDbLine
 10
869.900664182922
 20
11756.469985875719
 11
862.900664182922
 21
11756.469985875719
  0
LINE
  5
104
100
AcDbEntity
  8
1
  6
DOTTED
 62
           1
100
AcDbLine
 10
869.900664182922
 20
11781.469985875719
 11
862.900664182922
 21
11781.469985875719
  0
LINE
  5
103
100
AcDbEntity
  8
1
  6
CONTINUOUS
 62
           3
100
AcDbLine
 10
772.900664182922
 20
11779.969985875719
 11
772.900664182922
 21
11835.969985875719
  0
LINE
  5
102
100
AcDbEntity
  8
1
  6
DOT_CENTER
 62
           1
100
AcDbLine
 10
1004.322293889428
 20
11557.14846788563
 11
1136.062890761464
 21
11557.14846788563
  0
LINE
  5
101
100
AcDbEntity
  8
1
  6
DOTTED
 62
           1
100
AcDbLine
 10
483.955336135129
 20
11337.64846788563
 11
483.955336135129
 21
11334.64846788563
  0
LINE
  5
100
100
AcDbEntity
  8
1
  6
DOTTED
 62
           1
100
AcDbLine
 10
491.455336135129
 20
11337.64846788563
 11
491.455336135129
 21
11334.64846788563
  0
LINE
  5
FF
100
AcDbEntity
  8
1
  6
DOT_CENTER
 62
           1
100
AcDbLine
 10
545.205336135128
 20
11330.34714941635
 11
545.205336135128
 21
11344.64846788563
  0
LINE
  5
FE
100
AcDbEntity
  8
1
  6
DOTTED
 62
           1
100
AcDbLine
 10
548.955336135128
 20
11337.64846788563
 11
548.955336135128
 21
11334.64846788563
  0
LINE
  5
FD
100
AcDbEntity
  8
1
  6
DOTTED
 62
           1
100
AcDbLine
 10
541.455336135128
 20
11337.64846788563
 11
541.455336135128
 21
11334.64846788563
  0
LINE
  5
FC
100
AcDbEntity
  8
1
  6
DOTTED
 62
           1
100
AcDbLine
 10
433.955336135129
 20
11334.64846788563
 11
433.955336135129
 21
11337.64846788563
  0
LINE
  5
FB
100
AcDbEntity
  8
1
  6
DOTTED
 62
           1
100
AcDbLine
 10
426.455336135129
 20
11334.64846788563
 11
426.455336135129
 21
11337.64846788563
  0
LINE
  5
FA
100
AcDbEntity
  8
1
  6
DOT_CENTER
 62
           1
100
AcDbLine
 10
430.205336135129
 20
11344.64846788563
 11
430.205336135129
 21
11330.34714941635
  0
LINE
  5
F9
100
AcDbEntity
  8
1
  6
DOT_CENTER
 62
           1
100
AcDbLine
 10
502.705336135129
 20
11410.197975712441
 11
502.705336135129
 21
11652.555836105201
  0
LINE
  5
F8
100
AcDbEntity
  8
1
  6
DOT_CENTER
 62
           1
100
AcDbLine
 10
472.705336135129
 20
11652.555836105201
 11
472.705336135129
 21
11410.197975712441
  0
LINE
  5
F7
100
AcDbEntity
  8
1
  6
DOT_CENTER
 62
           1
100
AcDbLine
 10
467.463438894075
 20
11639.64846788563
 11
507.222213845701
 21
11639.64846788563
  0
LINE
  5
F6
100
AcDbEntity
  8
1
  6
DOT_CENTER
 62
           1
100
AcDbLine
 10
467.463438894075
 20
11474.64846788563
 11
507.222213845701
 21
11474.64846788563
  0
LINE
  5
F5
100
AcDbEntity
  8
1
  6
DOT_CENTER
 62
           1
100
AcDbLine
 10
467.463438894075
 20
11447.14846788563
 11
507.222213845701
 21
11447.14846788563
  0
LINE
  5
F4
100
AcDbEntity
  8
1
  6
DOT_CENTER
 62
           1
100
AcDbLine
 10
467.463438894075
 20
11419.64846788563
 11
507.222213845701
 21
11419.64846788563
  0
LINE
  5
F3
100
AcDbEntity
  8
1
  6
DOT_CENTER
 62
           1
100
AcDbLine
 10
466.586299376673
 20
11376.64846788563
 11
509.046993655911
 21
11376.64846788563
  0
LINE
  5
F2
100
AcDbEntity
  8
1
  6
CONTINUOUS
 62
           3
100
AcDbLine
 10
514.705336135129
 20
11341.12468614011
 11
514.705336135129
 21
11510.77886488376
  0
LINE
  5
F1
100
AcDbEntity
  8
1
  6
CONTINUOUS
 62
           3
100
AcDbLine
 10
475.205336135129
 20
11337.64846788563
 11
500.205336135129
 21
11337.64846788563
  0
LINE
  5
F0
100
AcDbEntity
  8
1
  6
CONTINUOUS
 62
           3
100
AcDbLine
 10
475.205336135129
 20
11337.64846788563
 11
475.205336135129
 21
11344.64846788563
  0
LINE
  5
EF
100
AcDbEntity
  8
1
  6
CONTINUOUS
 62
           3
100
AcDbLine
 10
500.205336135129
 20
11337.64846788563
 11
500.205336135129
 21
11334.64846788563
  0
LINE
  5
EE
100
AcDbEntity
  8
1
  6
CONTINUOUS
 62
           3
100
AcDbLine
 10
500.205336135129
 20
11334.64846788563
 11
475.205336135129
 21
11334.64846788563
  0
LINE
  5
ED
100
AcDbEntity
  8
1
  6
CONTINUOUS
 62
           3
100
AcDbLine
 10
500.205336135129
 20
11344.64846788563
 11
500.205336135129
 21
11337.64846788563
  0
LINE
  5
EC
100
AcDbEntity
  8
1
  6
CONTINUOUS
 62
           3
100
AcDbLine
 10
475.205336135129
 20
11344.64846788563
 11
500.205336135129
 21
11344.64846788563
  0
LINE
  5
EB
100
AcDbEntity
  8
1
  6
CONTINUOUS
 62
           3
100
AcDbLine
 10
475.205336135129
 20
11334.64846788563
 11
463.705336135129
 21
11334.64846788563
  0
LINE
  5
EA
100
AcDbEntity
  8
1
  6
CONTINUOUS
 62
           3
100
AcDbLine
 10
475.205336135129
 20
11334.64846788563
 11
475.205336135129
 21
11337.64846788563
  0
LINE
  5
E9
100
AcDbEntity
  8
1
  6
CONTINUOUS
 62
           3
100
AcDbLine
 10
463.705336135129
 20
11334.64846788563
 11
460.705336135129
 21
11334.64846788563
  0
LINE
  5
E8
100
AcDbEntity
  8
1
  6
CONTINUOUS
 62
           3
100
AcDbLine
 10
511.705336135129
 20
11334.64846788563
 11
500.205336135129
 21
11334.64846788563
  0
LINE
  5
E7
100
AcDbEntity
  8
1
  6
CONTINUOUS
 62
           3
100
AcDbLine
 10
460.705336135129
 20
11341.12468614011
 11
460.705336135129
 21
11334.64846788563
  0
LINE
  5
E6
100
AcDbEntity
  8
1
  6
CONTINUOUS
 62
           3
100
AcDbLine
 10
514.705336135129
 20
11341.12468614011
 11
514.705336135129
 21
11334.64846788563
  0
LINE
  5
E5
100
AcDbEntity
  8
1
  6
CONTINUOUS
 62
           3
100
AcDbLine
 10
514.705336135129
 20
11334.64846788563
 11
511.705336135129
 21
11334.64846788563
  0
LINE
  5
E4
100
AcDbEntity
  8
1
  6
CONTINUOUS
 62
           3
100
AcDbLine
 10
460.705336135129
 20
11334.64846788563
 11
457.705336135129
 21
11334.64846788563
  0
LINE
  5
E3
100
AcDbEntity
  8
1
  6
CONTINUOUS
 62
           3
100
AcDbLine
 10
517.705336135129
 20
11334.64846788563
 11
514.705336135129
 21
11334.64846788563
  0
LINE
  5
E2
100
AcDbEntity
  8
1
  6
CONTINUOUS
 62
           3
100
AcDbLine
 10
457.705336135129
 20
11334.64846788563
 11
415.705336135129
 21
11334.64846788563
  0
LINE
  5
E1
100
AcDbEntity
  8
1
  6
CONTINUOUS
 62
           3
100
AcDbLine
 10
517.705336135129
 20
11649.64846788563
 11
514.705336135129
 21
11649.64846788563
  0
LINE
  5
E0
100
AcDbEntity
  8
1
  6
CONTINUOUS
 62
           3
100
AcDbLine
 10
517.705336135129
 20
11337.64846788563
 11
517.705336135129
 21
11508.72446038095
  0
LINE
  5
DF
100
AcDbEntity
  8
1
  6
CONTINUOUS
 62
           3
100
AcDbLine
 10
415.705336135129
 20
11334.64846788563
 11
415.705336135129
 21
11337.64846788563
  0
LINE
  5
DE
100
AcDbEntity
  8
1
  6
CONTINUOUS
 62
           3
100
AcDbLine
 10
559.705336135129
 20
11334.64846788563
 11
517.705336135129
 21
11334.64846788563
  0
LINE
  5
DD
100
AcDbEntity
  8
1
  6
CONTINUOUS
 62
           3
100
AcDbLine
 10
559.705336135129
 20
11337.64846788563
 11
559.705336135129
 21
11334.64846788563
  0
LINE
  5
DC
100
AcDbEntity
  8
1
  6
CONTINUOUS
 62
           3
100
AcDbLine
 10
415.705336135129
 20
11337.64846788563
 11
464.181554389607
 21
11337.64846788563
  0
LINE
  5
DB
100
AcDbEntity
  8
1
  6
CONTINUOUS
 62
           3
100
AcDbLine
 10
511.229117879719
 20
11337.64846788563
 11
559.705336135129
 21
11337.64846788563
  0
LINE
  5
DA
100
AcDbEntity
  8
1
  6
CONTINUOUS
 62
           3
100
AcDbLine
 10
464.181554389607
 20
11337.64846788563
 11
511.229117879719
 21
11337.64846788563
  0
LINE
  5
D9
100
AcDbEntity
  8
1
  6
CONTINUOUS
 62
           3
100
AcDbLine
 10
1082.822293889428
 20
11586.64846788563
 11
1083.822293889428
 21
11586.64846788563
  0
LINE
  5
D8
100
AcDbEntity
  8
1
  6
CONTINUOUS
 62
           3
100
AcDbLine
 10
1083.822293889428
 20
11586.64846788563
 11
1083.822293889428
 21
11585.64846788563
  0
LINE
  5
D7
100
AcDbEntity
  8
1
  6
CONTINUOUS
 62
           3
100
AcDbLine
 10
1083.822293889428
 20
11582.64846788563
 11
1082.822293889428
 21
11582.64846788563
  0
LINE
  5
D6
100
AcDbEntity
  8
1
  6
CONTINUOUS
 62
           3
100
AcDbLine
 10
1082.822293889428
 20
11582.64846788563
 11
1082.822293889428
 21
11583.64846788563
  0
LINE
  5
D5
100
AcDbEntity
  8
1
  6
CONTINUOUS
 62
           3
100
AcDbLine
 10
1081.322293889428
 20
11585.14846788563
 11
1082.322293889428
 21
11585.14846788563
  0
LINE
  5
D4
100
AcDbEntity
  8
1
  6
CONTINUOUS
 62
           3
100
AcDbLine
 10
1085.322293889428
 20
11585.14846788563
 11
1085.322293889428
 21
11584.14846788563
  0
LINE
  5
D3
100
AcDbEntity
  8
1
  6
CONTINUOUS
 62
           3
100
AcDbLine
 10
1085.322293889428
 20
11584.14846788563
 11
1084.322293889428
 21
11584.14846788563
  0
LINE
  5
D2
100
AcDbEntity
  8
1
  6
CONTINUOUS
 62
           3
100
AcDbLine
 10
1081.322293889428
 20
11584.14846788563
 11
1081.322293889428
 21
11585.14846788563
  0
LINE
  5
D1
100
AcDbEntity
  8
1
  6
CONTINUOUS
 62
           3
100
AcDbLine
 10
1082.822293889428
 20
11585.64846788563
 11
1082.822293889428
 21
11586.64846788563
  0
LINE
  5
D0
100
AcDbEntity
  8
1
  6
CONTINUOUS
 62
           3
100
AcDbLine
 10
1084.322293889428
 20
11585.14846788563
 11
1085.322293889428
 21
11585.14846788563
  0
LINE
  5
CF
100
AcDbEntity
  8
1
  6
CONTINUOUS
 62
           3
100
AcDbLine
 10
1082.322293889428
 20
11584.14846788563
 11
1081.322293889428
 21
11584.14846788563
  0
LINE
  5
CE
100
AcDbEntity
  8
1
  6
CONTINUOUS
 62
           3
100
AcDbLine
 10
1083.822293889428
 20
11583.64846788563
 11
1083.822293889428
 21
11582.64846788563
  0
LINE
  5
CD
100
AcDbEntity
  8
1
  6
CONTINUOUS
 62
           3
100
AcDbLine
 10
1052.822293889428
 20
11582.64846788563
 11
1052.822293889428
 21
11583.64846788563
  0
LINE
  5
CC
100
AcDbEntity
  8
1
  6
CONTINUOUS
 62
           3
100
AcDbLine
 10
1055.322293889428
 20
11584.14846788563
 11
1054.322293889428
 21
11584.14846788563
  0
LINE
  5
CB
100
AcDbEntity
  8
1
  6
CONTINUOUS
 62
           3
100
AcDbLine
 10
1051.322293889428
 20
11585.14846788563
 11
1052.322293889428
 21
11585.14846788563
  0
LINE
  5
CA
100
AcDbEntity
  8
1
  6
CONTINUOUS
 62
           3
100
AcDbLine
 10
1053.822293889428
 20
11586.64846788563
 11
1053.822293889428
 21
11585.64846788563
  0
LINE
  5
C9
100
AcDbEntity
  8
1
  6
CONTINUOUS
 62
           3
100
AcDbLine
 10
1055.322293889428
 20
11585.14846788563
 11
1055.322293889428
 21
11584.14846788563
  0
LINE
  5
C8
100
AcDbEntity
  8
1
  6
CONTINUOUS
 62
           3
100
AcDbLine
 10
1052.322293889428
 20
11584.14846788563
 11
1051.322293889428
 21
11584.14846788563
  0
LINE
  5
C7
100
AcDbEntity
  8
1
  6
CONTINUOUS
 62
           3
100
AcDbLine
 10
1051.322293889428
 20
11584.14846788563
 11
1051.322293889428
 21
11585.14846788563
  0
LINE
  5
C6
100
AcDbEntity
  8
1
  6
CONTINUOUS
 62
           3
100
AcDbLine
 10
1054.322293889428
 20
11585.14846788563
 11
1055.322293889428
 21
11585.14846788563
  0
LINE
  5
C5
100
AcDbEntity
  8
1
  6
CONTINUOUS
 62
           3
100
AcDbLine
 10
1053.822293889428
 20
11583.64846788563
 11
1053.822293889428
 21
11582.64846788563
  0
LINE
  5
C4
100
AcDbEntity
  8
1
  6
CONTINUOUS
 62
           3
100
AcDbLine
 10
1053.822293889428
 20
11582.64846788563
 11
1052.822293889428
 21
11582.64846788563
  0
LINE
  5
C3
100
AcDbEntity
  8
1
  6
CONTINUOUS
 62
           3
100
AcDbLine
 10
1052.822293889428
 20
11585.64846788563
 11
1052.822293889428
 21
11586.64846788563
  0
LINE
  5
C2
100
AcDbEntity
  8
1
  6
CONTINUOUS
 62
           3
100
AcDbLine
 10
1052.822293889428
 20
11586.64846788563
 11
1053.822293889428
 21
11586.64846788563
  0
LINE
  5
C1
100
AcDbEntity
  8
1
  6
CONTINUOUS
 62
           3
100
AcDbLine
 10
1053.822293889428
 20
11527.64846788563
 11
1052.822293889428
 21
11527.64846788563
  0
LINE
  5
C0
100
AcDbEntity
  8
1
  6
CONTINUOUS
 62
           3
100
AcDbLine
 10
1052.822293889428
 20
11527.64846788563
 11
1052.822293889428
 21
11528.64846788563
  0
LINE
  5
BF
100
AcDbEntity
  8
1
  6
CONTINUOUS
 62
           3
100
AcDbLine
 10
1052.822293889428
 20
11531.64846788563
 11
1053.822293889428
 21
11531.64846788563
  0
LINE
  5
BE
100
AcDbEntity
  8
1
  6
CONTINUOUS
 62
           3
100
AcDbLine
 10
1053.822293889428
 20
11531.64846788563
 11
1053.822293889428
 21
11530.64846788563
  0
LINE
  5
BD
100
AcDbEntity
  8
1
  6
CONTINUOUS
 62
           3
100
AcDbLine
 10
1055.322293889428
 20
11529.14846788563
 11
1054.322293889428
 21
11529.14846788563
  0
LINE
  5
BC
100
AcDbEntity
  8
1
  6
CONTINUOUS
 62
           3
100
AcDbLine
 10
1051.322293889428
 20
11529.14846788563
 11
1051.322293889428
 21
11530.14846788563
  0
LINE
  5
BB
100
AcDbEntity
  8
1
  6
CONTINUOUS
 62
           3
100
AcDbLine
 10
1051.322293889428
 20
11530.14846788563
 11
1052.322293889428
 21
11530.14846788563
  0
LINE
  5
BA
100
AcDbEntity
  8
1
  6
CONTINUOUS
 62
           3
100
AcDbLine
 10
1055.322293889428
 20
11530.14846788563
 11
1055.322293889428
 21
11529.14846788563
  0
LINE
  5
B9
100
AcDbEntity
  8
1
  6
CONTINUOUS
 62
           3
100
AcDbLine
 10
1053.822293889428
 20
11528.64846788563
 11
1053.822293889428
 21
11527.64846788563
  0
LINE
  5
B8
100
AcDbEntity
  8
1
  6
CONTINUOUS
 62
           3
100
AcDbLine
 10
1052.322293889428
 20
11529.14846788563
 11
1051.322293889428
 21
11529.14846788563
  0
LINE
  5
B7
100
AcDbEntity
  8
1
  6
CONTINUOUS
 62
           3
100
AcDbLine
 10
1054.322293889428
 20
11530.14846788563
 11
1055.322293889428
 21
11530.14846788563
  0
LINE
  5
B6
100
AcDbEntity
  8
1
  6
CONTINUOUS
 62
           3
100
AcDbLine
 10
1052.822293889428
 20
11530.64846788563
 11
1052.822293889428
 21
11531.64846788563
  0
LINE
  5
B5
100
AcDbEntity
  8
1
  6
CONTINUOUS
 62
           3
100
AcDbLine
 10
1083.822293889428
 20
11531.64846788563
 11
1083.822293889428
 21
11530.64846788563
  0
LINE
  5
B4
100
AcDbEntity
  8
1
  6
CONTINUOUS
 62
           3
100
AcDbLine
 10
1081.322293889428
 20
11530.14846788563
 11
1082.322293889428
 21
11530.14846788563
  0
LINE
  5
B3
100
AcDbEntity
  8
1
  6
CONTINUOUS
 62
           3
100
AcDbLine
 10
1085.322293889428
 20
11529.14846788563
 11
1084.322293889428
 21
11529.14846788563
  0
LINE
  5
B2
100
AcDbEntity
  8
1
  6
CONTINUOUS
 62
           3
100
AcDbLine
 10
1082.822293889428
 20
11527.64846788563
 11
1082.822293889428
 21
11528.64846788563
  0
LINE
  5
B1
100
AcDbEntity
  8
1
  6
CONTINUOUS
 62
           3
100
AcDbLine
 10
1081.322293889428
 20
11529.14846788563
 11
1081.322293889428
 21
11530.14846788563
  0
LINE
  5
B0
100
AcDbEntity
  8
1
  6
CONTINUOUS
 62
           3
100
AcDbLine
 10
1084.322293889428
 20
11530.14846788563
 11
1085.322293889428
 21
11530.14846788563
  0
LINE
  5
AF
100
AcDbEntity
  8
1
  6
CONTINUOUS
 62
           3
100
AcDbLine
 10
1085.322293889428
 20
11530.14846788563
 11
1085.322293889428
 21
11529.14846788563
  0
LINE
  5
AE
100
AcDbEntity
  8
1
  6
CONTINUOUS
 62
           3
100
AcDbLine
 10
1082.322293889428
 20
11529.14846788563
 11
1081.322293889428
 21
11529.14846788563
  0
LINE
  5
AD
100
AcDbEntity
  8
1
  6
CONTINUOUS
 62
           3
100
AcDbLine
 10
1082.822293889428
 20
11530.64846788563
 11
1082.822293889428
 21
11531.64846788563
  0
LINE
  5
AC
100
AcDbEntity
  8
1
  6
CONTINUOUS
 62
           3
100
AcDbLine
 10
1082.822293889428
 20
11531.64846788563
 11
1083.822293889428
 21
11531.64846788563
  0
LINE
  5
AB
100
AcDbEntity
  8
1
  6
CONTINUOUS
 62
           3
100
AcDbLine
 10
1083.822293889428
 20
11528.64846788563
 11
1083.822293889428
 21
11527.64846788563
  0
LINE
  5
AA
100
AcDbEntity
  8
1
  6
CONTINUOUS
 62
           3
100
AcDbLine
 10
1083.822293889428
 20
11527.64846788563
 11
1082.822293889428
 21
11527.64846788563
  0
LINE
  5
A9
100
AcDbEntity
  8
1
  6
DOT_CENTER
 62
           1
100
AcDbLine
 10
1087.8391716
 20
11529.64846788563
 11
1048.080396648374
 21
11529.64846788563
  0
LINE
  5
A8
100
AcDbEntity
  8
1
  6
DOT_CENTER
 62
           1
100
AcDbLine
 10
1087.8391716
 20
11584.64846788563
 11
1048.080396648374
 21
11584.64846788563
  0
LINE
  5
A7
100
AcDbEntity
  8
1
  6
CONTINUOUS
 62
           3
100
AcDbLine
 10
872.900664182922
 20
11649.64846788563
 11
872.900664182922
 21
11337.64846788563
  0
LINE
  5
A6
100
AcDbEntity
  8
1
  6
CONTINUOUS
 62
           3
100
AcDbLine
 10
872.900664182922
 20
11589.64846788563
 11
873.400664182922
 21
11589.64846788563
  0
LINE
  5
A5
100
AcDbEntity
  8
1
  6
CONTINUOUS
 62
           3
100
AcDbLine
 10
872.900664182922
 20
11579.64846788563
 11
873.400664182922
 21
11579.64846788563
  0
LINE
  5
A4
100
AcDbEntity
  8
1
  6
CONTINUOUS
 62
           1
100
AcDbLine
 10
873.400664182922
 20
11589.64846788563
 11
873.400664182922
 21
11579.64846788563
  0
LINE
  5
A3
100
AcDbEntity
  8
1
  6
CONTINUOUS
 62
           1
100
AcDbLine
 10
873.400664182922
 20
11534.64846788563
 11
873.400664182922
 21
11524.64846788563
  0
LINE
  5
A2
100
AcDbEntity
  8
1
  6
CONTINUOUS
 62
           3
100
AcDbLine
 10
872.900664182922
 20
11524.64846788563
 11
873.400664182922
 21
11524.64846788563
  0
LINE
  5
A1
100
AcDbEntity
  8
1
  6
CONTINUOUS
 62
           3
100
AcDbLine
 10
872.900664182922
 20
11534.64846788563
 11
873.400664182922
 21
11534.64846788563
  0
LINE
  5
A0
100
AcDbEntity
  8
1
  6
CONTINUOUS
 62
           3
100
AcDbLine
 10
457.705336135129
 20
11649.64846788563
 11
457.705336135129
 21
11605.572475390311
  0
LINE
  5
9F
100
AcDbEntity
  8
1
  6
CONTINUOUS
 62
           3
100
AcDbLine
 10
460.705336135129
 20
11649.64846788563
 11
460.705336135129
 21
11603.5180708875
  0
LINE
  5
9E
100
AcDbEntity
  8
1
  6
DOT_CENTER
 62
           1
100
AcDbLine
 10
487.705336135129
 20
11656.673406836429
 11
487.705336135129
 21
11321.286426384821
  0
LINE
  5
9D
100
AcDbEntity
  8
1
  6
DOT_CENTER
 62
           1
100
AcDbLine
 10
1083.322293889428
 20
11410.197975712441
 11
1083.322293889428
 21
11652.555836105201
  0
LINE
  5
9C
100
AcDbEntity
  8
1
  6
CONTINUOUS
 62
           3
100
AcDbLine
 10
1095.322293889428
 20
11649.64846788563
 11
1038.322293889428
 21
11649.64846788563
  0
LINE
  5
9B
100
AcDbEntity
  8
1
  6
DOT_CENTER
 62
           1
100
AcDbLine
 10
869.900664182922
 20
11781.469985875719
 11
878.770664182922
 21
11781.469985875719
  0
LINE
  5
9A
100
AcDbEntity
  8
1
  6
CONTINUOUS
 62
           3
100
AcDbLine
 10
869.900664182922
 20
11781.469985875719
 11
869.900664182922
 21
11793.969985875719
  0
LINE
  5
99
100
AcDbEntity
  8
1
  6
CONTINUOUS
 62
           3
100
AcDbLine
 10
869.900664182922
 20
11781.469985875719
 11
869.900664182922
 21
11756.469985875719
  0
LINE
  5
98
100
AcDbEntity
  8
1
  6
DOT_CENTER
 62
           1
100
AcDbLine
 10
869.900664182922
 20
11756.469985875719
 11
877.860664182922
 21
11756.469985875719
  0
LINE
  5
97
100
AcDbEntity
  8
1
  6
CONTINUOUS
 62
           3
100
AcDbLine
 10
869.900664182922
 20
11756.469985875719
 11
869.900664182922
 21
11781.469985875719
  0
LINE
  5
96
100
AcDbEntity
  8
1
  6
CONTINUOUS
 62
           3
100
AcDbLine
 10
869.900664182922
 20
11756.469985875719
 11
869.900664182922
 21
11741.969985875719
  0
LINE
  5
95
100
AcDbEntity
  8
1
  6
DOT_CENTER
 62
           1
100
AcDbLine
 10
596.351997102826
 20
11768.969985875719
 11
885.66230096865
 21
11768.969985875719
  0
LINE
  5
94
100
AcDbEntity
  8
1
  6
DOT_CENTER
 62
           1
100
AcDbLine
 10
596.351997102826
 20
11557.14846788563
 11
891.760744516296
 21
11557.14846788563
  0
LINE
  5
93
100
AcDbEntity
  8
1
  6
CONTINUOUS
 62
           3
100
AcDbLine
 10
854.900664182922
 20
11759.969985875719
 11
848.900664182922
 21
11759.969985875719
  0
LINE
  5
92
100
AcDbEntity
  8
1
  6
DOT_CENTER
 62
           1
100
AcDbLine
 10
848.900664182922
 20
11784.57127055479
 11
848.900664182922
 21
11753.23127055479
  0
LINE
  5
91
100
AcDbEntity
  8
1
  6
CONTINUOUS
 62
           3
100
AcDbLine
 10
473.657414934247
 20
11594.64846788563
 11
501.753257336012
 21
11594.64846788563
  0
LINE
  5
90
100
AcDbEntity
  8
1
  6
CONTINUOUS
 62
           3
100
AcDbLine
 10
501.753257336012
 20
11594.64846788563
 11
493.355496042754
 21
11588.89766834751
  0
LINE
  5
8F
100
AcDbEntity
  8
1
  6
CONTINUOUS
 62
           3
100
AcDbLine
 10
473.657414934247
 20
11594.64846788563
 11
460.705336135129
 21
11603.5180708875
  0
LINE
  5
8E
100
AcDbEntity
  8
1
  6
CONTINUOUS
 62
           3
100
AcDbLine
 10
473.657414934248
 20
11519.64846788563
 11
501.753257336011
 21
11519.64846788563
  0
LINE
  5
8D
100
AcDbEntity
  8
1
  6
CONTINUOUS
 62
           3
100
AcDbLine
 10
473.657414934248
 20
11519.64846788563
 11
482.055176227504
 21
11525.399267423751
  0
LINE
  5
8C
100
AcDbEntity
  8
1
  6
CONTINUOUS
 62
           3
100
AcDbLine
 10
501.753257336011
 20
11519.64846788563
 11
514.705336135129
 21
11510.77886488376
  0
LINE
  5
8B
100
AcDbEntity
  8
1
  6
CONTINUOUS
 62
           3
100
AcDbLine
 10
839.902448656709
 20
11533.64846788563
 11
839.902448656709
 21
11545.19846788563
  0
LINE
  5
8A
100
AcDbEntity
  8
1
  6
CONTINUOUS
 62
           3
100
AcDbLine
 10
840.902448656708
 20
11532.64846788563
 11
855.900664182922
 21
11532.64846788563
  0
LINE
  5
89
100
AcDbEntity
  8
1
  6
CONTINUOUS
 62
           3
100
AcDbLine
 10
839.900664182922
 20
11546.19846788563
 11
857.902448656709
 21
11546.19846788563
  0
LINE
  5
88
100
AcDbEntity
  8
1
  6
CONTINUOUS
 62
           3
100
AcDbLine
 10
840.902448656708
 20
11581.64846788563
 11
855.900664182922
 21
11581.64846788563
  0
LINE
  5
87
100
AcDbEntity
  8
1
  6
CONTINUOUS
 62
           3
100
AcDbLine
 10
839.902448656709
 20
11569.098467885629
 11
839.902448656708
 21
11580.64846788563
  0
LINE
  5
86
100
AcDbEntity
  8
1
  6
CONTINUOUS
 62
           3
100
AcDbLine
 10
858.904233130495
 20
11568.098467885629
 11
857.902448656709
 21
11568.098467885629
  0
LINE
  5
85
100
AcDbEntity
  8
1
  6
CONTINUOUS
 62
           3
100
AcDbLine
 10
792.353340893602
 20
11547.14846788563
 11
802.403340893602
 21
11547.14846788563
  0
LINE
  5
84
100
AcDbEntity
  8
1
  6
CONTINUOUS
 62
           3
100
AcDbLine
 10
830.352448656708
 20
11547.14846788563
 11
840.402448656709
 21
11547.14846788563
  0
LINE
  5
83
100
AcDbEntity
  8
1
  6
CONTINUOUS
 62
           3
100
AcDbLine
 10
695.222956732395
 20
11537.48821384779
 11
709.634499464278
 21
11545.80872192348
  0
LINE
  5
82
100
AcDbEntity
  8
1
  6
CONTINUOUS
 62
           3
100
AcDbLine
 10
715.904233130495
 20
11547.14846788563
 11
714.634499464278
 21
11547.14846788563
  0
LINE
  5
81
100
AcDbEntity
  8
1
  6
CONTINUOUS
 62
           3
100
AcDbLine
 10
839.902448656709
 20
11547.14846788563
 11
734.202448656709
 21
11547.14846788563
  0
LINE
  5
80
100
AcDbEntity
  8
1
  6
CONTINUOUS
 62
           3
100
AcDbLine
 10
668.902448656708
 20
11536.14846788563
 11
690.222956732397
 21
11536.14846788563
  0
LINE
  5
7F
100
AcDbEntity
  8
1
  6
CONTINUOUS
 62
           3
100
AcDbLine
 10
714.634499464278
 20
11567.14846788563
 11
857.902448656709
 21
11567.14846788563
  0
LINE
  5
7E
100
AcDbEntity
  8
1
  6
CONTINUOUS
 62
           3
100
AcDbLine
 10
695.222956732397
 20
11576.80872192348
 11
709.634499464278
 21
11568.48821384779
  0
LINE
  5
7D
100
AcDbEntity
  8
1
  6
CONTINUOUS
 62
           3
100
AcDbLine
 10
687.904233130495
 20
11567.14846788563
 11
687.904233130495
 21
11547.14846788563
  0
LINE
  5
7C
100
AcDbEntity
  8
1
  6
CONTINUOUS
 62
           3
100
AcDbLine
 10
667.902448656708
 20
11537.14846788563
 11
667.902448656709
 21
11545.14846788563
  0
LINE
  5
7B
100
AcDbEntity
  8
1
  6
CONTINUOUS
 62
           3
100
AcDbLine
 10
686.904233130495
 20
11568.14846788563
 11
667.902448656709
 21
11568.14846788563
  0
LINE
  5
7A
100
AcDbEntity
  8
1
  6
CONTINUOUS
 62
           3
100
AcDbLine
 10
667.902448656709
 20
11569.14846788563
 11
667.902448656709
 21
11577.14846788563
  0
LINE
  5
79
100
AcDbEntity
  8
1
  6
CONTINUOUS
 62
           3
100
AcDbLine
 10
857.904233130495
 20
11566.64846788563
 11
857.904233130495
 21
11547.64846788563
  0
LINE
  5
78
100
AcDbEntity
  8
1
  6
CONTINUOUS
 62
           3
100
AcDbLine
 10
668.902448656708
 20
11578.14846788563
 11
690.222956732397
 21
11578.14846788563
  0
LINE
  5
77
100
AcDbEntity
  8
1
  6
CONTINUOUS
 62
           3
100
AcDbLine
 10
734.002448656709
 20
11557.44846788563
 11
734.002448656709
 21
11552.14846788563
  0
LINE
  5
76
100
AcDbEntity
  8
1
  6
CONTINUOUS
 62
           3
100
AcDbLine
 10
723.802448656709
 20
11547.348467885629
 11
723.802448656709
 21
11552.14846788563
  0
LINE
  5
75
100
AcDbEntity
  8
1
  6
CONTINUOUS
 62
           3
100
AcDbLine
 10
723.802448656709
 20
11552.14846788563
 11
723.902448656709
 21
11552.14846788563
  0
LINE
  5
74
100
AcDbEntity
  8
1
  6
CONTINUOUS
 62
           3
100
AcDbLine
 10
724.002448656709
 20
11557.64846788563
 11
733.802448656709
 21
11557.64846788563
  0
LINE
  5
73
100
AcDbEntity
  8
1
  6
CONTINUOUS
 62
           3
100
AcDbLine
 10
723.602448656708
 20
11547.14846788563
 11
715.904233130495
 21
11547.14846788563
  0
LINE
  5
72
100
AcDbEntity
  8
1
  6
CONTINUOUS
 62
           3
100
AcDbLine
 10
667.902448656709
 20
11546.14846788563
 11
686.904233130495
 21
11546.14846788563
  0
LINE
  5
71
100
AcDbEntity
  8
1
  6
CONTINUOUS
 62
           3
100
AcDbLine
 10
857.902448656709
 20
11547.14846788563
 11
839.902448656709
 21
11547.14846788563
  0
LINE
  5
70
100
AcDbEntity
  8
1
  6
CONTINUOUS
 62
           3
100
AcDbLine
 10
734.002448656709
 20
11552.14846788563
 11
734.002448656709
 21
11547.348467885629
  0
LINE
  5
6F
100
AcDbEntity
  8
1
  6
CONTINUOUS
 62
           3
100
AcDbLine
 10
723.802448656709
 20
11552.14846788563
 11
723.802448656709
 21
11557.44846788563
  0
LINE
  5
6E
100
AcDbEntity
  8
1
  6
CONTINUOUS
 62
           3
100
AcDbLine
 10
839.900664182922
 20
11568.098467885629
 11
839.900664182922
 21
11567.14846788563
  0
LINE
  5
6D
100
AcDbEntity
  8
1
  6
CONTINUOUS
 62
           3
100
AcDbLine
 10
723.602448656708
 20
11547.14846788563
 11
723.902448656709
 21
11547.14846788563
  0
LINE
  5
6C
100
AcDbEntity
  8
1
  6
CONTINUOUS
 62
           3
100
AcDbLine
 10
734.202448656709
 20
11547.14846788563
 11
733.902448656709
 21
11547.14846788563
  0
LINE
  5
6B
100
AcDbEntity
  8
1
  6
DOTTED
 62
           1
100
AcDbLine
 10
723.902448656709
 20
11547.14846788563
 11
733.902448656709
 21
11547.14846788563
  0
LINE
  5
6A
100
AcDbEntity
  8
1
  6
CONTINUOUS
 62
           3
100
AcDbLine
 10
733.902448656709
 20
11552.14846788563
 11
733.902448656709
 21
11547.14846788563
  0
LINE
  5
69
100
AcDbEntity
  8
1
  6
CONTINUOUS
 62
           3
100
AcDbLine
 10
733.902448656709
 20
11552.14846788563
 11
734.002448656709
 21
11552.14846788563
  0
LINE
  5
68
100
AcDbEntity
  8
1
  6
CONTINUOUS
 62
           3
100
AcDbLine
 10
723.902448656709
 20
11552.14846788563
 11
723.902448656709
 21
11556.64846788563
  0
LINE
  5
67
100
AcDbEntity
  8
1
  6
DOTTED
 62
           1
100
AcDbLine
 10
723.902448656709
 20
11552.14846788563
 11
733.902448656709
 21
11552.14846788563
  0
LINE
  5
66
100
AcDbEntity
  8
1
  6
CONTINUOUS
 62
           3
100
AcDbLine
 10
857.902448656709
 20
11568.098467885629
 11
839.900664182922
 21
11568.098467885629
  0
LINE
  5
65
100
AcDbEntity
  8
1
  6
CONTINUOUS
 62
           3
100
AcDbLine
 10
857.902448656709
 20
11546.19846788563
 11
858.904233130495
 21
11546.19846788563
  0
LINE
  5
64
100
AcDbEntity
  8
1
  6
CONTINUOUS
 62
           3
100
AcDbLine
 10
692.902448656709
 20
11776.969985875719
 11
692.902448656709
 21
11760.969985875719
  0
LINE
  5
63
100
AcDbEntity
  8
1
  6
CONTINUOUS
 62
           3
100
AcDbLine
 10
711.955007539967
 20
11776.969985875719
 11
711.955007539967
 21
11760.969985875719
  0
POINT
  5
62
100
AcDbEntity
  8
0
 62
           7
100
AcDbPoint
 10
1014.922293889428
 20
11604.54846788563
  0
POINT
  5
61
100
AcDbEntity
  8
0
 62
           7
100
AcDbPoint
 10
1014.922293889428
 20
11609.748467885631
  0
POINT
  5
60
100
AcDbEntity
  8
0
 62
           7
100
AcDbPoint
 10
1012.322293889428
 20
11615.018467885629
  0
POINT
  5
5F
100
AcDbEntity
  8
0
 62
           7
100
AcDbPoint
 10
1024.322293889428
 20
11615.018467885629
  0
POINT
  5
5E
100
AcDbEntity
  8
0
 62
           7
100
AcDbPoint
 10
753.893266295314
 20
11768.969985875719
  0
POINT
  5
5D
100
AcDbEntity
  8
0
 62
           7
100
AcDbPoint
 10
872.900664182922
 20
11741.969985875719
  0
POINT
  5
5C
100
AcDbEntity
  8
0
 62
           7
100
AcDbPoint
 10
758.91251972633
 20
11703.969985875719
  0
POINT
  5
5B
100
AcDbEntity
  8
0
 62
           7
100
AcDbPoint
 10
613.902448656709
 20
11492.14846788563
  0
POINT
  5
5A
100
AcDbEntity
  8
0
 62
           7
100
AcDbPoint
 10
872.900664182922
 20
11337.64846788563
  0
POINT
  5
59
100
AcDbEntity
  8
0
 62
           7
100
AcDbPoint
 10
450.205336135129
 20
11603.31972718161
  0
POINT
  5
58
100
AcDbEntity
  8
0
 62
           7
100
AcDbPoint
 10
525.205336135129
 20
11600.88229750239
  0
POINT
  5
57
100
AcDbEntity
  8
0
 62
           7
100
AcDbPoint
 10
437.705336135129
 20
11614.54386186312
  0
POINT
  5
56
100
AcDbEntity
  8
0
 62
           7
100
AcDbPoint
 10
537.705336135129
 20
11613.38229750239
  0
POINT
  5
55
100
AcDbEntity
  8
0
 62
           7
100
AcDbPoint
 10
439.919618141455
 20
11594.64846788563
  0
POINT
  5
54
100
AcDbEntity
  8
0
 62
           7
100
AcDbPoint
 10
443.97150651837
 20
11519.64846788563
  0
POINT
  5
53
100
AcDbEntity
  8
0
 62
           7
100
AcDbPoint
 10
429.5101383965
 20
11607.14846788563
  0
POINT
  5
52
100
AcDbEntity
  8
0
 62
           7
100
AcDbPoint
 10
431.47150651837
 20
11507.14846788563
  0
POINT
  5
51
100
AcDbEntity
  8
0
 62
           7
100
AcDbPoint
 10
531.705336135129
 20
11615.018467885629
  0
POINT
  5
50
100
AcDbEntity
  8
0
 62
           7
100
AcDbPoint
 10
543.705336135129
 20
11615.018467885629
  0
POINT
  5
4F
100
AcDbEntity
  8
0
 62
           7
100
AcDbPoint
 10
541.105336135129
 20
11609.748467885631
  0
POINT
  5
4E
100
AcDbEntity
  8
0
 62
           7
100
AcDbPoint
 10
541.105336135129
 20
11604.54846788563
  0
POINT
  5
4D
100
AcDbEntity
  8
0
 62
           7
100
AcDbPoint
 10
857.900664182922
 20
11840.969985875719
  0
POINT
  5
4C
100
AcDbEntity
  8
0
 62
           7
100
AcDbPoint
 10
857.900664182922
 20
11696.969985875719
  0
POINT
  5
4B
100
AcDbEntity
  8
0
 62
           7
100
AcDbPoint
 10
772.900664182922
 20
11835.969985875719
  0
POINT
  5
4A
100
AcDbEntity
  8
0
 62
           7
100
AcDbPoint
 10
862.900664182922
 20
11835.969985875719
  0
POINT
  5
49
100
AcDbEntity
  8
0
 62
           7
100
AcDbPoint
 10
862.900664182922
 20
11835.969985875719
  0
POINT
  5
48
100
AcDbEntity
  8
0
 62
           7
100
AcDbPoint
 10
772.900664182922
 20
11835.969985875719
  0
POINT
  5
47
100
AcDbEntity
  8
0
 62
           7
100
AcDbPoint
 10
862.900664182922
 20
11835.969985875719
  0
POINT
  5
46
100
AcDbEntity
  8
0
 62
           7
100
AcDbPoint
 10
872.900664182922
 20
11795.969985875719
  0
POINT
  5
45
100
AcDbEntity
  8
0
 62
           7
100
AcDbPoint
 10
869.900664182922
 20
11798.969985875719
  0
POINT
  5
44
100
AcDbEntity
  8
0
 62
           7
100
AcDbPoint
 10
869.900664182922
 20
11738.969985875719
  0
POINT
  5
43
100
AcDbEntity
  8
0
 62
           7
100
AcDbPoint
 10
472.705336135129
 20
11652.555836105201
  0
POINT
  5
42
100
AcDbEntity
  8
0
 62
           7
100
AcDbPoint
 10
502.705336135129
 20
11652.555836105201
  0
POINT
  5
41
100
AcDbEntity
  8
0
 62
           7
100
AcDbPoint
 10
772.900664182922
 20
11337.64846788563
  0
POINT
  5
40
100
AcDbEntity
  8
0
 62
           7
100
AcDbPoint
 10
772.900664182922
 20
11334.64846788563
  0
POINT
  5
3F
100
AcDbEntity
  8
0
 62
           7
100
AcDbPoint
 10
824.900664182922
 20
11798.969985875719
  0
POINT
  5
3E
100
AcDbEntity
  8
0
 62
           7
100
AcDbPoint
 10
824.900664182922
 20
11795.969985875719
  0
POINT
  5
3D
100
AcDbEntity
  8
0
 62
           7
100
AcDbPoint
 10
996.322293889428
 20
11334.64846788563
  0
POINT
  5
3C
100
AcDbEntity
  8
0
 62
           7
100
AcDbPoint
 10
1047.203257130972
 20
11376.64846788563
  0
POINT
  5
3B
100
AcDbEntity
  8
0
 62
           7
100
AcDbPoint
 10
996.322293889428
 20
11334.64846788563
  0
POINT
  5
3A
100
AcDbEntity
  8
0
 62
           7
100
AcDbPoint
 10
1048.080396648374
 20
11419.64846788563
  0
POINT
  5
39
100
AcDbEntity
  8
0
 62
           7
100
AcDbPoint
 10
1048.080396648374
 20
11419.64846788563
  0
POINT
  5
38
100
AcDbEntity
  8
0
 62
           7
100
AcDbPoint
 10
1048.080396648374
 20
11447.14846788563
  0
POINT
  5
37
100
AcDbEntity
  8
0
 62
           7
100
AcDbPoint
 10
1048.080396648374
 20
11447.14846788563
  0
POINT
  5
36
100
AcDbEntity
  8
0
 62
           7
100
AcDbPoint
 10
1048.080396648374
 20
11474.64846788563
  0
POINT
  5
35
100
AcDbEntity
  8
0
 62
           7
100
AcDbPoint
 10
1048.080396648374
 20
11474.64846788563
  0
POINT
  5
34
100
AcDbEntity
  8
0
 62
           7
100
AcDbPoint
 10
1048.080396648374
 20
11502.14846788563
  0
POINT
  5
33
100
AcDbEntity
  8
0
 62
           7
100
AcDbPoint
 10
1048.080396648374
 20
11502.14846788563
  0
POINT
  5
32
100
AcDbEntity
  8
0
 62
           7
100
AcDbPoint
 10
1048.080396648374
 20
11529.64846788563
  0
POINT
  5
31
100
AcDbEntity
  8
0
 62
           7
100
AcDbPoint
 10
1048.080396648374
 20
11529.64846788563
  0
POINT
  5
30
100
AcDbEntity
  8
0
 62
           7
100
AcDbPoint
 10
1004.322293889428
 20
11557.14846788563
  0
POINT
  5
2F
100
AcDbEntity
  8
0
 62
           7
100
AcDbPoint
 10
1004.322293889428
 20
11557.14846788563
  0
POINT
  5
2E
100
AcDbEntity
  8
0
 62
           7
100
AcDbPoint
 10
1048.080396648374
 20
11584.64846788563
  0
POINT
  5
2D
100
AcDbEntity
  8
0
 62
           7
100
AcDbPoint
 10
1048.080396648374
 20
11584.64846788563
  0
POINT
  5
2C
100
AcDbEntity
  8
0
 62
           7
100
AcDbPoint
 10
1048.080396648374
 20
11612.14846788563
  0
POINT
  5
2B
100
AcDbEntity
  8
0
 62
           7
100
AcDbPoint
 10
1048.080396648374
 20
11612.14846788563
  0
POINT
  5
2A
100
AcDbEntity
  8
0
 62
           7
100
AcDbPoint
 10
1048.080396648374
 20
11639.64846788563
  0
POINT
  5
29
100
AcDbEntity
  8
0
 62
           7
100
AcDbPoint
 10
996.322293889428
 20
11334.64846788563
  0
POINT
  5
28
100
AcDbEntity
  8
0
 62
           7
100
AcDbPoint
 10
1038.322293889428
 20
11649.64846788563
  0
ENDSEC
  0
SECTION
  2
OBJECTS
  0
DICTIONARY
  5
19
100
AcDbDictionary
  3
ACAD_GROUP
350
1A
  3
ACAD_MLINESTYLE
350
1B
  0
DICTIONARY
  5
1A
102
{ACAD_REACTORS
330
19
102
}
100
AcDbDictionary
  0
DICTIONARY
  5
1B
102
{ACAD_REACTORS
330
19
102
}
100
AcDbDictionary
  3
STANDARD
350
1C
  0
MLINESTYLE
  5
1C
102
{ACAD_REACTORS
330
1B
102
}
100
AcDbMlineStyle
  2
STANDARD
 70
           0
  3

 62
           0
 51
90.0
 52
90.0
 71
           2
 49
0.5
 62
         256
  6
BYLAYER
 49
-0.5
 62
         256
  6
BYLAYER
  0
ENDSEC
  0
EOF
