  0
SECTION
  2
HEADER
  9
$ACADVER
  1
AC1014
  9
$ACADMAINTVER
 70
           0
  9
$DWGCODEPAGE
  3
DOS932
  9
$INSBASE
 10
0.0
 20
0.0
 30
0.0
  9
$EXTMIN
 10
1.000000000000E+20
 20
1.000000000000E+20
 30
1.000000000000E+20
  9
$EXTMAX
 10
-1.000000000000E+20
 20
-1.000000000000E+20
 30
-1.000000000000E+20
  9
$LIMMIN
 10
0.0
 20
0.0
  9
$LIMMAX
 10
0.0
 20
0.0
  9
$ORTHOMODE
 70
           0
  9
$REGENMODE
 70
           1
  9
$FILLMODE
 70
           1
  9
$QTEXTMODE
 70
           0
  9
$MIRRTEXT
 70
           1
  9
$DRAGMODE
 70
           2
  9
$LTSCALE
 40
1.0
  9
$OSMODE
 70
           0
  9
$ATTMODE
 70
           1
  9
$TEXTSIZE
 40
0.2
  9
$TRACEWID
 40
0.05
  9
$TEXTSTYLE
  7
STANDARD
  9
$CLAYER
  8
0
  9
$CELTYPE
  6
CONTINUOUS
  9
$CECOLOR
 62
         256
  9
$CELTSCALE
 40
1.0
  9
$DELOBJ
 70
           1
  9
$DISPSILH
 70
           0
  9
$DIMSCALE
 40
1.0
  9
$DIMASZ
 40
0.18
  9
$DIMEXO
 40
0.0625
  9
$DIMDLI
 40
0.38
  9
$DIMRND
 40
0.0
  9
$DIMDLE
 40
0.0
  9
$DIMEXE
 40
0.18
  9
$DIMTP
 40
0.0
  9
$DIMTM
 40
0.0
  9
$DIMTXT
 40
0.18
  9
$DIMCEN
 40
0.09
  9
$DIMTSZ
 40
0.0
  9
$DIMTOL
 70
           0
  9
$DIMLIM
 70
           0
  9
$DIMTIH
 70
           1
  9
$DIMTOH
 70
           1
  9
$DIMSE1
 70
           0
  9
$DIMSE2
 70
           0
  9
$DIMTAD
 70
           0
  9
$DIMZIN
 70
           0
  9
$DIMBLK
  1

  9
$DIMASO
 70
           1
  9
$DIMSHO
 70
           1
  9
$DIMPOST
  1

  9
$DIMAPOST
  1

  9
$DIMALT
 70
           0
  9
$DIMALTD
 70
           2
  9
$DIMALTF
 40
25.4
  9
$DIMLFAC
 40
1.0
  9
$DIMTOFL
 70
           0
  9
$DIMTVP
 40
0.0
  9
$DIMTIX
 70
           0
  9
$DIMSOXD
 70
           0
  9
$DIMSAH
 70
           0
  9
$DIMBLK1
  1

  9
$DIMBLK2
  1

  9
$DIMSTYLE
  2
STANDARD
  9
$DIMCLRD
 70
           0
  9
$DIMCLRE
 70
           0
  9
$DIMCLRT
 70
           0
  9
$DIMTFAC
 40
1.0
  9
$DIMGAP
 40
0.09
  9
$DIMJUST
 70
           0
  9
$DIMSD1
 70
           0
  9
$DIMSD2
 70
           0
  9
$DIMTOLJ
 70
           1
  9
$DIMTZIN
 70
           0
  9
$DIMALTZ
 70
           0
  9
$DIMALTTZ
 70
           0
  9
$DIMFIT
 70
           3
  9
$DIMUPT
 70
           0
  9
$DIMUNIT
 70
           2
  9
$DIMDEC
 70
           4
  9
$DIMTDEC
 70
           4
  9
$DIMALTU
 70
           2
  9
$DIMALTTD
 70
           2
  9
$DIMTXSTY
  7
STANDARD
  9
$DIMAUNIT
 70
           0
  9
$LUNITS
 70
           2
  9
$LUPREC
 70
           4
  9
$SKETCHINC
 40
0.1
  9
$FILLETRAD
 40
0.0
  9
$AUNITS
 70
           0
  9
$AUPREC
 70
           0
  9
$MENU
  1
acad
  9
$ELEVATION
 40
0.0
  9
$PELEVATION
 40
0.0
  9
$THICKNESS
 40
0.0
  9
$LIMCHECK
 70
           0
  9
$BLIPMODE
 70
           1
  9
$CHAMFERA
 40
0.0
  9
$CHAMFERB
 40
0.0
  9
$CHAMFERC
 40
0.0
  9
$CHAMFERD
 40
0.0
  9
$SKPOLY
 70
           0
  9
$TDCREATE
 40
0.000000000
  9
$TDUPDATE
 40
0.000000000
  9
$TDINDWG
 40
0.0000000000
  9
$TDUSRTIMER
 40
0.0000000000
  9
$USRTIMER
 70
           1
  9
$ANGBASE
 50
0.0
  9
$ANGDIR
 70
           0
  9
$PDMODE
 70
           0
  9
$PDSIZE
 40
0.0
  9
$PLINEWID
 40
0.0
  9
$COORDS
 70
           0
  9
$SPLFRAME
 70
           0
  9
$SPLINETYPE
 70
           6
  9
$SPLINESEGS
 70
           8
  9
$ATTDIA
 70
           0
  9
$ATTREQ
 70
           1
  9
$HANDLING
 70
           1
  9
$HANDSEED
  5
2FE
  9
$SURFTAB1
 70
           6
  9
$SURFTAB2
 70
           6
  9
$SURFTYPE
 70
           6
  9
$SURFU
 70
           6
  9
$SURFV
 70
           6
  9
$UCSNAME
  2

  9
$UCSORG
 10
0.0
 20
0.0
 30
0.0
  9
$UCSXDIR
 10
1.0
 20
0.0
 30
0.0
  9
$UCSYDIR
 10
0.0
 20
1.0
 30
0.0
  9
$PUCSNAME
  2

  9
$PUCSORG
 10
0.0
 20
0.0
 30
0.0
  9
$PUCSXDIR
 10
1.0
 20
0.0
 30
0.0
  9
$PUCSYDIR
 10
0.0
 20
1.0
 30
0.0
  9
$USERI1
 70
           0
  9
$USERI2
 70
           0
  9
$USERI3
 70
           0
  9
$USERI4
 70
           0
  9
$USERI5
 70
           0
  9
$USERR1
 40
0.0
  9
$USERR2
 40
0.0
  9
$USERR3
 40
0.0
  9
$USERR4
 40
0.0
  9
$USERR5
 40
0.0
  9
$WORLDVIEW
 70
           1
  9
$SHADEDGE
 70
           3
  9
$SHADEDIF
 70
          70
  9
$TILEMODE
 70
           1
  9
$MAXACTVP
 70
          16
  9
$PINSBASE
 10
0.0
 20
0.0
 30
0.0
  9
$PLIMCHECK
 70
           0
  9
$PEXTMIN
 10
1.000000000000E+20
 20
1.000000000000E+20
 30
1.000000000000E+20
  9
$PEXTMAX
 10
-1.000000000000E+20
 20
-1.000000000000E+20
 30
-1.000000000000E+20
  9
$PLIMMIN
 10
0.0
 20
0.0
  9
$PLIMMAX
 10
12.0
 20
9.0
  9
$UNITMODE
 70
           0
  9
$VISRETAIN
 70
           0
  9
$PLINEGEN
 70
           1
  9
$PSLTSCALE
 70
           0
  9
$TREEDEPTH
 70
        3020
  9
$PICKSTYLE
 70
           1
  9
$CMLSTYLE
  2
STANDARD
  9
$CMLJUST
 70
           0
  9
$CMLSCALE
 40
1.0
  9
$PROXYGRAPHICS
 70
           0
  9
$MEASUREMENT
 70
           1
  0
ENDSEC
  0
SECTION
  2
CLASSES
  0
CLASS
  1
LWPOLYLINE
  2
AcDbPolyline
  3
"AutoCAD"
 90
        0
280
           0
281
           1
  0
CLASS
  1
IMAGE
  2
AcDbRasterImage
  3
ISM
 90
      127
280
           0
281
           1
  0
CLASS
  1
OLE2FRAME
  2
AcDbOle2Frame
  3
""
 90
        0
280
           0
281
           1
  0
CLASS
  1
HATCH
  2
AcDbHatch
  3
"ACAD_SEDONA"
 90
        0
280
           0
281
           1
  0
CLASS
  1
DICTIONARYVAR
  2
AcDbDictionaryVar
  3
"AutoCAD"
 90
        0
280
           0
281
           0
  0
CLASS
  1
RASTERVARIABLES
  2
AcDbRasterVariables
  3
ISM
 90
        0
280
           0
281
           0
  0
CLASS
  1
IMAGEDEF
  2
AcDbRasterImageDef
  3
ISM
 90
        0
280
           0
281
           0
  0
CLASS
  1
IMAGEDEF_REACTOR
  2
AcDbRasterImageDefReactor
  3
ISM
 90
        1
280
           0
281
           0
  0
CLASS
  1
IDBUFFER
  2
AcDbIdBuffer
  3
"Acad"
 90
        0
280
           0
281
           0
  0
CLASS
  1
SPATIAL_FILTER
  2
AcDbSpatialFilter
  3
"Acad"
 90
        0
280
           0
281
           0
  0
CLASS
  1
XRECORD
  2
AcDbXrecord
  3
"<Built In>"
 90
        0
280
           0
281
           0
  0
CLASS
  1
SORTENTSTABLE
  2
AcDbSortentsTable
  3
"AutoCAD"
 90
        0
280
           0
281
           0
  0
CLASS
  1
LAYER_INDEX
  2
AcDbLayerIndex
  3
"Acad"
 90
        0
280
           0
281
           0
  0
CLASS
  1
SPATIAL_INDEX
  2
AcDbSpatialIndex
  3
"Acad"
 90
        0
280
           0
281
           0
  0
CLASS
  1
OBJECT_PTR
  2
CAseDLPNTableRecord
  3
"ASE-LPNTableRecord"
 90
        1
280
           0
281
           0
  0
CLASS
  1
LAYOUT
  2
AcDbLayout
  3
"AutoCAD 2000"
 90
        1
280
           0
281
           0
  0
CLASS
  1
PLOTSETTINGS
  2
AcDbPlotSettings
  3
"AutoCAD 2000"
 90
        1
280
           0
281
           0
  0
CLASS
  1
ACDBDICTIONARYWDFLT
  2
AcDbDictionaryWithDefault
  3
"AutoCAD 2000"
 90
        1
280
           0
281
           0
  0
CLASS
  1
ACDBPLACEHOLDER
  2
AcDbPlaceHolder
  3
"AutoCAD 2000"
 90
        1
280
           0
281
           0
  0
CLASS
  1
VBA_PROJECT
  2
AcDbVbaProject
  3
"acadvba"
 90
        1
280
           0
281
           0
  0
CLASS
  1
WIPEOUT
  2
AcDbWipeout
  3
WipeOut|AutoCAD Express Tool|expresstools@autodesk.com
 90
      127
280
           0
281
           1
  0
CLASS
  1
WIPEOUTVARIABLES
  2
AcDbWipeoutVariables
  3
WipeOut|AutoCAD Express Tool|expresstools@autodesk.com
 90
        0
280
           0
281
           0
  0
CLASS
  1
RTEXT
  2
RText
  3
RText|AutoCAD Express Tool|expresstools@autodesk.com
 90
        0
280
           0
281
           1
  0
CLASS
  1
ARCALIGNEDTEXT
  2
AcDbArcAlignedText
  3
ATEXT|AutoCAD Express Tool|expresstools@autodesk.com
 90
        0
280
           0
281
           1
  0
ENDSEC
  0
SECTION
  2
TABLES
  0
TABLE
  2
VPORT
  5
7
100
AcDbSymbolTable
 70
           1
  0
VPORT
  5
15
100
AcDbSymbolTableRecord
100
AcDbViewportTableRecord
  2
*ACTIVE
 70
           0
 10
0.0
 20
0.0
 11
1.0
 21
1.0
 12
6.591288
 22
4.579184
 13
0.0
 23
0.0
 14
1.0
 24
1.0
 15
0.0
 25
0.0
 16
0.0
 26
0.0
 36
1.0
 17
0.0
 27
0.0
 37
0.0
 40
9.158369
 41
0.688564
 42
50.0
 43
0.0
 44
0.0
 50
0.0
 51
0.0
 71
           0
 72
         100
 73
           1
 74
           1
 75
           0
 76
           0
 77
           0
 78
           0
  0
ENDTAB
  0
TABLE
  2
LTYPE
  5
4
100
AcDbSymbolTable
 70
          10
  0
LTYPE
  5
11
100
AcDbSymbolTableRecord
100
AcDbLinetypeTableRecord
  2
BYBLOCK
 70
          64
  3

 72
          65
 73
           0
 40
0.0
  0
LTYPE
  5
12
100
AcDbSymbolTableRecord
100
AcDbLinetypeTableRecord
  2
BYLAYER
 70
          64
  3

 72
          65
 73
           0
 40
0.0
  0
LTYPE
  5
13
100
AcDbSymbolTableRecord
100
AcDbLinetypeTableRecord
  2
CONTINUOUS
 70
          64
  3
Solid line
 72
          65
 73
           0
 40
0.0
  0
LTYPE
  5
1D
100
AcDbSymbolTableRecord
100
AcDbLinetypeTableRecord
  2
DASHED
 70
          64
  3
Dashed
 72
          65
 73
           2
 40
15.0
 49
12.0
 74
           0
 49
-3.0
 74
           0
  0
LTYPE
  5
1E
100
AcDbSymbolTableRecord
100
AcDbLinetypeTableRecord
  2
DOTTED
 70
          64
  3
Dotted
 72
          65
 73
           2
 40
3.5
 49
0.5
 74
           0
 49
-3.0
 74
           0
  0
LTYPE
  5
1F
100
AcDbSymbolTableRecord
100
AcDbLinetypeTableRecord
  2
DOT_CENTER
 70
          64
  3
Dot_Center
 72
          65
 73
           4
 40
2.0
 49
1.25
 74
           0
 49
-0.25
 74
           0
 49
0.25
 74
           0
 49
-0.25
 74
           0
  0
LTYPE
  5
20
100
AcDbSymbolTableRecord
100
AcDbLinetypeTableRecord
  2
LONG_DASHED
 70
          64
  3
Long_Dashed
 72
          65
 73
           2
 40
2.0
 49
1.5
 74
           0
 49
-0.5
 74
           0
  0
LTYPE
  5
21
100
AcDbSymbolTableRecord
100
AcDbLinetypeTableRecord
  2
DASH_CENTER
 70
          64
  3
Dash_Center
 72
          65
 73
           4
 40
36.0
 49
24.0
 74
           0
 49
-3.0
 74
           0
 49
6.0
 74
           0
 49
-3.0
 74
           0
  0
LTYPE
  5
22
100
AcDbSymbolTableRecord
100
AcDbLinetypeTableRecord
  2
PHANTOM
 70
          64
  3
Phantom
 72
          65
 73
           6
 40
2.5
 49
1.25
 74
           0
 49
-0.25
 74
           0
 49
0.25
 74
           0
 49
-0.25
 74
           0
 49
0.25
 74
           0
 49
-0.25
 74
           0
  0
LTYPE
  5
23
100
AcDbSymbolTableRecord
100
AcDbLinetypeTableRecord
  2
CENTER_DASH_DASH
 70
          64
  3
Center_Dash_Dash
 72
          65
 73
           6
 40
22.0
 49
12.0
 74
           0
 49
-3.0
 74
           0
 49
0.5
 74
           0
 49
-3.0
 74
           0
 49
0.5
 74
           0
 49
-3.0
 74
           0
  0
ENDTAB
  0
TABLE
  2
LAYER
  5
2
100
AcDbSymbolTable
 70
           2
  0
LAYER
  5
14
100
AcDbSymbolTableRecord
100
AcDbLayerTableRecord
  2
0
 70
           0
 62
           7
  6
CONTINUOUS
  0
LAYER
  5
24
100
AcDbSymbolTableRecord
100
AcDbLayerTableRecord
  2
1
 70
           0
 62
           7
  6
CONTINUOUS
  0
ENDTAB
  0
TABLE
  2
STYLE
  5
3
100
AcDbSymbolTable
 70
           3
  0
STYLE
  5
17
100
AcDbSymbolTableRecord
100
AcDbTextStyleTableRecord
  2
STANDARD
 70
           0
 40
0.0
 41
1.0
 50
0.0
 71
           0
 42
0.0
  3
txt
  4

  0
STYLE
  5
2F9
100
AcDbSymbolTableRecord
100
AcDbTextStyleTableRecord
  2
CONVERTER_1
 70
           0
 40
0.0
 41
0.72
 50
0.0
 71
           0
 42
0.0
  3
MS Gothic
  4

1001
ACAD
1000
MS Gothic
1071
    32785
  0
STYLE
  5
2FB
100
AcDbSymbolTableRecord
100
AcDbTextStyleTableRecord
  2
CONVERTER_2
 70
           0
 40
0.0
 41
1.125
 50
0.0
 71
           0
 42
0.0
  3
txt
  4

  0
ENDTAB
  0
TABLE
  2
VIEW
  5
5
100
AcDbSymbolTable
 70
           0
  0
ENDTAB
  0
TABLE
  2
UCS
  5
6
100
AcDbSymbolTable
 70
           0
  0
ENDTAB
  0
TABLE
  2
APPID
  5
8
100
AcDbSymbolTable
 70
           1
  0
APPID
  5
16
100
AcDbSymbolTableRecord
100
AcDbRegAppTableRecord
  2
ACAD
 70
           0
  0
ENDTAB
  0
TABLE
  2
DIMSTYLE
  5
9
100
AcDbSymbolTable
 70
           1
  0
DIMSTYLE
105
18
100
AcDbSymbolTableRecord
100
AcDbDimStyleTableRecord
  2
STANDARD
 70
           0
  3

  4

  5

  6

  7

 40
1.0
 41
0.18
 42
0.0625
 43
0.38
 44
0.18
 45
0.0
 46
0.0
 47
0.0
 48
0.0
 71
           0
 72
           0
 73
           1
 74
           1
 75
           0
 76
           0
 77
           0
 78
           0
140
0.18
141
0.09
142
0.0
143
25.4
144
1.0
145
0.0
146
1.0
147
0.09
170
           0
171
           2
172
           0
173
           0
174
           0
175
           0
176
           0
177
           0
178
           0
270
           2
271
           4
272
           4
273
           2
274
           2
275
           0
280
           0
281
           0
282
           0
283
           1
284
           0
285
           0
286
           0
287
           0
288
           0
340
17
  0
ENDTAB
  0
TABLE
  2
BLOCK_RECORD
  5
1
100
AcDbSymbolTable
 70
           0
  0
BLOCK_RECORD
  5
A
100
AcDbSymbolTableRecord
100
AcDbBlockTableRecord
  2
*MODEL_SPACE
  0
BLOCK_RECORD
  5
B
100
AcDbSymbolTableRecord
100
AcDbBlockTableRecord
  2
*PAPER_SPACE
  0
ENDTAB
  0
ENDSEC
  0
SECTION
  2
BLOCKS
  0
BLOCK
  5
D
100
AcDbEntity
  8
0
100
AcDbBlockBegin
  2
*MODEL_SPACE
 70
           0
 10
0.0
 20
0.0
 30
0.0
  3
*MODEL_SPACE
  1

  0
ENDBLK
  5
E
100
AcDbEntity
  8
0
100
AcDbBlockEnd
  0
BLOCK
  5
F
100
AcDbEntity
 67
           1
  8
0
100
AcDbBlockBegin
  2
*PAPER_SPACE
 70
           0
 10
0.0
 20
0.0
 30
0.0
  3
*PAPER_SPACE
  1

  0
ENDBLK
  5
10
100
AcDbEntity
 67
           1
  8
0
100
AcDbBlockEnd
  0
ENDSEC
  0
SECTION
  2
ENTITIES
  0
MTEXT
  5
2FC
100
AcDbEntity
  8
1
 62
           1
100
AcDbMText
 10
984.381028897635
 20
12487.467647099669
 30
0.0
 40
7.799804672134
 41
0.0
 71
           5
 72
           1
  1
STV-1S
  7
CONVERTER_2
 11
1.0
 21
0.0
 31
0.0
  0
MTEXT
  5
2FA
100
AcDbEntity
  8
1
 62
           1
100
AcDbMText
 10
984.381028897635
 20
12469.81764709967
 30
0.0
 40
7.799804672134
 41
0.0
 71
           5
 72
           1
  1
Ｓ-ＴＶアーム １軸・スタンド型
  7
CONVERTER_1
 11
1.0
 21
0.0
 31
0.0
  0
ARC
  5
2F8
100
AcDbEntity
  8
1
  6
CONTINUOUS
 62
           3
100
AcDbCircle
 10
688.007331997556
 20
12414.958245694839
 40
4.0
100
AcDbArc
 50
180.0
 51
-138.590377890683
  0
ARC
  5
2F7
100
AcDbEntity
  8
1
  6
CONTINUOUS
 62
           3
100
AcDbCircle
 10
732.507331997556
 20
12437.958245694839
 40
1.0
100
AcDbArc
 50
-90.0
 51
0.0
  0
ARC
  5
2F6
100
AcDbEntity
  8
1
  6
CONTINUOUS
 62
           3
100
AcDbCircle
 10
687.007331997556
 20
12469.958245694839
 40
2.0
100
AcDbArc
 50
90.0
 51
180.0
  0
ARC
  5
2F5
100
AcDbEntity
  8
1
  6
CONTINUOUS
 62
           3
100
AcDbCircle
 10
731.507331997556
 20
12469.958245694839
 40
2.0
100
AcDbArc
 50
0.0
 51
90.0
  0
ARC
  5
2F4
100
AcDbEntity
  8
1
  6
CONTINUOUS
 62
           3
100
AcDbCircle
 10
732.507331997556
 20
12423.958245694839
 40
1.0
100
AcDbArc
 50
0.0
 51
90.0
  0
ARC
  5
2F3
100
AcDbEntity
  8
1
  6
CONTINUOUS
 62
           3
100
AcDbCircle
 10
687.007331997556
 20
12391.958245694839
 40
2.0
100
AcDbArc
 50
180.0
 51
-90.0
  0
ARC
  5
2F2
100
AcDbEntity
  8
1
  6
CONTINUOUS
 62
           3
100
AcDbCircle
 10
731.507331997556
 20
12391.958245694839
 40
2.0
100
AcDbArc
 50
-90.0
 51
0.0
  0
ARC
  5
2F1
100
AcDbEntity
  8
1
  6
CONTINUOUS
 62
           3
100
AcDbCircle
 10
686.007331997558
 20
12249.405391497859
 40
1.0
100
AcDbArc
 50
90.0
 51
180.0
  0
ARC
  5
2F0
100
AcDbEntity
  8
1
  6
CONTINUOUS
 62
           3
100
AcDbCircle
 10
686.007331997558
 20
12212.405391497859
 40
1.0
100
AcDbArc
 50
180.0
 51
-90.0
  0
ARC
  5
2EF
100
AcDbEntity
  8
1
  6
CONTINUOUS
 62
           3
100
AcDbCircle
 10
757.505547523771
 20
12194.905391497859
 40
1.5
100
AcDbArc
 50
180.0
 51
-90.0
  0
ARC
  5
2EE
100
AcDbEntity
  8
1
  6
CONTINUOUS
 62
           3
100
AcDbCircle
 10
757.505547523771
 20
12266.905391497859
 40
1.5
100
AcDbArc
 50
90.0
 51
180.0
  0
ARC
  5
2ED
100
AcDbEntity
  8
1
  6
CONTINUOUS
 62
           3
100
AcDbCircle
 10
753.509116471345
 20
12221.405391497859
 40
0.5
100
AcDbArc
 50
-90.0
 51
0.0
  0
ARC
  5
2EC
100
AcDbEntity
  8
1
  6
CONTINUOUS
 62
           3
100
AcDbCircle
 10
753.509116471345
 20
12240.405391497859
 40
0.5
100
AcDbArc
 50
0.0
 51
90.0
  0
ARC
  5
2EB
100
AcDbEntity
  8
1
  6
CONTINUOUS
 62
           3
100
AcDbCircle
 10
732.507331997558
 20
12214.905391497859
 40
1.5
100
AcDbArc
 50
-90.0
 51
0.0
  0
ARC
  5
2EA
100
AcDbEntity
  8
1
  6
CONTINUOUS
 62
           3
100
AcDbCircle
 10
732.507331997558
 20
12246.905391497859
 40
1.5
100
AcDbArc
 50
0.0
 51
90.0
  0
ARC
  5
2E9
100
AcDbEntity
  8
1
  6
CONTINUOUS
 62
           3
100
AcDbCircle
 10
736.007331997558
 20
12242.905391497859
 40
2.0
100
AcDbArc
 50
180.0
 51
-90.0
  0
ARC
  5
2E8
100
AcDbEntity
  8
1
  6
CONTINUOUS
 62
           3
100
AcDbCircle
 10
736.007331997558
 20
12218.905391497859
 40
2.0
100
AcDbArc
 50
90.0
 51
180.0
  0
ARC
  5
2E7
100
AcDbEntity
  8
1
  6
CONTINUOUS
 62
           3
100
AcDbCircle
 10
734.507331997558
 20
12240.405391497859
 40
0.5
100
AcDbArc
 50
90.0
 51
180.0
  0
ARC
  5
2E6
100
AcDbEntity
  8
1
  6
CONTINUOUS
 62
           3
100
AcDbCircle
 10
734.507331997558
 20
12221.405391497859
 40
0.5
100
AcDbArc
 50
180.0
 51
-90.0
  0
ARC
  5
2E5
100
AcDbEntity
  8
1
  6
CONTINUOUS
 62
           3
100
AcDbCircle
 10
733.507331997556
 20
12435.458245694839
 40
0.5
100
AcDbArc
 50
0.0
 51
90.0
  0
ARC
  5
2E4
100
AcDbEntity
  8
1
  6
CONTINUOUS
 62
           3
100
AcDbCircle
 10
733.507331997556
 20
12426.458245694839
 40
0.5
100
AcDbArc
 50
-90.0
 51
0.0
  0
ARC
  5
2E3
100
AcDbEntity
  8
1
  6
CONTINUOUS
 62
           3
100
AcDbCircle
 10
732.007331997556
 20
12423.958245694839
 40
2.0
100
AcDbArc
 50
0.0
 51
90.0
  0
ARC
  5
2E2
100
AcDbEntity
  8
1
  6
CONTINUOUS
 62
           3
100
AcDbCircle
 10
735.007331997556
 20
12422.958245694839
 40
1.0
100
AcDbArc
 50
180.0
 51
-90.0
  0
ARC
  5
2E1
100
AcDbEntity
  8
1
  6
CONTINUOUS
 62
           3
100
AcDbCircle
 10
735.007331997556
 20
12438.958245694839
 40
1.0
100
AcDbArc
 50
90.0
 51
180.0
  0
ARC
  5
2E0
100
AcDbEntity
  8
1
  6
CONTINUOUS
 62
           3
100
AcDbCircle
 10
732.007331997556
 20
12437.958245694839
 40
2.0
100
AcDbArc
 50
-90.0
 51
0.0
  0
ARC
  5
2DF
100
AcDbEntity
  8
1
  6
CONTINUOUS
 62
           3
100
AcDbCircle
 10
688.007331997556
 20
12446.958245694839
 40
3.999999999997
100
AcDbArc
 50
138.590377890781
 51
180.0
  0
ARC
  5
2DE
100
AcDbEntity
  8
1
  6
CONTINUOUS
 62
           3
100
AcDbCircle
 10
508.564788441496
 20
12280.905391497859
 40
2.6
100
AcDbArc
 50
90.0
 51
-90.0
  0
ARC
  5
2DD
100
AcDbEntity
  8
1
  6
CONTINUOUS
 62
           3
100
AcDbCircle
 10
515.364788441496
 20
12280.905391497859
 40
2.6
100
AcDbArc
 50
-90.0
 51
90.0
  0
ARC
  5
2DC
100
AcDbEntity
  8
1
  6
CONTINUOUS
 62
           3
100
AcDbCircle
 10
414.36895149753
 20
12283.309554553891
 40
2.600000000002
100
AcDbArc
 50
45.000000000058
 51
134.999999999944
  0
ARC
  5
2DB
100
AcDbEntity
  8
1
  6
CONTINUOUS
 62
           3
100
AcDbCircle
 10
414.36895149753
 20
12283.309554553891
 40
2.599999999998
100
AcDbArc
 50
-44.999999999937
 51
45.000000000058
  0
ARC
  5
2DA
100
AcDbEntity
  8
1
  6
CONTINUOUS
 62
           3
100
AcDbCircle
 10
409.560625385461
 20
12278.501228441821
 40
2.599999999997
100
AcDbArc
 50
-135.000000000059
 51
-44.999999999935
  0
ARC
  5
2D9
100
AcDbEntity
  8
1
  6
CONTINUOUS
 62
           3
100
AcDbCircle
 10
409.560625385461
 20
12278.501228441821
 40
2.600000000003
100
AcDbArc
 50
134.999999999946
 51
-135.000000000059
  0
ARC
  5
2D8
100
AcDbEntity
  8
1
  6
CONTINUOUS
 62
           3
100
AcDbCircle
 10
422.060625385461
 20
12266.001228441821
 40
2.600000000002
100
AcDbArc
 50
134.999999999942
 51
-135.000000000056
  0
ARC
  5
2D7
100
AcDbEntity
  8
1
  6
CONTINUOUS
 62
           3
100
AcDbCircle
 10
422.060625385461
 20
12266.001228441821
 40
2.599999999997
100
AcDbArc
 50
-135.000000000056
 51
-44.999999999935
  0
ARC
  5
2D6
100
AcDbEntity
  8
1
  6
CONTINUOUS
 62
           3
100
AcDbCircle
 10
426.86895149753
 20
12270.809554553891
 40
2.599999999998
100
AcDbArc
 50
-44.999999999937
 51
45.000000000058
  0
ARC
  5
2D5
100
AcDbEntity
  8
1
  6
CONTINUOUS
 62
           3
100
AcDbCircle
 10
426.86895149753
 20
12270.809554553891
 40
2.600000000002
100
AcDbArc
 50
45.000000000058
 51
134.999999999944
  0
ARC
  5
2D4
100
AcDbEntity
  8
1
  6
CONTINUOUS
 62
           3
100
AcDbCircle
 10
502.864788441495
 20
12268.405391497859
 40
2.6
100
AcDbArc
 50
0.0
 51
90.0
  0
ARC
  5
2D3
100
AcDbEntity
  8
1
  6
CONTINUOUS
 62
           3
100
AcDbCircle
 10
502.864788441495
 20
12268.405391497859
 40
2.6
100
AcDbArc
 50
-90.0
 51
0.0
  0
ARC
  5
2D2
100
AcDbEntity
  8
1
  6
CONTINUOUS
 62
           3
100
AcDbCircle
 10
496.064788441496
 20
12268.405391497859
 40
2.6
100
AcDbArc
 50
180.0
 51
-90.0
  0
ARC
  5
2D1
100
AcDbEntity
  8
1
  6
CONTINUOUS
 62
           3
100
AcDbCircle
 10
496.064788441496
 20
12268.405391497859
 40
2.6
100
AcDbArc
 50
90.0
 51
180.0
  0
ARC
  5
2D0
100
AcDbEntity
  8
1
  6
CONTINUOUS
 62
           3
100
AcDbCircle
 10
411.964788441495
 20
12184.305391497859
 40
2.6
100
AcDbArc
 50
90.000000000011
 51
180.0
  0
ARC
  5
2CF
100
AcDbEntity
  8
1
  6
CONTINUOUS
 62
           3
100
AcDbCircle
 10
411.964788441495
 20
12184.305391497859
 40
2.600000000001
100
AcDbArc
 50
0.0
 51
90.000000000011
  0
ARC
  5
2CE
100
AcDbEntity
  8
1
  6
CONTINUOUS
 62
           3
100
AcDbCircle
 10
411.964788441494
 20
12177.50539149786
 40
2.6
100
AcDbArc
 50
-90.0
 51
0.0
  0
ARC
  5
2CD
100
AcDbEntity
  8
1
  6
CONTINUOUS
 62
           3
100
AcDbCircle
 10
411.964788441494
 20
12177.50539149786
 40
2.6
100
AcDbArc
 50
180.0
 51
-90.0
  0
ARC
  5
2CC
100
AcDbEntity
  8
1
  6
CONTINUOUS
 62
           3
100
AcDbCircle
 10
424.464788441494
 20
12190.00539149786
 40
2.6
100
AcDbArc
 50
180.0
 51
-90.0
  0
ARC
  5
2CB
100
AcDbEntity
  8
1
  6
CONTINUOUS
 62
           3
100
AcDbCircle
 10
424.464788441494
 20
12190.00539149786
 40
2.6
100
AcDbArc
 50
-90.0
 51
0.0
  0
ARC
  5
2CA
100
AcDbEntity
  8
1
  6
CONTINUOUS
 62
           3
100
AcDbCircle
 10
424.464788441495
 20
12196.805391497859
 40
2.600000000001
100
AcDbArc
 50
0.0
 51
90.000000000011
  0
ARC
  5
2C9
100
AcDbEntity
  8
1
  6
CONTINUOUS
 62
           3
100
AcDbCircle
 10
424.464788441495
 20
12196.805391497859
 40
2.6
100
AcDbArc
 50
90.000000000011
 51
180.0
  0
ARC
  5
2C8
100
AcDbEntity
  8
1
  6
CONTINUOUS
 62
           6
100
AcDbCircle
 10
452.964788441496
 20
12244.405391497859
 40
0.5
100
AcDbArc
 50
180.0
 51
-90.0
  0
ARC
  5
2C7
100
AcDbEntity
  8
1
  6
CONTINUOUS
 62
           6
100
AcDbCircle
 10
452.964788441496
 20
12242.405391497859
 40
0.5
100
AcDbArc
 50
90.0
 51
180.0
  0
ARC
  5
2C6
100
AcDbEntity
  8
1
  6
CONTINUOUS
 62
           6
100
AcDbCircle
 10
450.964788441496
 20
12242.405391497859
 40
0.5
100
AcDbArc
 50
0.0
 51
90.0
  0
ARC
  5
2C5
100
AcDbEntity
  8
1
  6
CONTINUOUS
 62
           6
100
AcDbCircle
 10
450.964788441496
 20
12244.405391497859
 40
0.5
100
AcDbArc
 50
-90.0
 51
0.0
  0
ARC
  5
2C4
100
AcDbEntity
  8
1
  6
CONTINUOUS
 62
           6
100
AcDbCircle
 10
472.964788441496
 20
12244.405391497859
 40
0.5
100
AcDbArc
 50
180.0
 51
-90.0
  0
ARC
  5
2C3
100
AcDbEntity
  8
1
  6
CONTINUOUS
 62
           6
100
AcDbCircle
 10
472.964788441496
 20
12242.405391497859
 40
0.5
100
AcDbArc
 50
90.0
 51
180.0
  0
ARC
  5
2C2
100
AcDbEntity
  8
1
  6
CONTINUOUS
 62
           6
100
AcDbCircle
 10
470.964788441496
 20
12242.405391497859
 40
0.5
100
AcDbArc
 50
0.0
 51
90.0
  0
ARC
  5
2C1
100
AcDbEntity
  8
1
  6
CONTINUOUS
 62
           6
100
AcDbCircle
 10
470.964788441496
 20
12244.405391497859
 40
0.5
100
AcDbArc
 50
-90.0
 51
0.0
  0
ARC
  5
2C0
100
AcDbEntity
  8
1
  6
CONTINUOUS
 62
           6
100
AcDbCircle
 10
470.964788441496
 20
12217.405391497859
 40
0.5
100
AcDbArc
 50
0.0
 51
90.0
  0
ARC
  5
2BF
100
AcDbEntity
  8
1
  6
CONTINUOUS
 62
           6
100
AcDbCircle
 10
470.964788441496
 20
12219.405391497859
 40
0.5
100
AcDbArc
 50
-90.0
 51
0.0
  0
ARC
  5
2BE
100
AcDbEntity
  8
1
  6
CONTINUOUS
 62
           6
100
AcDbCircle
 10
472.964788441496
 20
12219.405391497859
 40
0.5
100
AcDbArc
 50
180.0
 51
-90.0
  0
ARC
  5
2BD
100
AcDbEntity
  8
1
  6
CONTINUOUS
 62
           6
100
AcDbCircle
 10
472.964788441496
 20
12217.405391497859
 40
0.5
100
AcDbArc
 50
90.0
 51
180.0
  0
ARC
  5
2BC
100
AcDbEntity
  8
1
  6
CONTINUOUS
 62
           6
100
AcDbCircle
 10
450.964788441496
 20
12217.405391497859
 40
0.5
100
AcDbArc
 50
0.0
 51
90.0
  0
ARC
  5
2BB
100
AcDbEntity
  8
1
  6
CONTINUOUS
 62
           6
100
AcDbCircle
 10
450.964788441496
 20
12219.405391497859
 40
0.5
100
AcDbArc
 50
-90.0
 51
0.0
  0
ARC
  5
2BA
100
AcDbEntity
  8
1
  6
CONTINUOUS
 62
           6
100
AcDbCircle
 10
452.964788441496
 20
12219.405391497859
 40
0.5
100
AcDbArc
 50
180.0
 51
-90.0
  0
ARC
  5
2B9
100
AcDbEntity
  8
1
  6
CONTINUOUS
 62
           6
100
AcDbCircle
 10
452.964788441496
 20
12217.405391497859
 40
0.5
100
AcDbArc
 50
90.0
 51
180.0
  0
ARC
  5
2B8
100
AcDbEntity
  8
1
  6
CONTINUOUS
 62
           3
100
AcDbCircle
 10
764.005547523771
 20
12318.405391497859
 40
5.0
100
AcDbArc
 50
90.0
 51
180.0
  0
ARC
  5
2B7
100
AcDbEntity
  8
1
  6
CONTINUOUS
 62
           3
100
AcDbCircle
 10
766.005547523771
 20
12011.405391497859
 40
3.0
100
AcDbArc
 50
-90.0
 51
0.0
  0
ARC
  5
2B6
100
AcDbEntity
  8
1
  6
CONTINUOUS
 62
           3
100
AcDbCircle
 10
754.005547523771
 20
12363.958245694839
 40
5.0
100
AcDbArc
 50
-90.0
 51
0.0
  0
ARC
  5
2B5
100
AcDbEntity
  8
1
  6
CONTINUOUS
 62
           3
100
AcDbCircle
 10
754.005547523771
 20
12497.958245694839
 40
5.0
100
AcDbArc
 50
0.0
 51
90.0
  0
ARC
  5
2B4
100
AcDbEntity
  8
1
  6
CONTINUOUS
 62
           3
100
AcDbCircle
 10
674.005547523771
 20
12497.958245694839
 40
5.0
100
AcDbArc
 50
90.0
 51
180.0
  0
ARC
  5
2B3
100
AcDbEntity
  8
1
  6
CONTINUOUS
 62
           3
100
AcDbCircle
 10
674.005547523771
 20
12363.958245694839
 40
5.0
100
AcDbArc
 50
180.0
 51
-90.0
  0
ARC
  5
2B2
100
AcDbEntity
  8
1
  6
CONTINUOUS
 62
           3
100
AcDbCircle
 10
766.005547523771
 20
12403.958245694839
 40
3.0
100
AcDbArc
 50
-90.0
 51
0.0
  0
ARC
  5
2B1
100
AcDbEntity
  8
1
  6
CONTINUOUS
 62
           3
100
AcDbCircle
 10
766.005547523771
 20
12457.958245694839
 40
3.0
100
AcDbArc
 50
0.0
 51
90.0
  0
ARC
  5
2B0
100
AcDbEntity
  8
1
  6
CONTINUOUS
 62
           3
100
AcDbCircle
 10
1037.510660692628
 20
12259.405391497859
 40
0.5
100
AcDbArc
 50
-90.0
 51
0.0
  0
ARC
  5
2AF
100
AcDbEntity
  8
1
  6
CONTINUOUS
 62
           3
100
AcDbCircle
 10
1039.510660692628
 20
12259.405391497859
 40
0.5
100
AcDbArc
 50
180.0
 51
-90.0
  0
ARC
  5
2AE
100
AcDbEntity
  8
1
  6
CONTINUOUS
 62
           3
100
AcDbCircle
 10
1039.510660692628
 20
12257.405391497859
 40
0.5
100
AcDbArc
 50
90.0
 51
180.0
  0
ARC
  5
2AD
100
AcDbEntity
  8
1
  6
CONTINUOUS
 62
           3
100
AcDbCircle
 10
1037.510660692628
 20
12257.405391497859
 40
0.5
100
AcDbArc
 50
0.0
 51
90.0
  0
ARC
  5
2AC
100
AcDbEntity
  8
1
  6
CONTINUOUS
 62
           3
100
AcDbCircle
 10
1009.510660692628
 20
12257.405391497859
 40
0.5
100
AcDbArc
 50
90.0
 51
180.0
  0
ARC
  5
2AB
100
AcDbEntity
  8
1
  6
CONTINUOUS
 62
           3
100
AcDbCircle
 10
1007.510660692628
 20
12257.405391497859
 40
0.5
100
AcDbArc
 50
0.0
 51
90.0
  0
ARC
  5
2AA
100
AcDbEntity
  8
1
  6
CONTINUOUS
 62
           3
100
AcDbCircle
 10
1007.510660692628
 20
12259.405391497859
 40
0.5
100
AcDbArc
 50
-90.0
 51
0.0
  0
ARC
  5
2A9
100
AcDbEntity
  8
1
  6
CONTINUOUS
 62
           3
100
AcDbCircle
 10
1009.510660692628
 20
12259.405391497859
 40
0.5
100
AcDbArc
 50
180.0
 51
-90.0
  0
ARC
  5
2A8
100
AcDbEntity
  8
1
  6
CONTINUOUS
 62
           3
100
AcDbCircle
 10
1009.510660692628
 20
12202.405391497859
 40
0.5
100
AcDbArc
 50
90.0
 51
180.0
  0
ARC
  5
2A7
100
AcDbEntity
  8
1
  6
CONTINUOUS
 62
           3
100
AcDbCircle
 10
1007.510660692628
 20
12202.405391497859
 40
0.5
100
AcDbArc
 50
0.0
 51
90.0
  0
ARC
  5
2A6
100
AcDbEntity
  8
1
  6
CONTINUOUS
 62
           3
100
AcDbCircle
 10
1007.510660692628
 20
12204.405391497859
 40
0.5
100
AcDbArc
 50
-90.0
 51
0.0
  0
ARC
  5
2A5
100
AcDbEntity
  8
1
  6
CONTINUOUS
 62
           3
100
AcDbCircle
 10
1009.510660692628
 20
12204.405391497859
 40
0.5
100
AcDbArc
 50
180.0
 51
-90.0
  0
ARC
  5
2A4
100
AcDbEntity
  8
1
  6
CONTINUOUS
 62
           3
100
AcDbCircle
 10
1037.510660692628
 20
12204.405391497859
 40
0.5
100
AcDbArc
 50
-90.0
 51
0.0
  0
ARC
  5
2A3
100
AcDbEntity
  8
1
  6
CONTINUOUS
 62
           3
100
AcDbCircle
 10
1039.510660692628
 20
12204.405391497859
 40
0.5
100
AcDbArc
 50
180.0
 51
-90.0
  0
ARC
  5
2A2
100
AcDbEntity
  8
1
  6
CONTINUOUS
 62
           3
100
AcDbCircle
 10
1039.510660692628
 20
12202.405391497859
 40
0.5
100
AcDbArc
 50
90.0
 51
180.0
  0
ARC
  5
2A1
100
AcDbEntity
  8
1
  6
CONTINUOUS
 62
           3
100
AcDbCircle
 10
1037.510660692628
 20
12202.405391497859
 40
0.5
100
AcDbArc
 50
0.0
 51
90.0
  0
ARC
  5
2A0
100
AcDbEntity
  8
1
  6
CONTINUOUS
 62
           3
100
AcDbCircle
 10
757.505547523771
 20
12407.458245694839
 40
1.5
100
AcDbArc
 50
180.0
 51
-90.0
  0
ARC
  5
29F
100
AcDbEntity
  8
1
  6
CONTINUOUS
 62
           3
100
AcDbCircle
 10
757.505547523771
 20
12454.458245694839
 40
1.5
100
AcDbArc
 50
90.0
 51
180.0
  0
ARC
  5
29E
100
AcDbEntity
  8
1
  6
CONTINUOUS
 62
           3
100
AcDbCircle
 10
751.005547523771
 20
12444.958245694839
 40
5.0
100
AcDbArc
 50
-90.0
 51
0.0
  0
ARC
  5
29D
100
AcDbEntity
  8
1
  6
CONTINUOUS
 62
           3
100
AcDbCircle
 10
751.005547523771
 20
12416.958245694839
 40
5.0
100
AcDbArc
 50
0.0
 51
90.0
  0
ARC
  5
29C
100
AcDbEntity
  8
1
  6
CONTINUOUS
 62
           3
100
AcDbCircle
 10
755.009116471344
 20
12240.855391497849
 40
1.0
100
AcDbArc
 50
0.0
 51
90.0
  0
ARC
  5
29B
100
AcDbEntity
  8
1
  6
CONTINUOUS
 62
           3
100
AcDbCircle
 10
737.007331997557
 20
12254.40539149785
 40
1.000000000009
100
AcDbArc
 50
90.0
 51
180.0
  0
ARC
  5
29A
100
AcDbEntity
  8
1
  6
CONTINUOUS
 62
           3
100
AcDbCircle
 10
737.007331997557
 20
12242.855391497849
 40
1.0
100
AcDbArc
 50
180.0
 51
-90.0
  0
ARC
  5
299
100
AcDbEntity
  8
1
  6
CONTINUOUS
 62
           3
100
AcDbCircle
 10
752.005547523771
 20
12259.40539149785
 40
4.0
100
AcDbArc
 50
-90.0
 51
0.0
  0
ARC
  5
298
100
AcDbEntity
  8
1
  6
CONTINUOUS
 62
           3
100
AcDbCircle
 10
755.009116471344
 20
12220.955391497861
 40
1.0
100
AcDbArc
 50
-90.0
 51
0.0
  0
ARC
  5
297
100
AcDbEntity
  8
1
  6
CONTINUOUS
 62
           3
100
AcDbCircle
 10
737.007331997558
 20
12207.405391497859
 40
1.0
100
AcDbArc
 50
180.0
 51
-90.000000000013
  0
ARC
  5
296
100
AcDbEntity
  8
1
  6
CONTINUOUS
 62
           3
100
AcDbCircle
 10
737.007331997557
 20
12218.955391497861
 40
1.0
100
AcDbArc
 50
90.0
 51
180.0
  0
ARC
  5
295
100
AcDbEntity
  8
1
  6
CONTINUOUS
 62
           3
100
AcDbCircle
 10
752.005547523771
 20
12202.405391497859
 40
4.0
100
AcDbArc
 50
0.0
 51
90.0
  0
ARC
  5
294
100
AcDbEntity
  8
1
  6
CONTINUOUS
 62
           3
100
AcDbCircle
 10
1061.010660692628
 20
12196.805391497859
 40
2.600000000001
100
AcDbArc
 50
0.0
 51
89.99999999998
  0
ARC
  5
293
100
AcDbEntity
  8
1
  6
CONTINUOUS
 62
           3
100
AcDbCircle
 10
1061.010660692628
 20
12196.805391497859
 40
2.6
100
AcDbArc
 50
89.99999999998
 51
180.0
  0
ARC
  5
292
100
AcDbEntity
  8
1
  6
CONTINUOUS
 62
           3
100
AcDbCircle
 10
1061.010660692629
 20
12190.00539149786
 40
2.600000000001
100
AcDbArc
 50
180.0
 51
-90.0
  0
ARC
  5
291
100
AcDbEntity
  8
1
  6
CONTINUOUS
 62
           3
100
AcDbCircle
 10
1061.010660692629
 20
12190.00539149786
 40
2.6
100
AcDbArc
 50
-90.0
 51
0.0
  0
ARC
  5
290
100
AcDbEntity
  8
1
  6
CONTINUOUS
 62
           3
100
AcDbCircle
 10
1073.510660692629
 20
12177.50539149786
 40
2.6
100
AcDbArc
 50
-90.0
 51
0.0
  0
ARC
  5
28F
100
AcDbEntity
  8
1
  6
CONTINUOUS
 62
           3
100
AcDbCircle
 10
1073.510660692629
 20
12177.50539149786
 40
2.600000000001
100
AcDbArc
 50
180.0
 51
-90.0
  0
ARC
  5
28E
100
AcDbEntity
  8
1
  6
CONTINUOUS
 62
           3
100
AcDbCircle
 10
1073.510660692628
 20
12184.305391497859
 40
2.6
100
AcDbArc
 50
89.99999999998
 51
180.0
  0
ARC
  5
28D
100
AcDbEntity
  8
1
  6
CONTINUOUS
 62
           3
100
AcDbCircle
 10
1073.510660692628
 20
12184.305391497859
 40
2.600000000001
100
AcDbArc
 50
0.0
 51
89.99999999998
  0
ARC
  5
28C
100
AcDbEntity
  8
1
  6
CONTINUOUS
 62
           3
100
AcDbCircle
 10
989.410660692628
 20
12268.405391497859
 40
2.6
100
AcDbArc
 50
0.0
 51
90.0
  0
ARC
  5
28B
100
AcDbEntity
  8
1
  6
CONTINUOUS
 62
           3
100
AcDbCircle
 10
989.410660692628
 20
12268.405391497859
 40
2.6
100
AcDbArc
 50
-90.0
 51
0.0
  0
ARC
  5
28A
100
AcDbEntity
  8
1
  6
CONTINUOUS
 62
           3
100
AcDbCircle
 10
982.610660692628
 20
12268.405391497859
 40
2.6
100
AcDbArc
 50
180.0
 51
-90.0
  0
ARC
  5
289
100
AcDbEntity
  8
1
  6
CONTINUOUS
 62
           3
100
AcDbCircle
 10
982.610660692628
 20
12268.405391497859
 40
2.6
100
AcDbArc
 50
90.0
 51
180.0
  0
ARC
  5
288
100
AcDbEntity
  8
1
  6
CONTINUOUS
 62
           3
100
AcDbCircle
 10
1058.606497636594
 20
12270.809554553891
 40
2.600000000002
100
AcDbArc
 50
45.000000000057
 51
134.999999999943
  0
ARC
  5
287
100
AcDbEntity
  8
1
  6
CONTINUOUS
 62
           3
100
AcDbCircle
 10
1058.606497636594
 20
12270.809554553891
 40
2.600000000002
100
AcDbArc
 50
134.999999999943
 51
-135.000000000071
  0
ARC
  5
286
100
AcDbEntity
  8
1
  6
CONTINUOUS
 62
           3
100
AcDbCircle
 10
1063.414823748662
 20
12266.001228441821
 40
2.599999999997
100
AcDbArc
 50
-135.000000000056
 51
-44.999999999943
  0
ARC
  5
285
100
AcDbEntity
  8
1
  6
CONTINUOUS
 62
           3
100
AcDbCircle
 10
1063.414823748662
 20
12266.001228441821
 40
2.599999999997
100
AcDbArc
 50
-44.999999999943
 51
45.000000000057
  0
ARC
  5
284
100
AcDbEntity
  8
1
  6
CONTINUOUS
 62
           3
100
AcDbCircle
 10
1075.914823748662
 20
12278.501228441821
 40
2.599999999997
100
AcDbArc
 50
-44.999999999943
 51
45.000000000057
  0
ARC
  5
283
100
AcDbEntity
  8
1
  6
CONTINUOUS
 62
           3
100
AcDbCircle
 10
1075.914823748662
 20
12278.501228441821
 40
2.599999999997
100
AcDbArc
 50
-135.000000000056
 51
-44.999999999943
  0
ARC
  5
282
100
AcDbEntity
  8
1
  6
CONTINUOUS
 62
           3
100
AcDbCircle
 10
1071.106497636594
 20
12283.309554553891
 40
2.600000000002
100
AcDbArc
 50
134.999999999943
 51
-135.000000000071
  0
ARC
  5
281
100
AcDbEntity
  8
1
  6
CONTINUOUS
 62
           3
100
AcDbCircle
 10
1071.106497636594
 20
12283.309554553891
 40
2.600000000002
100
AcDbArc
 50
45.000000000057
 51
134.999999999943
  0
ARC
  5
280
100
AcDbEntity
  8
1
  6
CONTINUOUS
 62
           3
100
AcDbCircle
 10
970.110660692628
 20
12280.905391497859
 40
2.6
100
AcDbArc
 50
90.0
 51
-90.0
  0
ARC
  5
27F
100
AcDbEntity
  8
1
  6
CONTINUOUS
 62
           3
100
AcDbCircle
 10
976.910660692628
 20
12280.905391497859
 40
2.6
100
AcDbArc
 50
-90.0
 51
90.0
  0
CIRCLE
  5
27E
100
AcDbEntity
  8
1
  6
CONTINUOUS
 62
           3
100
AcDbCircle
 10
446.964788441496
 20
12285.905391497859
 40
2.5
  0
CIRCLE
  5
27D
100
AcDbEntity
  8
1
  6
CONTINUOUS
 62
           3
100
AcDbCircle
 10
476.964788441496
 20
12285.905391497859
 40
2.5
  0
CIRCLE
  5
27C
100
AcDbEntity
  8
1
  6
DOTTED
 62
           1
100
AcDbCircle
 10
476.964788441496
 20
12258.405391497859
 40
2.5
  0
CIRCLE
  5
27B
100
AcDbEntity
  8
1
  6
DOTTED
 62
           1
100
AcDbCircle
 10
446.964788441496
 20
12258.405391497859
 40
2.5
  0
CIRCLE
  5
27A
100
AcDbEntity
  8
1
  6
DOTTED
 62
           1
100
AcDbCircle
 10
446.964788441496
 20
12230.905391497859
 40
2.5
  0
CIRCLE
  5
279
100
AcDbEntity
  8
1
  6
DOTTED
 62
           1
100
AcDbCircle
 10
476.964788441496
 20
12230.905391497859
 40
2.5
  0
CIRCLE
  5
278
100
AcDbEntity
  8
1
  6
DOTTED
 62
           1
100
AcDbCircle
 10
476.964788441496
 20
12203.405391497859
 40
2.5
  0
CIRCLE
  5
277
100
AcDbEntity
  8
1
  6
DOTTED
 62
           1
100
AcDbCircle
 10
446.964788441496
 20
12203.405391497859
 40
2.5
  0
CIRCLE
  5
276
100
AcDbEntity
  8
1
  6
CONTINUOUS
 62
           3
100
AcDbCircle
 10
446.964788441496
 20
12175.905391497859
 40
2.5
  0
CIRCLE
  5
275
100
AcDbEntity
  8
1
  6
CONTINUOUS
 62
           3
100
AcDbCircle
 10
476.964788441496
 20
12175.905391497859
 40
2.5
  0
CIRCLE
  5
274
100
AcDbEntity
  8
1
  6
CONTINUOUS
 62
           3
100
AcDbCircle
 10
511.964788441496
 20
12180.905391497859
 40
2.6
  0
CIRCLE
  5
273
100
AcDbEntity
  8
1
  6
CONTINUOUS
 62
           3
100
AcDbCircle
 10
499.464788441496
 20
12193.405391497859
 40
2.6
  0
CIRCLE
  5
272
100
AcDbEntity
  8
1
  6
CONTINUOUS
 62
           3
100
AcDbCircle
 10
451.964788441496
 20
12243.405391497859
 40
3.5
  0
CIRCLE
  5
271
100
AcDbEntity
  8
1
  6
CONTINUOUS
 62
           3
100
AcDbCircle
 10
471.964788441496
 20
12243.405391497859
 40
3.5
  0
CIRCLE
  5
270
100
AcDbEntity
  8
1
  6
CONTINUOUS
 62
           3
100
AcDbCircle
 10
471.964788441496
 20
12218.405391497859
 40
3.5
  0
CIRCLE
  5
26F
100
AcDbEntity
  8
1
  6
CONTINUOUS
 62
           3
100
AcDbCircle
 10
451.964788441496
 20
12218.405391497859
 40
3.5
  0
CIRCLE
  5
26E
100
AcDbEntity
  8
1
  6
CONTINUOUS
 62
           3
100
AcDbCircle
 10
1023.510660692628
 20
12050.405391497859
 40
15.0
  0
CIRCLE
  5
26D
100
AcDbEntity
  8
1
  6
CONTINUOUS
 62
           3
100
AcDbCircle
 10
1038.510660692628
 20
12093.405391497859
 40
2.5
  0
CIRCLE
  5
26C
100
AcDbEntity
  8
1
  6
CONTINUOUS
 62
           3
100
AcDbCircle
 10
1008.510660692628
 20
12093.405391497859
 40
2.5
  0
CIRCLE
  5
26B
100
AcDbEntity
  8
1
  6
CONTINUOUS
 62
           3
100
AcDbCircle
 10
1008.510660692628
 20
12120.905391497859
 40
2.5
  0
CIRCLE
  5
26A
100
AcDbEntity
  8
1
  6
CONTINUOUS
 62
           3
100
AcDbCircle
 10
1038.510660692628
 20
12120.905391497859
 40
2.5
  0
CIRCLE
  5
269
100
AcDbEntity
  8
1
  6
CONTINUOUS
 62
           3
100
AcDbCircle
 10
1008.510660692628
 20
12148.405391497859
 40
2.5
  0
CIRCLE
  5
268
100
AcDbEntity
  8
1
  6
CONTINUOUS
 62
           3
100
AcDbCircle
 10
1038.510660692628
 20
12148.405391497859
 40
2.5
  0
CIRCLE
  5
267
100
AcDbEntity
  8
1
  6
CONTINUOUS
 62
           3
100
AcDbCircle
 10
1008.510660692628
 20
12175.905391497859
 40
2.5
  0
CIRCLE
  5
266
100
AcDbEntity
  8
1
  6
CONTINUOUS
 62
           3
100
AcDbCircle
 10
1038.510660692628
 20
12175.905391497859
 40
2.5
  0
CIRCLE
  5
265
100
AcDbEntity
  8
1
  6
CONTINUOUS
 62
           3
100
AcDbCircle
 10
1008.510660692628
 20
12230.905391497859
 40
2.5
  0
CIRCLE
  5
264
100
AcDbEntity
  8
1
  6
CONTINUOUS
 62
           3
100
AcDbCircle
 10
1038.510660692628
 20
12230.905391497859
 40
2.5
  0
CIRCLE
  5
263
100
AcDbEntity
  8
1
  6
CONTINUOUS
 62
           3
100
AcDbCircle
 10
1008.510660692628
 20
12285.905391497859
 40
2.5
  0
CIRCLE
  5
262
100
AcDbEntity
  8
1
  6
CONTINUOUS
 62
           3
100
AcDbCircle
 10
1038.510660692628
 20
12285.905391497859
 40
2.5
  0
CIRCLE
  5
261
100
AcDbEntity
  8
1
  6
CONTINUOUS
 62
           3
100
AcDbCircle
 10
1008.510660692628
 20
12313.405391497859
 40
2.5
  0
CIRCLE
  5
260
100
AcDbEntity
  8
1
  6
CONTINUOUS
 62
           3
100
AcDbCircle
 10
1038.510660692628
 20
12313.405391497859
 40
2.5
  0
CIRCLE
  5
25F
100
AcDbEntity
  8
1
  6
DOTTED
 62
           1
100
AcDbCircle
 10
739.005547523771
 20
12430.958245694839
 40
3.75
  0
CIRCLE
  5
25E
100
AcDbEntity
  8
1
  6
CONTINUOUS
 62
           3
100
AcDbCircle
 10
739.005547523771
 20
12488.458245694839
 40
3.75
  0
CIRCLE
  5
25D
100
AcDbEntity
  8
1
  6
CONTINUOUS
 62
           3
100
AcDbCircle
 10
739.005547523771
 20
12373.458245694839
 40
3.75
  0
CIRCLE
  5
25C
100
AcDbEntity
  8
1
  6
CONTINUOUS
 62
           3
100
AcDbCircle
 10
476.964788441496
 20
12313.405391497859
 40
2.5
  0
CIRCLE
  5
25B
100
AcDbEntity
  8
1
  6
CONTINUOUS
 62
           3
100
AcDbCircle
 10
446.964788441496
 20
12313.405391497859
 40
2.5
  0
CIRCLE
  5
25A
100
AcDbEntity
  8
1
  6
CONTINUOUS
 62
           3
100
AcDbCircle
 10
476.964788441496
 20
12148.405391497859
 40
2.5
  0
CIRCLE
  5
259
100
AcDbEntity
  8
1
  6
CONTINUOUS
 62
           3
100
AcDbCircle
 10
446.964788441496
 20
12148.405391497859
 40
2.5
  0
CIRCLE
  5
258
100
AcDbEntity
  8
1
  6
CONTINUOUS
 62
           3
100
AcDbCircle
 10
476.964788441496
 20
12120.905391497859
 40
2.5
  0
CIRCLE
  5
257
100
AcDbEntity
  8
1
  6
CONTINUOUS
 62
           3
100
AcDbCircle
 10
446.964788441496
 20
12120.905391497859
 40
2.5
  0
CIRCLE
  5
256
100
AcDbEntity
  8
1
  6
CONTINUOUS
 62
           3
100
AcDbCircle
 10
446.964788441496
 20
12093.405391497859
 40
2.5
  0
CIRCLE
  5
255
100
AcDbEntity
  8
1
  6
CONTINUOUS
 62
           3
100
AcDbCircle
 10
476.964788441496
 20
12093.405391497859
 40
2.5
  0
CIRCLE
  5
254
100
AcDbEntity
  8
1
  6
CONTINUOUS
 62
           3
100
AcDbCircle
 10
461.964788441496
 20
12050.405391497859
 40
15.0
  0
CIRCLE
  5
253
100
AcDbEntity
  8
1
  6
CONTINUOUS
 62
           3
100
AcDbCircle
 10
1038.510660692628
 20
12258.405391497859
 40
5.0
  0
CIRCLE
  5
252
100
AcDbEntity
  8
1
  6
CONTINUOUS
 62
           3
100
AcDbCircle
 10
1008.510660692628
 20
12258.405391497859
 40
5.0
  0
CIRCLE
  5
251
100
AcDbEntity
  8
1
  6
CONTINUOUS
 62
           3
100
AcDbCircle
 10
1008.510660692628
 20
12203.405391497859
 40
5.0
  0
CIRCLE
  5
250
100
AcDbEntity
  8
1
  6
CONTINUOUS
 62
           3
100
AcDbCircle
 10
1038.510660692628
 20
12203.405391497859
 40
5.0
  0
CIRCLE
  5
24F
100
AcDbEntity
  8
1
  6
DOTTED
 62
           1
100
AcDbCircle
 10
1008.510660692628
 20
12258.405391497859
 40
2.5
  0
CIRCLE
  5
24E
100
AcDbEntity
  8
1
  6
DOTTED
 62
           1
100
AcDbCircle
 10
1038.510660692628
 20
12258.405391497859
 40
2.5
  0
CIRCLE
  5
24D
100
AcDbEntity
  8
1
  6
DOTTED
 62
           1
100
AcDbCircle
 10
1038.510660692628
 20
12203.405391497859
 40
2.5
  0
CIRCLE
  5
24C
100
AcDbEntity
  8
1
  6
DOTTED
 62
           1
100
AcDbCircle
 10
1008.510660692628
 20
12203.405391497859
 40
2.5
  0
CIRCLE
  5
24B
100
AcDbEntity
  8
1
  6
DOTTED
 62
           1
100
AcDbCircle
 10
745.007331997556
 20
12430.958245694839
 40
6.5
  0
CIRCLE
  5
24A
100
AcDbEntity
  8
1
  6
CONTINUOUS
 62
           3
100
AcDbCircle
 10
745.007331997556
 20
12430.958245694839
 40
7.0
  0
CIRCLE
  5
249
100
AcDbEntity
  8
1
  6
CONTINUOUS
 62
           3
100
AcDbCircle
 10
986.010660692628
 20
12193.405391497859
 40
2.6
  0
CIRCLE
  5
248
100
AcDbEntity
  8
1
  6
CONTINUOUS
 62
           3
100
AcDbCircle
 10
973.510660692628
 20
12180.905391497859
 40
2.6
  0
ARC
  5
247
100
AcDbEntity
  8
1
  6
CONTINUOUS
 62
           3
100
AcDbCircle
 10
714.007331997558
 20
12230.905391497859
 40
19.5
100
AcDbArc
 50
-90.0
 51
-63.823047828333
  0
ARC
  5
246
100
AcDbEntity
  8
1
  6
CONTINUOUS
 62
           3
100
AcDbCircle
 10
714.007331997558
 20
12230.905391497859
 40
19.5
100
AcDbArc
 50
-63.823047828333
 51
63.823047828333
  0
ARC
  5
245
100
AcDbEntity
  8
1
  6
CONTINUOUS
 62
           3
100
AcDbCircle
 10
714.007331997558
 20
12230.905391497859
 40
19.5
100
AcDbArc
 50
63.823047828333
 51
90.0
  0
ARC
  5
244
100
AcDbEntity
  8
1
  6
CONTINUOUS
 62
           3
100
AcDbCircle
 10
745.007331997558
 20
12206.65539149785
 40
49.25
100
AcDbArc
 50
81.82876644005
 51
98.171233559949
  0
ARC
  5
243
100
AcDbEntity
  8
1
  6
CONTINUOUS
 62
           3
100
AcDbCircle
 10
461.964788441496
 20
12270.905391497859
 40
9.999999999999
100
AcDbArc
 50
-124.403401743824
 51
-55.596598256175
  0
ARC
  5
242
100
AcDbEntity
  8
1
  6
CONTINUOUS
 62
           3
100
AcDbCircle
 10
411.964788441496
 20
12280.905391497859
 40
9.999999999999
100
AcDbArc
 50
55.596598256175
 51
-145.596598256159
  0
ARC
  5
241
100
AcDbEntity
  8
1
  6
CONTINUOUS
 62
           3
100
AcDbCircle
 10
421.964788441496
 20
12230.905391497859
 40
10.000000000003
100
AcDbArc
 50
-34.403401743841
 51
34.403401743798
  0
ARC
  5
240
100
AcDbEntity
  8
1
  6
CONTINUOUS
 62
           3
100
AcDbCircle
 10
411.964788441496
 20
12180.905391497859
 40
9.999999999998
100
AcDbArc
 50
145.596598256202
 51
-55.596598256175
  0
ARC
  5
23F
100
AcDbEntity
  8
1
  6
CONTINUOUS
 62
           3
100
AcDbCircle
 10
461.964788441496
 20
12190.905391497859
 40
9.999999999999
100
AcDbArc
 50
55.596598256175
 51
124.403401743824
  0
ARC
  5
23E
100
AcDbEntity
  8
1
  6
CONTINUOUS
 62
           3
100
AcDbCircle
 10
511.964788441496
 20
12180.905391497859
 40
9.999999999999
100
AcDbArc
 50
-124.403401743824
 51
34.403401743798
  0
ARC
  5
23D
100
AcDbEntity
  8
1
  6
CONTINUOUS
 62
           3
100
AcDbCircle
 10
511.964788441496
 20
12280.905391497859
 40
10.000000000003
100
AcDbArc
 50
-34.403401743841
 51
124.403401743824
  0
ARC
  5
23C
100
AcDbEntity
  8
1
  6
CONTINUOUS
 62
           3
100
AcDbCircle
 10
501.964788441496
 20
12230.905391497859
 40
9.999999999998
100
AcDbArc
 50
145.596598256202
 51
-145.596598256159
  0
ARC
  5
23B
100
AcDbEntity
  8
1
  6
CONTINUOUS
 62
           3
100
AcDbCircle
 10
1051.36157197122
 20
12010.55448021926
 40
4.410000000916
100
AcDbArc
 50
168.874983335371
 51
-150.835303463605
  0
ARC
  5
23A
100
AcDbEntity
  8
1
  6
CONTINUOUS
 62
           3
100
AcDbCircle
 10
995.659749414036
 20
12010.55448021926
 40
4.410000000001
100
AcDbArc
 50
78.874983333129
 51
119.164696536428
  0
ARC
  5
239
100
AcDbEntity
  8
1
  6
CONTINUOUS
 62
           3
100
AcDbCircle
 10
1051.36157197122
 20
12010.55448021926
 40
4.410000000922
100
AcDbArc
 50
60.835303463566
 51
101.125016666864
  0
ARC
  5
238
100
AcDbEntity
  8
1
  6
CONTINUOUS
 62
           3
100
AcDbCircle
 10
995.659749414036
 20
12010.55448021926
 40
4.410000000002
100
AcDbArc
 50
11.125016666965
 51
78.874983333129
  0
ARC
  5
237
100
AcDbEntity
  8
1
  6
CONTINUOUS
 62
           3
100
AcDbCircle
 10
995.659749414036
 20
12010.55448021926
 40
4.410000000912
100
AcDbArc
 50
-29.164696536392
 51
11.125016666965
  0
ARC
  5
236
100
AcDbEntity
  8
1
  6
CONTINUOUS
 62
           3
100
AcDbCircle
 10
1051.36157197122
 20
12010.55448021926
 40
4.410000000001
100
AcDbArc
 50
101.125016666864
 51
168.874983335371
  0
ARC
  5
235
100
AcDbEntity
  8
1
  6
CONTINUOUS
 62
           3
100
AcDbCircle
 10
767.88970516091
 20
12009.521233860711
 40
5.010000000327
100
AcDbArc
 50
77.130980034861
 51
112.091040129122
  0
ARC
  5
234
100
AcDbEntity
  8
1
  6
CONTINUOUS
 62
           3
100
AcDbCircle
 10
767.88970516091
 20
12009.521233860711
 40
5.010000000009
100
AcDbArc
 50
112.091040129122
 51
-167.130980034943
  0
ARC
  5
233
100
AcDbEntity
  8
1
  6
CONTINUOUS
 62
           3
100
AcDbCircle
 10
434.113877162903
 20
12010.55448021926
 40
4.410000000001
100
AcDbArc
 50
11.125016666965
 51
78.874983333131
  0
ARC
  5
232
100
AcDbEntity
  8
1
  6
CONTINUOUS
 62
           3
100
AcDbCircle
 10
489.815699720087
 20
12010.55448021926
 40
4.410000000001
100
AcDbArc
 50
101.125016666864
 51
168.874983335371
  0
ARC
  5
231
100
AcDbEntity
  8
1
  6
CONTINUOUS
 62
           3
100
AcDbCircle
 10
764.255547523774
 20
12258.405391497859
 40
7.249999999998
100
AcDbArc
 50
-43.602818972721
 51
43.602818972721
  0
ARC
  5
230
100
AcDbEntity
  8
1
  6
CONTINUOUS
 62
           3
100
AcDbCircle
 10
764.255547523774
 20
12203.405391497859
 40
7.249999999998
100
AcDbArc
 50
-43.602818972721
 51
43.602818972721
  0
ARC
  5
22F
100
AcDbEntity
  8
1
  6
CONTINUOUS
 62
           3
100
AcDbCircle
 10
745.007331997556
 20
12430.958245694839
 40
9.0
100
AcDbArc
 50
90.0
 51
-90.0
  0
ARC
  5
22E
100
AcDbEntity
  8
1
  6
CONTINUOUS
 62
           3
100
AcDbCircle
 10
764.255547523774
 20
12445.958245694839
 40
7.249999999998
100
AcDbArc
 50
-43.602818972721
 51
43.602818972721
  0
ARC
  5
22D
100
AcDbEntity
  8
1
  6
CONTINUOUS
 62
           3
100
AcDbCircle
 10
764.255547523774
 20
12415.958245694839
 40
7.249999999998
100
AcDbArc
 50
-43.602818972721
 51
43.602818972721
  0
ARC
  5
22C
100
AcDbEntity
  8
1
  6
CONTINUOUS
 62
           3
100
AcDbCircle
 10
684.005547523771
 20
12488.458245694839
 40
3.749999999998
100
AcDbArc
 50
122.198726896625
 51
-122.198726896551
  0
ARC
  5
22B
100
AcDbEntity
  8
1
  6
DOTTED
 62
           1
100
AcDbCircle
 10
684.005547523771
 20
12488.458245694839
 40
3.75
100
AcDbArc
 50
90.0
 51
122.198726896625
  0
ARC
  5
22A
100
AcDbEntity
  8
1
  6
DOTTED
 62
           1
100
AcDbCircle
 10
684.005547523771
 20
12488.458245694839
 40
3.750000000006
100
AcDbArc
 50
-122.198726896551
 51
-89.972735247898
  0
ARC
  5
229
100
AcDbEntity
  8
1
  6
CONTINUOUS
 62
           3
100
AcDbCircle
 10
684.005547523771
 20
12488.458245694839
 40
3.749999999998
100
AcDbArc
 50
-89.972735247898
 51
90.0
  0
ARC
  5
228
100
AcDbEntity
  8
1
  6
CONTINUOUS
 62
           3
100
AcDbCircle
 10
684.005547523771
 20
12373.458245694839
 40
3.749999999998
100
AcDbArc
 50
-89.972735247898
 51
89.972735247898
  0
ARC
  5
227
100
AcDbEntity
  8
1
  6
DOTTED
 62
           1
100
AcDbCircle
 10
684.005547523771
 20
12373.458245694839
 40
3.749999999991
100
AcDbArc
 50
89.972735247898
 51
122.198726896605
  0
ARC
  5
226
100
AcDbEntity
  8
1
  6
CONTINUOUS
 62
           3
100
AcDbCircle
 10
684.005547523771
 20
12373.458245694839
 40
3.749999999997
100
AcDbArc
 50
122.198726896605
 51
-122.198726896531
  0
ARC
  5
225
100
AcDbEntity
  8
1
  6
DOTTED
 62
           1
100
AcDbCircle
 10
684.005547523771
 20
12373.458245694839
 40
3.750000000005
100
AcDbArc
 50
-122.198726896531
 51
-89.972735247898
  0
ARC
  5
224
100
AcDbEntity
  8
1
  6
CONTINUOUS
 62
           3
100
AcDbCircle
 10
983.510660692628
 20
12230.905391497859
 40
10.000000000003
100
AcDbArc
 50
-34.403401743841
 51
34.403401743798
  0
ARC
  5
223
100
AcDbEntity
  8
1
  6
CONTINUOUS
 62
           3
100
AcDbCircle
 10
973.510660692628
 20
12280.905391497859
 40
9.999999999999
100
AcDbArc
 50
55.596598256176
 51
-145.596598256159
  0
ARC
  5
222
100
AcDbEntity
  8
1
  6
CONTINUOUS
 62
           3
100
AcDbCircle
 10
973.510660692628
 20
12180.905391497859
 40
9.999999999998
100
AcDbArc
 50
145.596598256202
 51
-55.596598256176
  0
ARC
  5
221
100
AcDbEntity
  8
1
  6
CONTINUOUS
 62
           3
100
AcDbCircle
 10
1073.510660692628
 20
12180.905391497859
 40
9.999999999999
100
AcDbArc
 50
-124.403401743827
 51
34.403401743799
  0
ARC
  5
220
100
AcDbEntity
  8
1
  6
CONTINUOUS
 62
           3
100
AcDbCircle
 10
1063.510660692628
 20
12230.905391497859
 40
9.999999999998
100
AcDbArc
 50
145.596598256202
 51
-145.596598256159
  0
ARC
  5
21F
100
AcDbEntity
  8
1
  6
CONTINUOUS
 62
           3
100
AcDbCircle
 10
1073.510660692628
 20
12280.905391497859
 40
10.000000000003
100
AcDbArc
 50
-34.403401743842
 51
124.403401743827
  0
LINE
  5
21E
100
AcDbEntity
  8
1
  6
DOT_CENTER
 62
           1
100
AcDbLine
 10
1023.510660692628
 20
12004.55692714442
 11
1023.510660692628
 21
12336.787818405121
  0
LINE
  5
21D
100
AcDbEntity
  8
1
  6
DOT_CENTER
 62
           1
100
AcDbLine
 10
649.998149636163
 20
12430.958245694839
 11
779.114422371692
 21
12430.958245694839
  0
LINE
  5
21C
100
AcDbEntity
  8
1
  6
DOT_CENTER
 62
           1
100
AcDbLine
 10
649.998149636163
 20
12430.958245694839
 11
777.689881576848
 21
12430.958245694839
  0
LINE
  5
21B
100
AcDbEntity
  8
1
  6
DOT_CENTER
 62
           1
100
AcDbLine
 10
406.261572352427
 20
12230.905391497859
 11
516.235686482977
 21
12230.905391497859
  0
LINE
  5
21A
100
AcDbEntity
  8
1
  6
CONTINUOUS
 62
           3
100
AcDbLine
 10
491.964788441496
 20
12279.32939900254
 11
491.964788441496
 21
12323.405391497859
  0
LINE
  5
219
100
AcDbEntity
  8
1
  6
CONTINUOUS
 62
           3
100
AcDbLine
 10
491.964788441496
 20
12279.32939900254
 11
488.964788441496
 21
12277.27499449973
  0
LINE
  5
218
100
AcDbEntity
  8
1
  6
CONTINUOUS
 62
           3
100
AcDbLine
 10
488.964788441496
 20
12277.27499449973
 11
488.964788441496
 21
12323.405391497859
  0
LINE
  5
217
100
AcDbEntity
  8
1
  6
CONTINUOUS
 62
           3
100
AcDbLine
 10
488.964788441496
 20
12277.27499449973
 11
467.61494834912
 21
12262.654591959739
  0
LINE
  5
216
100
AcDbEntity
  8
1
  6
CONTINUOUS
 62
           3
100
AcDbLine
 10
491.964788441496
 20
12182.481383993179
 11
506.314628533871
 21
12172.654591959739
  0
LINE
  5
215
100
AcDbEntity
  8
1
  6
DOTTED
 62
           1
100
AcDbLine
 10
491.964788441496
 20
12182.481383993179
 11
491.964788441496
 21
12279.32939900254
  0
LINE
  5
214
100
AcDbEntity
  8
1
  6
CONTINUOUS
 62
           3
100
AcDbLine
 10
488.964788441496
 20
12184.53578849599
 11
491.964788441496
 21
12182.481383993179
  0
LINE
  5
213
100
AcDbEntity
  8
1
  6
DOTTED
 62
           1
100
AcDbLine
 10
488.964788441496
 20
12184.53578849599
 11
488.964788441496
 21
12277.27499449973
  0
LINE
  5
212
100
AcDbEntity
  8
1
  6
CONTINUOUS
 62
           3
100
AcDbLine
 10
434.964788441495
 20
12184.535788495979
 11
456.314628533871
 21
12199.15619103598
  0
LINE
  5
211
100
AcDbEntity
  8
1
  6
CONTINUOUS
 62
           3
100
AcDbLine
 10
434.964788441495
 20
12184.535788495979
 11
434.964788441495
 21
12014.88160975233
  0
LINE
  5
210
100
AcDbEntity
  8
1
  6
CONTINUOUS
 62
           3
100
AcDbLine
 10
431.964788441495
 20
12182.481383993179
 11
431.964788441495
 21
12011.405391497859
  0
LINE
  5
20F
100
AcDbEntity
  8
1
  6
CONTINUOUS
 62
           3
100
AcDbLine
 10
431.964788441495
 20
12182.481383993179
 11
434.964788441495
 21
12184.535788495979
  0
LINE
  5
20E
100
AcDbEntity
  8
1
  6
CONTINUOUS
 62
           3
100
AcDbLine
 10
434.964788441495
 20
12277.27499449973
 11
431.964788441495
 21
12279.32939900254
  0
LINE
  5
20D
100
AcDbEntity
  8
1
  6
DOTTED
 62
           1
100
AcDbLine
 10
434.964788441495
 20
12277.27499449973
 11
434.964788441495
 21
12184.535788495979
  0
LINE
  5
20C
100
AcDbEntity
  8
1
  6
CONTINUOUS
 62
           3
100
AcDbLine
 10
431.964788441495
 20
12279.32939900254
 11
417.61494834912
 21
12289.15619103598
  0
LINE
  5
20B
100
AcDbEntity
  8
1
  6
DOTTED
 62
           1
100
AcDbLine
 10
431.964788441495
 20
12279.32939900254
 11
431.964788441495
 21
12182.481383993179
  0
LINE
  5
20A
100
AcDbEntity
  8
1
  6
CONTINUOUS
 62
           3
100
AcDbLine
 10
759.005547523771
 20
12193.405391497859
 11
759.005547523771
 21
12063.405391497859
  0
LINE
  5
209
100
AcDbEntity
  8
1
  6
CONTINUOUS
 62
           3
100
AcDbLine
 10
759.005547523771
 20
12193.405391497859
 11
757.505547523771
 21
12193.405391497859
  0
LINE
  5
208
100
AcDbEntity
  8
1
  6
DOTTED
 62
           1
100
AcDbLine
 10
759.005547523771
 20
12268.405391497859
 11
766.005547523771
 21
12268.405391497859
  0
LINE
  5
207
100
AcDbEntity
  8
1
  6
CONTINUOUS
 62
           3
100
AcDbLine
 10
759.005547523771
 20
12268.405391497859
 11
759.005547523771
 21
12193.405391497859
  0
LINE
  5
206
100
AcDbEntity
  8
1
  6
CONTINUOUS
 62
           3
100
AcDbLine
 10
685.007331997558
 20
12213.405391497859
 11
685.007331997558
 21
12248.405391497859
  0
LINE
  5
205
100
AcDbEntity
  8
1
  6
CONTINUOUS
 62
           3
100
AcDbLine
 10
685.007331997558
 20
12248.405391497859
 11
685.007331997558
 21
12249.405391497859
  0
LINE
  5
204
100
AcDbEntity
  8
1
  6
CONTINUOUS
 62
           3
100
AcDbLine
 10
685.007331997558
 20
12213.405391497859
 11
684.007331997558
 21
12213.405391497859
  0
LINE
  5
203
100
AcDbEntity
  8
1
  6
CONTINUOUS
 62
           3
100
AcDbLine
 10
685.007331997558
 20
12248.405391497859
 11
684.007331997558
 21
12248.405391497859
  0
LINE
  5
202
100
AcDbEntity
  8
1
  6
DOT_CENTER
 62
           1
100
AcDbLine
 10
441.722891200441
 20
12285.905391497859
 11
481.481666152067
 21
12285.905391497859
  0
LINE
  5
201
100
AcDbEntity
  8
1
  6
DOT_CENTER
 62
           1
100
AcDbLine
 10
441.722891200441
 20
12258.405391497859
 11
481.481666152067
 21
12258.405391497859
  0
LINE
  5
200
100
AcDbEntity
  8
1
  6
DOT_CENTER
 62
           1
100
AcDbLine
 10
441.722891200441
 20
12203.405391497859
 11
481.481666152067
 21
12203.405391497859
  0
LINE
  5
1FF
100
AcDbEntity
  8
1
  6
DOT_CENTER
 62
           1
100
AcDbLine
 10
441.722891200441
 20
12175.905391497859
 11
481.481666152067
 21
12175.905391497859
  0
LINE
  5
1FE
100
AcDbEntity
  8
1
  6
CONTINUOUS
 62
           3
100
AcDbLine
 10
488.964788441496
 20
12323.405391497859
 11
434.964788441495
 21
12323.405391497859
  0
LINE
  5
1FD
100
AcDbEntity
  8
1
  6
CONTINUOUS
 62
           3
100
AcDbLine
 10
434.964788441495
 20
12323.405391497859
 11
431.964788441495
 21
12323.405391497859
  0
LINE
  5
1FC
100
AcDbEntity
  8
1
  6
CONTINUOUS
 62
           3
100
AcDbLine
 10
729.007331997556
 20
12436.958245694839
 11
729.007331997556
 21
12435.958245694839
  0
LINE
  5
1FB
100
AcDbEntity
  8
1
  6
CONTINUOUS
 62
           3
100
AcDbLine
 10
699.007331997556
 20
12436.958245694839
 11
699.007331997556
 21
12435.958245694839
  0
LINE
  5
1FA
100
AcDbEntity
  8
1
  6
CONTINUOUS
 62
           3
100
AcDbLine
 10
732.507331997556
 20
12436.958245694839
 11
685.007331997556
 21
12436.958245694839
  0
LINE
  5
1F9
100
AcDbEntity
  8
1
  6
CONTINUOUS
 62
           3
100
AcDbLine
 10
687.007331997556
 20
12436.958245694839
 11
687.007331997556
 21
12424.958245694839
  0
LINE
  5
1F8
100
AcDbEntity
  8
1
  6
CONTINUOUS
 62
           3
100
AcDbLine
 10
685.007331997556
 20
12436.958245694839
 11
685.007331997556
 21
12469.958245694839
  0
LINE
  5
1F7
100
AcDbEntity
  8
1
  6
CONTINUOUS
 62
           3
100
AcDbLine
 10
687.007331997556
 20
12471.958245694839
 11
731.507331997556
 21
12471.958245694839
  0
LINE
  5
1F6
100
AcDbEntity
  8
1
  6
CONTINUOUS
 62
           3
100
AcDbLine
 10
733.507331997556
 20
12423.958245694839
 11
733.507331997556
 21
12391.958245694839
  0
LINE
  5
1F5
100
AcDbEntity
  8
1
  6
CONTINUOUS
 62
           3
100
AcDbLine
 10
685.007331997556
 20
12424.958245694839
 11
732.507331997556
 21
12424.958245694839
  0
LINE
  5
1F4
100
AcDbEntity
  8
1
  6
CONTINUOUS
 62
           3
100
AcDbLine
 10
685.007331997556
 20
12391.958245694839
 11
685.007331997556
 21
12424.958245694839
  0
LINE
  5
1F3
100
AcDbEntity
  8
1
  6
CONTINUOUS
 62
           3
100
AcDbLine
 10
731.507331997556
 20
12389.958245694839
 11
687.007331997556
 21
12389.958245694839
  0
LINE
  5
1F2
100
AcDbEntity
  8
1
  6
CONTINUOUS
 62
           3
100
AcDbLine
 10
685.007331997558
 20
12212.405391497859
 11
685.007331997558
 21
12213.405391497859
  0
LINE
  5
1F1
100
AcDbEntity
  8
1
  6
CONTINUOUS
 62
           3
100
AcDbLine
 10
686.007331997558
 20
12250.405391497859
 11
714.007331997558
 21
12250.405391497859
  0
LINE
  5
1F0
100
AcDbEntity
  8
1
  6
CONTINUOUS
 62
           3
100
AcDbLine
 10
714.007331997558
 20
12211.405391497859
 11
686.007331997558
 21
12211.405391497859
  0
LINE
  5
1EF
100
AcDbEntity
  8
1
  6
CONTINUOUS
 62
           3
100
AcDbLine
 10
734.007331997556
 20
12435.458245694839
 11
734.007331997556
 21
12426.458245694839
  0
LINE
  5
1EE
100
AcDbEntity
  8
1
  6
CONTINUOUS
 62
           3
100
AcDbLine
 10
754.009116471345
 20
12220.905391497859
 11
736.007331997558
 21
12220.905391497859
  0
LINE
  5
1ED
100
AcDbEntity
  8
1
  6
CONTINUOUS
 62
           3
100
AcDbLine
 10
735.509116471345
 20
12240.905391497859
 11
736.007331997558
 21
12240.905391497859
  0
LINE
  5
1EC
100
AcDbEntity
  8
1
  6
CONTINUOUS
 62
           3
100
AcDbLine
 10
736.007331997558
 20
12219.905391497859
 11
736.007331997558
 21
12220.905391497859
  0
LINE
  5
1EB
100
AcDbEntity
  8
1
  6
CONTINUOUS
 62
           3
100
AcDbLine
 10
754.009116471345
 20
12219.905391497859
 11
754.009116471345
 21
12220.905391497859
  0
LINE
  5
1EA
100
AcDbEntity
  8
1
  6
CONTINUOUS
 62
           3
100
AcDbLine
 10
754.009116471345
 20
12240.905391497859
 11
754.009116471345
 21
12241.905391497859
  0
LINE
  5
1E9
100
AcDbEntity
  8
1
  6
CONTINUOUS
 62
           3
100
AcDbLine
 10
736.007331997558
 20
12240.905391497859
 11
736.007331997558
 21
12241.905391497859
  0
LINE
  5
1E8
100
AcDbEntity
  8
1
  6
CONTINUOUS
 62
           3
100
AcDbLine
 10
754.009116471345
 20
12240.405391497859
 11
754.009116471345
 21
12221.405391497859
  0
LINE
  5
1E7
100
AcDbEntity
  8
1
  6
CONTINUOUS
 62
           3
100
AcDbLine
 10
736.007331997558
 20
12220.905391497859
 11
735.509116471345
 21
12220.905391497859
  0
LINE
  5
1E6
100
AcDbEntity
  8
1
  6
CONTINUOUS
 62
           3
100
AcDbLine
 10
736.007331997558
 20
12240.905391497859
 11
754.009116471345
 21
12240.905391497859
  0
LINE
  5
1E5
100
AcDbEntity
  8
1
  6
DOTTED
 62
           1
100
AcDbLine
 10
766.005547523771
 20
12193.405391497859
 11
759.005547523771
 21
12193.405391497859
  0
LINE
  5
1E4
100
AcDbEntity
  8
1
  6
CONTINUOUS
 62
           3
100
AcDbLine
 10
757.505547523771
 20
12268.405391497859
 11
759.005547523771
 21
12268.405391497859
  0
LINE
  5
1E3
100
AcDbEntity
  8
1
  6
CONTINUOUS
 62
           3
100
AcDbLine
 10
756.005547523771
 20
12194.905391497859
 11
756.005547523771
 21
12266.905391497859
  0
LINE
  5
1E2
100
AcDbEntity
  8
1
  6
DOTTED
 62
           1
100
AcDbLine
 10
682.007331997558
 20
12276.500128339971
 11
684.007331997558
 21
12276.500128339971
  0
LINE
  5
1E1
100
AcDbEntity
  8
1
  6
DOTTED
 62
           1
100
AcDbLine
 10
682.007331997558
 20
12271.30012833997
 11
684.007331997558
 21
12271.30012833997
  0
LINE
  5
1E0
100
AcDbEntity
  8
1
  6
DOT_CENTER
 62
           1
100
AcDbLine
 10
676.233379765995
 20
12273.90012833997
 11
692.773379765995
 21
12273.90012833997
  0
LINE
  5
1DF
100
AcDbEntity
  8
1
  6
DOT_CENTER
 62
           1
100
AcDbLine
 10
692.773379765995
 20
12180.905391497859
 11
676.233379765995
 21
12180.905391497859
  0
LINE
  5
1DE
100
AcDbEntity
  8
1
  6
DOTTED
 62
           1
100
AcDbLine
 10
684.007331997558
 20
12183.50539149786
 11
682.007331997558
 21
12183.50539149786
  0
LINE
  5
1DD
100
AcDbEntity
  8
1
  6
DOTTED
 62
           1
100
AcDbLine
 10
684.007331997558
 20
12178.305391497859
 11
682.007331997558
 21
12178.305391497859
  0
LINE
  5
1DC
100
AcDbEntity
  8
1
  6
CONTINUOUS
 62
           3
100
AcDbLine
 10
684.007331997558
 20
12213.405391497859
 11
684.007331997558
 21
12165.905391497859
  0
LINE
  5
1DB
100
AcDbEntity
  8
1
  6
CONTINUOUS
 62
           3
100
AcDbLine
 10
684.007331997558
 20
12248.405391497859
 11
684.007331997558
 21
12213.405391497859
  0
LINE
  5
1DA
100
AcDbEntity
  8
1
  6
CONTINUOUS
 62
           3
100
AcDbLine
 10
682.007331997558
 20
12295.905391497859
 11
684.007331997558
 21
12295.905391497859
  0
LINE
  5
1D9
100
AcDbEntity
  8
1
  6
CONTINUOUS
 62
           3
100
AcDbLine
 10
684.007331997558
 20
12165.905391497859
 11
682.007331997558
 21
12165.905391497859
  0
LINE
  5
1D8
100
AcDbEntity
  8
1
  6
CONTINUOUS
 62
           3
100
AcDbLine
 10
684.007331997558
 20
12295.905391497859
 11
684.007331997558
 21
12248.405391497859
  0
LINE
  5
1D7
100
AcDbEntity
  8
1
  6
DOT_CENTER
 62
           1
100
AcDbLine
 10
714.007331997558
 20
12258.86284899272
 11
714.007331997558
 21
12201.788566095231
  0
LINE
  5
1D6
100
AcDbEntity
  8
1
  6
CONTINUOUS
 62
           3
100
AcDbLine
 10
740.507331997558
 20
12220.905391497859
 11
734.507331997558
 21
12220.905391497859
  0
LINE
  5
1D5
100
AcDbEntity
  8
1
  6
CONTINUOUS
 62
           3
100
AcDbLine
 10
734.007331997558
 20
12240.405391497859
 11
734.007331997558
 21
12221.405391497859
  0
LINE
  5
1D4
100
AcDbEntity
  8
1
  6
CONTINUOUS
 62
           3
100
AcDbLine
 10
734.007331997558
 20
12242.905391497859
 11
734.007331997558
 21
12246.905391497859
  0
LINE
  5
1D3
100
AcDbEntity
  8
1
  6
CONTINUOUS
 62
           3
100
AcDbLine
 10
734.507331997558
 20
12240.905391497859
 11
740.507331997558
 21
12240.905391497859
  0
LINE
  5
1D2
100
AcDbEntity
  8
1
  6
CONTINUOUS
 62
           3
100
AcDbLine
 10
732.507331997558
 20
12213.405391497859
 11
722.6096572646
 21
12213.405391497859
  0
LINE
  5
1D1
100
AcDbEntity
  8
1
  6
CONTINUOUS
 62
           3
100
AcDbLine
 10
732.507331997558
 20
12248.405391497859
 11
722.6096572646
 21
12248.405391497859
  0
LINE
  5
1D0
100
AcDbEntity
  8
1
  6
CONTINUOUS
 62
           3
100
AcDbLine
 10
734.007331997558
 20
12214.905391497859
 11
734.007331997558
 21
12218.905391497859
  0
LINE
  5
1CF
100
AcDbEntity
  8
1
  6
CONTINUOUS
 62
           3
100
AcDbLine
 10
682.007331997558
 20
12165.905391497859
 11
682.007331997558
 21
12295.905391497859
  0
LINE
  5
1CE
100
AcDbEntity
  8
1
  6
CONTINUOUS
 62
           3
100
AcDbLine
 10
696.507331997556
 20
12435.958245694839
 11
699.007331997556
 21
12435.958245694839
  0
LINE
  5
1CD
100
AcDbEntity
  8
1
  6
CONTINUOUS
 62
           3
100
AcDbLine
 10
729.007331997556
 20
12425.958245694839
 11
699.007331997556
 21
12425.958245694839
  0
LINE
  5
1CC
100
AcDbEntity
  8
1
  6
CONTINUOUS
 62
           3
100
AcDbLine
 10
699.007331997556
 20
12425.958245694839
 11
699.007331997556
 21
12424.958245694839
  0
LINE
  5
1CB
100
AcDbEntity
  8
1
  6
CONTINUOUS
 62
           3
100
AcDbLine
 10
699.007331997556
 20
12435.958245694839
 11
729.007331997556
 21
12435.958245694839
  0
LINE
  5
1CA
100
AcDbEntity
  8
1
  6
CONTINUOUS
 62
           3
100
AcDbLine
 10
733.507331997556
 20
12425.958245694839
 11
729.007331997556
 21
12425.958245694839
  0
LINE
  5
1C9
100
AcDbEntity
  8
1
  6
CONTINUOUS
 62
           3
100
AcDbLine
 10
729.007331997556
 20
12425.958245694839
 11
729.007331997556
 21
12424.958245694839
  0
LINE
  5
1C8
100
AcDbEntity
  8
1
  6
CONTINUOUS
 62
           3
100
AcDbLine
 10
734.007331997556
 20
12438.958245694839
 11
734.007331997556
 21
12437.958245694839
  0
LINE
  5
1C7
100
AcDbEntity
  8
1
  6
CONTINUOUS
 62
           3
100
AcDbLine
 10
734.007331997556
 20
12435.458245694839
 11
734.007331997556
 21
12426.78667281958
  0
LINE
  5
1C6
100
AcDbEntity
  8
1
  6
CONTINUOUS
 62
           3
100
AcDbLine
 10
699.007331997556
 20
12425.958245694839
 11
696.507331997556
 21
12425.958245694839
  0
LINE
  5
1C5
100
AcDbEntity
  8
1
  6
CONTINUOUS
 62
           3
100
AcDbLine
 10
696.507331997556
 20
12425.958245694839
 11
696.507331997556
 21
12435.958245694839
  0
LINE
  5
1C4
100
AcDbEntity
  8
1
  6
CONTINUOUS
 62
           3
100
AcDbLine
 10
729.007331997556
 20
12435.958245694839
 11
733.507331997556
 21
12435.958245694839
  0
LINE
  5
1C3
100
AcDbEntity
  8
1
  6
CONTINUOUS
 62
           3
100
AcDbLine
 10
734.007331997556
 20
12423.958245694839
 11
734.007331997556
 21
12422.958245694839
  0
LINE
  5
1C2
100
AcDbEntity
  8
1
  6
CONTINUOUS
 62
           3
100
AcDbLine
 10
682.007331997556
 20
12495.958245694839
 11
684.005547523771
 21
12495.958245694839
  0
LINE
  5
1C1
100
AcDbEntity
  8
1
  6
CONTINUOUS
 62
           3
100
AcDbLine
 10
684.007331997556
 20
12365.958245694839
 11
682.007331997558
 21
12365.958245694839
  0
LINE
  5
1C0
100
AcDbEntity
  8
1
  6
DOTTED
 62
           1
100
AcDbLine
 10
682.007331997556
 20
12483.55824569483
 11
684.007331997556
 21
12483.55824569483
  0
LINE
  5
1BF
100
AcDbEntity
  8
1
  6
DOTTED
 62
           1
100
AcDbLine
 10
682.007331997556
 20
12478.358245694841
 11
684.007331997556
 21
12478.358245694841
  0
LINE
  5
1BE
100
AcDbEntity
  8
1
  6
DOT_CENTER
 62
           1
100
AcDbLine
 10
676.233379765994
 20
12480.958245694839
 11
692.773379765994
 21
12480.958245694839
  0
LINE
  5
1BD
100
AcDbEntity
  8
1
  6
DOT_CENTER
 62
           1
100
AcDbLine
 10
692.773379765994
 20
12380.958245694839
 11
676.233379765994
 21
12380.958245694839
  0
LINE
  5
1BC
100
AcDbEntity
  8
1
  6
DOTTED
 62
           1
100
AcDbLine
 10
684.007331997556
 20
12383.55824569483
 11
682.007331997556
 21
12383.55824569483
  0
LINE
  5
1BB
100
AcDbEntity
  8
1
  6
DOTTED
 62
           1
100
AcDbLine
 10
684.007331997556
 20
12378.358245694841
 11
682.007331997556
 21
12378.358245694841
  0
LINE
  5
1BA
100
AcDbEntity
  8
1
  6
CONTINUOUS
 62
           3
100
AcDbLine
 10
682.007331997556
 20
12417.458245694839
 11
682.007331997556
 21
12424.458245694839
  0
LINE
  5
1B9
100
AcDbEntity
  8
1
  6
CONTINUOUS
 62
           3
100
AcDbLine
 10
506.314628533871
 20
12289.15619103598
 11
491.964788441496
 21
12279.32939900254
  0
LINE
  5
1B8
100
AcDbEntity
  8
1
  6
CONTINUOUS
 62
           3
100
AcDbLine
 10
456.314628533871
 20
12262.654591959739
 11
434.964788441495
 21
12277.27499449973
  0
LINE
  5
1B7
100
AcDbEntity
  8
1
  6
CONTINUOUS
 62
           3
100
AcDbLine
 10
403.713988903374
 20
12275.25523159023
 11
430.215587979618
 21
12236.555551405479
  0
LINE
  5
1B6
100
AcDbEntity
  8
1
  6
CONTINUOUS
 62
           3
100
AcDbLine
 10
430.215587979618
 20
12225.25523159023
 11
403.713988903374
 21
12186.555551405479
  0
LINE
  5
1B5
100
AcDbEntity
  8
1
  6
CONTINUOUS
 62
           3
100
AcDbLine
 10
417.61494834912
 20
12172.654591959739
 11
431.964788441495
 21
12182.481383993179
  0
LINE
  5
1B4
100
AcDbEntity
  8
1
  6
CONTINUOUS
 62
           3
100
AcDbLine
 10
467.61494834912
 20
12199.15619103598
 11
488.964788441496
 21
12184.53578849599
  0
LINE
  5
1B3
100
AcDbEntity
  8
1
  6
CONTINUOUS
 62
           3
100
AcDbLine
 10
520.215587979618
 20
12186.555551405479
 11
493.713988903374
 21
12225.25523159023
  0
LINE
  5
1B2
100
AcDbEntity
  8
1
  6
CONTINUOUS
 62
           3
100
AcDbLine
 10
493.713988903373
 20
12236.555551405479
 11
520.215587979618
 21
12275.25523159023
  0
LINE
  5
1B1
100
AcDbEntity
  8
1
  6
CONTINUOUS
 62
           3
100
AcDbLine
 10
508.564788441496
 20
12283.50539149786
 11
515.364788441496
 21
12283.50539149786
  0
LINE
  5
1B0
100
AcDbEntity
  8
1
  6
CONTINUOUS
 62
           3
100
AcDbLine
 10
515.364788441496
 20
12278.305391497859
 11
508.564788441496
 21
12278.305391497859
  0
LINE
  5
1AF
100
AcDbEntity
  8
1
  6
DOT_CENTER
 62
           1
100
AcDbLine
 10
503.419496780627
 20
12280.905391497859
 11
520.78908381461
 21
12280.905391497859
  0
LINE
  5
1AE
100
AcDbEntity
  8
1
  6
DOT_CENTER
 62
           1
100
AcDbLine
 10
508.564788441496
 20
12285.799488727709
 11
508.564788441496
 21
12276.114628078451
  0
LINE
  5
1AD
100
AcDbEntity
  8
1
  6
DOT_CENTER
 62
           1
100
AcDbLine
 10
515.364788441496
 20
12285.74685361549
 11
515.364788441496
 21
12276.37780363958
  0
LINE
  5
1AC
100
AcDbEntity
  8
1
  6
DOT_CENTER
 62
           1
100
AcDbLine
 10
511.964788441496
 20
12287.13922111461
 11
511.964788441496
 21
12274.09808169069
  0
LINE
  5
1AB
100
AcDbEntity
  8
1
  6
DOT_CENTER
 62
           1
100
AcDbLine
 10
407.556805246724
 20
12285.313374692631
 11
416.778283367777
 21
12276.091896571579
  0
LINE
  5
1AA
100
AcDbEntity
  8
1
  6
DOT_CENTER
 62
           1
100
AcDbLine
 10
410.945520803297
 20
12286.732985248131
 11
417.570439574538
 21
12280.10806647688
  0
LINE
  5
1A9
100
AcDbEntity
  8
1
  6
DOT_CENTER
 62
           1
100
AcDbLine
 10
406.099976046448
 20
12281.961877780839
 11
412.94820668638
 21
12275.113647140901
  0
LINE
  5
1A8
100
AcDbEntity
  8
1
  6
DOT_CENTER
 62
           1
100
AcDbLine
 10
405.922354760879
 20
12274.86295781724
 11
418.204507539018
 21
12287.14511059538
  0
LINE
  5
1A7
100
AcDbEntity
  8
1
  6
CONTINUOUS
 62
           3
100
AcDbLine
 10
416.207429128615
 20
12281.47107692281
 11
411.399103016547
 21
12276.662750810739
  0
LINE
  5
1A6
100
AcDbEntity
  8
1
  6
CONTINUOUS
 62
           3
100
AcDbLine
 10
407.722147754376
 20
12280.339706072909
 11
412.530473866445
 21
12285.148032184979
  0
LINE
  5
1A5
100
AcDbEntity
  8
1
  6
CONTINUOUS
 62
           3
100
AcDbLine
 10
420.222147754376
 20
12267.839706072909
 11
425.030473866445
 21
12272.648032184979
  0
LINE
  5
1A4
100
AcDbEntity
  8
1
  6
CONTINUOUS
 62
           3
100
AcDbLine
 10
428.707429128615
 20
12268.97107692281
 11
423.899103016547
 21
12264.162750810739
  0
LINE
  5
1A3
100
AcDbEntity
  8
1
  6
DOT_CENTER
 62
           1
100
AcDbLine
 10
418.422354760879
 20
12262.36295781724
 11
430.704507539018
 21
12274.64511059538
  0
LINE
  5
1A2
100
AcDbEntity
  8
1
  6
DOT_CENTER
 62
           1
100
AcDbLine
 10
418.599976046448
 20
12269.461877780839
 11
425.44820668638
 21
12262.613647140901
  0
LINE
  5
1A1
100
AcDbEntity
  8
1
  6
DOT_CENTER
 62
           1
100
AcDbLine
 10
423.445520803297
 20
12274.232985248131
 11
430.070439574538
 21
12267.60806647688
  0
LINE
  5
1A0
100
AcDbEntity
  8
1
  6
DOT_CENTER
 62
           1
100
AcDbLine
 10
420.056805246724
 20
12272.813374692631
 11
429.278283367777
 21
12263.591896571579
  0
LINE
  5
19F
100
AcDbEntity
  8
1
  6
DOT_CENTER
 62
           1
100
AcDbLine
 10
499.464788441496
 20
12274.63922111461
 11
499.464788441496
 21
12261.59808169069
  0
LINE
  5
19E
100
AcDbEntity
  8
1
  6
DOT_CENTER
 62
           1
100
AcDbLine
 10
502.864788441495
 20
12273.24685361549
 11
502.864788441495
 21
12263.87780363958
  0
LINE
  5
19D
100
AcDbEntity
  8
1
  6
DOT_CENTER
 62
           1
100
AcDbLine
 10
496.064788441496
 20
12273.299488727709
 11
496.064788441496
 21
12263.614628078451
  0
LINE
  5
19C
100
AcDbEntity
  8
1
  6
DOT_CENTER
 62
           1
100
AcDbLine
 10
490.919496780627
 20
12268.405391497859
 11
508.28908381461
 21
12268.405391497859
  0
LINE
  5
19B
100
AcDbEntity
  8
1
  6
CONTINUOUS
 62
           3
100
AcDbLine
 10
502.864788441495
 20
12265.805391497859
 11
496.064788441496
 21
12265.805391497859
  0
LINE
  5
19A
100
AcDbEntity
  8
1
  6
CONTINUOUS
 62
           3
100
AcDbLine
 10
496.064788441496
 20
12271.00539149786
 11
502.864788441495
 21
12271.00539149786
  0
LINE
  5
199
100
AcDbEntity
  8
1
  6
DOT_CENTER
 62
           1
100
AcDbLine
 10
405.730958824736
 20
12180.905391497859
 11
418.772098248656
 21
12180.905391497859
  0
LINE
  5
198
100
AcDbEntity
  8
1
  6
DOT_CENTER
 62
           1
100
AcDbLine
 10
407.123326323866
 20
12184.305391497859
 11
416.492376299776
 21
12184.305391497859
  0
LINE
  5
197
100
AcDbEntity
  8
1
  6
DOT_CENTER
 62
           1
100
AcDbLine
 10
407.070691211645
 20
12177.50539149786
 11
416.755551860897
 21
12177.50539149786
  0
LINE
  5
196
100
AcDbEntity
  8
1
  6
DOT_CENTER
 62
           1
100
AcDbLine
 10
411.964788441495
 20
12172.360099836989
 11
411.964788441495
 21
12189.729686870971
  0
LINE
  5
195
100
AcDbEntity
  8
1
  6
CONTINUOUS
 62
           3
100
AcDbLine
 10
414.564788441496
 20
12184.305391497859
 11
414.564788441496
 21
12177.50539149786
  0
LINE
  5
194
100
AcDbEntity
  8
1
  6
CONTINUOUS
 62
           3
100
AcDbLine
 10
409.364788441495
 20
12177.50539149786
 11
409.364788441495
 21
12184.305391497859
  0
LINE
  5
193
100
AcDbEntity
  8
1
  6
CONTINUOUS
 62
           3
100
AcDbLine
 10
421.864788441495
 20
12190.00539149786
 11
421.864788441495
 21
12196.805391497859
  0
LINE
  5
192
100
AcDbEntity
  8
1
  6
CONTINUOUS
 62
           3
100
AcDbLine
 10
427.064788441496
 20
12196.805391497859
 11
427.064788441496
 21
12190.00539149786
  0
LINE
  5
191
100
AcDbEntity
  8
1
  6
DOT_CENTER
 62
           1
100
AcDbLine
 10
424.464788441495
 20
12184.860099836989
 11
424.464788441495
 21
12202.229686870971
  0
LINE
  5
190
100
AcDbEntity
  8
1
  6
DOT_CENTER
 62
           1
100
AcDbLine
 10
419.570691211645
 20
12190.00539149786
 11
429.255551860897
 21
12190.00539149786
  0
LINE
  5
18F
100
AcDbEntity
  8
1
  6
DOT_CENTER
 62
           1
100
AcDbLine
 10
419.623326323866
 20
12196.805391497859
 11
428.992376299776
 21
12196.805391497859
  0
LINE
  5
18E
100
AcDbEntity
  8
1
  6
DOT_CENTER
 62
           1
100
AcDbLine
 10
418.230958824736
 20
12193.405391497859
 11
431.272098248656
 21
12193.405391497859
  0
LINE
  5
18D
100
AcDbEntity
  8
1
  6
DOT_CENTER
 62
           1
100
AcDbLine
 10
490.813643936043
 20
12193.405391497859
 11
506.962659283151
 21
12193.405391497859
  0
LINE
  5
18C
100
AcDbEntity
  8
1
  6
DOT_CENTER
 62
           1
100
AcDbLine
 10
503.604235737513
 20
12180.905391497859
 11
519.896162724861
 21
12180.905391497859
  0
LINE
  5
18B
100
AcDbEntity
  8
1
  6
DOT_CENTER
 62
           1
100
AcDbLine
 10
511.964788441496
 20
12188.155779918199
 11
511.964788441496
 21
12173.29296933325
  0
LINE
  5
18A
100
AcDbEntity
  8
1
  6
DOT_CENTER
 62
           1
100
AcDbLine
 10
499.464788441496
 20
12201.875297381221
 11
499.464788441496
 21
12184.29716563172
  0
LINE
  5
189
100
AcDbEntity
  8
1
  6
DOT_CENTER
 62
           1
100
AcDbLine
 10
411.964788441496
 20
12288.30078547535
 11
411.964788441496
 21
12271.91716952895
  0
LINE
  5
188
100
AcDbEntity
  8
1
  6
DOT_CENTER
 62
           1
100
AcDbLine
 10
403.769590702867
 20
12280.905391497859
 11
420.877344370662
 21
12280.905391497859
  0
LINE
  5
187
100
AcDbEntity
  8
1
  6
DOT_CENTER
 62
           1
100
AcDbLine
 10
414.179070447822
 20
12268.405391497859
 11
433.459237279782
 21
12268.405391497859
  0
LINE
  5
186
100
AcDbEntity
  8
1
  6
DOT_CENTER
 62
           1
100
AcDbLine
 10
424.464788441496
 20
12277.076650793841
 11
424.464788441496
 21
12259.425793835
  0
LINE
  5
185
100
AcDbEntity
  8
1
  6
CONTINUOUS
 62
           6
100
AcDbLine
 10
452.464788441496
 20
12242.405391497859
 11
452.464788441496
 21
12241.405391497859
  0
LINE
  5
184
100
AcDbEntity
  8
1
  6
CONTINUOUS
 62
           6
100
AcDbLine
 10
450.964788441496
 20
12242.905391497859
 11
449.964788441496
 21
12242.905391497859
  0
LINE
  5
183
100
AcDbEntity
  8
1
  6
CONTINUOUS
 62
           6
100
AcDbLine
 10
452.964788441496
 20
12243.905391497859
 11
453.964788441496
 21
12243.905391497859
  0
LINE
  5
182
100
AcDbEntity
  8
1
  6
CONTINUOUS
 62
           6
100
AcDbLine
 10
451.464788441496
 20
12244.405391497859
 11
451.464788441496
 21
12245.405391497859
  0
LINE
  5
181
100
AcDbEntity
  8
1
  6
CONTINUOUS
 62
           6
100
AcDbLine
 10
449.964788441496
 20
12242.905391497859
 11
449.964788441496
 21
12243.905391497859
  0
LINE
  5
180
100
AcDbEntity
  8
1
  6
CONTINUOUS
 62
           6
100
AcDbLine
 10
453.964788441496
 20
12242.905391497859
 11
452.964788441496
 21
12242.905391497859
  0
LINE
  5
17F
100
AcDbEntity
  8
1
  6
CONTINUOUS
 62
           6
100
AcDbLine
 10
453.964788441496
 20
12243.905391497859
 11
453.964788441496
 21
12242.905391497859
  0
LINE
  5
17E
100
AcDbEntity
  8
1
  6
CONTINUOUS
 62
           6
100
AcDbLine
 10
449.964788441496
 20
12243.905391497859
 11
450.964788441496
 21
12243.905391497859
  0
LINE
  5
17D
100
AcDbEntity
  8
1
  6
CONTINUOUS
 62
           6
100
AcDbLine
 10
451.464788441496
 20
12241.405391497859
 11
451.464788441496
 21
12242.405391497859
  0
LINE
  5
17C
100
AcDbEntity
  8
1
  6
CONTINUOUS
 62
           6
100
AcDbLine
 10
452.464788441496
 20
12241.405391497859
 11
451.464788441496
 21
12241.405391497859
  0
LINE
  5
17B
100
AcDbEntity
  8
1
  6
CONTINUOUS
 62
           6
100
AcDbLine
 10
452.464788441496
 20
12245.405391497859
 11
452.464788441496
 21
12244.405391497859
  0
LINE
  5
17A
100
AcDbEntity
  8
1
  6
CONTINUOUS
 62
           6
100
AcDbLine
 10
451.464788441496
 20
12245.405391497859
 11
452.464788441496
 21
12245.405391497859
  0
LINE
  5
179
100
AcDbEntity
  8
1
  6
CONTINUOUS
 62
           6
100
AcDbLine
 10
471.464788441496
 20
12245.405391497859
 11
472.464788441496
 21
12245.405391497859
  0
LINE
  5
178
100
AcDbEntity
  8
1
  6
CONTINUOUS
 62
           6
100
AcDbLine
 10
471.464788441496
 20
12244.405391497859
 11
471.464788441496
 21
12245.405391497859
  0
LINE
  5
177
100
AcDbEntity
  8
1
  6
CONTINUOUS
 62
           6
100
AcDbLine
 10
472.464788441496
 20
12241.405391497859
 11
471.464788441496
 21
12241.405391497859
  0
LINE
  5
176
100
AcDbEntity
  8
1
  6
CONTINUOUS
 62
           6
100
AcDbLine
 10
472.464788441496
 20
12242.405391497859
 11
472.464788441496
 21
12241.405391497859
  0
LINE
  5
175
100
AcDbEntity
  8
1
  6
CONTINUOUS
 62
           6
100
AcDbLine
 10
472.964788441496
 20
12243.905391497859
 11
473.964788441496
 21
12243.905391497859
  0
LINE
  5
174
100
AcDbEntity
  8
1
  6
CONTINUOUS
 62
           6
100
AcDbLine
 10
469.964788441496
 20
12242.905391497859
 11
469.964788441496
 21
12243.905391497859
  0
LINE
  5
173
100
AcDbEntity
  8
1
  6
CONTINUOUS
 62
           6
100
AcDbLine
 10
470.964788441496
 20
12242.905391497859
 11
469.964788441496
 21
12242.905391497859
  0
LINE
  5
172
100
AcDbEntity
  8
1
  6
CONTINUOUS
 62
           6
100
AcDbLine
 10
473.964788441496
 20
12243.905391497859
 11
473.964788441496
 21
12242.905391497859
  0
LINE
  5
171
100
AcDbEntity
  8
1
  6
CONTINUOUS
 62
           6
100
AcDbLine
 10
472.464788441496
 20
12245.405391497859
 11
472.464788441496
 21
12244.405391497859
  0
LINE
  5
170
100
AcDbEntity
  8
1
  6
CONTINUOUS
 62
           6
100
AcDbLine
 10
469.964788441496
 20
12243.905391497859
 11
470.964788441496
 21
12243.905391497859
  0
LINE
  5
16F
100
AcDbEntity
  8
1
  6
CONTINUOUS
 62
           6
100
AcDbLine
 10
473.964788441496
 20
12242.905391497859
 11
472.964788441496
 21
12242.905391497859
  0
LINE
  5
16E
100
AcDbEntity
  8
1
  6
CONTINUOUS
 62
           6
100
AcDbLine
 10
471.464788441496
 20
12241.405391497859
 11
471.464788441496
 21
12242.405391497859
  0
LINE
  5
16D
100
AcDbEntity
  8
1
  6
CONTINUOUS
 62
           6
100
AcDbLine
 10
471.464788441496
 20
12219.405391497859
 11
471.464788441496
 21
12220.405391497859
  0
LINE
  5
16C
100
AcDbEntity
  8
1
  6
CONTINUOUS
 62
           6
100
AcDbLine
 10
472.964788441496
 20
12218.905391497859
 11
473.964788441496
 21
12218.905391497859
  0
LINE
  5
16B
100
AcDbEntity
  8
1
  6
CONTINUOUS
 62
           6
100
AcDbLine
 10
470.964788441496
 20
12217.905391497859
 11
469.964788441496
 21
12217.905391497859
  0
LINE
  5
16A
100
AcDbEntity
  8
1
  6
CONTINUOUS
 62
           6
100
AcDbLine
 10
472.464788441496
 20
12217.405391497859
 11
472.464788441496
 21
12216.405391497859
  0
LINE
  5
169
100
AcDbEntity
  8
1
  6
CONTINUOUS
 62
           6
100
AcDbLine
 10
473.964788441496
 20
12218.905391497859
 11
473.964788441496
 21
12217.905391497859
  0
LINE
  5
168
100
AcDbEntity
  8
1
  6
CONTINUOUS
 62
           6
100
AcDbLine
 10
469.964788441496
 20
12218.905391497859
 11
470.964788441496
 21
12218.905391497859
  0
LINE
  5
167
100
AcDbEntity
  8
1
  6
CONTINUOUS
 62
           6
100
AcDbLine
 10
469.964788441496
 20
12217.905391497859
 11
469.964788441496
 21
12218.905391497859
  0
LINE
  5
166
100
AcDbEntity
  8
1
  6
CONTINUOUS
 62
           6
100
AcDbLine
 10
473.964788441496
 20
12217.905391497859
 11
472.964788441496
 21
12217.905391497859
  0
LINE
  5
165
100
AcDbEntity
  8
1
  6
CONTINUOUS
 62
           6
100
AcDbLine
 10
472.464788441496
 20
12220.405391497859
 11
472.464788441496
 21
12219.405391497859
  0
LINE
  5
164
100
AcDbEntity
  8
1
  6
CONTINUOUS
 62
           6
100
AcDbLine
 10
471.464788441496
 20
12220.405391497859
 11
472.464788441496
 21
12220.405391497859
  0
LINE
  5
163
100
AcDbEntity
  8
1
  6
CONTINUOUS
 62
           6
100
AcDbLine
 10
471.464788441496
 20
12216.405391497859
 11
471.464788441496
 21
12217.405391497859
  0
LINE
  5
162
100
AcDbEntity
  8
1
  6
CONTINUOUS
 62
           6
100
AcDbLine
 10
472.464788441496
 20
12216.405391497859
 11
471.464788441496
 21
12216.405391497859
  0
LINE
  5
161
100
AcDbEntity
  8
1
  6
CONTINUOUS
 62
           6
100
AcDbLine
 10
452.464788441496
 20
12216.405391497859
 11
451.464788441496
 21
12216.405391497859
  0
LINE
  5
160
100
AcDbEntity
  8
1
  6
CONTINUOUS
 62
           6
100
AcDbLine
 10
452.464788441496
 20
12217.405391497859
 11
452.464788441496
 21
12216.405391497859
  0
LINE
  5
15F
100
AcDbEntity
  8
1
  6
CONTINUOUS
 62
           6
100
AcDbLine
 10
451.464788441496
 20
12220.405391497859
 11
452.464788441496
 21
12220.405391497859
  0
LINE
  5
15E
100
AcDbEntity
  8
1
  6
CONTINUOUS
 62
           6
100
AcDbLine
 10
451.464788441496
 20
12219.405391497859
 11
451.464788441496
 21
12220.405391497859
  0
LINE
  5
15D
100
AcDbEntity
  8
1
  6
CONTINUOUS
 62
           6
100
AcDbLine
 10
450.964788441496
 20
12217.905391497859
 11
449.964788441496
 21
12217.905391497859
  0
LINE
  5
15C
100
AcDbEntity
  8
1
  6
CONTINUOUS
 62
           6
100
AcDbLine
 10
453.964788441496
 20
12218.905391497859
 11
453.964788441496
 21
12217.905391497859
  0
LINE
  5
15B
100
AcDbEntity
  8
1
  6
CONTINUOUS
 62
           6
100
AcDbLine
 10
452.964788441496
 20
12218.905391497859
 11
453.964788441496
 21
12218.905391497859
  0
LINE
  5
15A
100
AcDbEntity
  8
1
  6
CONTINUOUS
 62
           6
100
AcDbLine
 10
449.964788441496
 20
12217.905391497859
 11
449.964788441496
 21
12218.905391497859
  0
LINE
  5
159
100
AcDbEntity
  8
1
  6
CONTINUOUS
 62
           6
100
AcDbLine
 10
451.464788441496
 20
12216.405391497859
 11
451.464788441496
 21
12217.405391497859
  0
LINE
  5
158
100
AcDbEntity
  8
1
  6
CONTINUOUS
 62
           6
100
AcDbLine
 10
453.964788441496
 20
12217.905391497859
 11
452.964788441496
 21
12217.905391497859
  0
LINE
  5
157
100
AcDbEntity
  8
1
  6
CONTINUOUS
 62
           6
100
AcDbLine
 10
449.964788441496
 20
12218.905391497859
 11
450.964788441496
 21
12218.905391497859
  0
LINE
  5
156
100
AcDbEntity
  8
1
  6
CONTINUOUS
 62
           6
100
AcDbLine
 10
452.464788441496
 20
12220.405391497859
 11
452.464788441496
 21
12219.405391497859
  0
LINE
  5
155
100
AcDbEntity
  8
1
  6
DOT_CENTER
 62
           1
100
AcDbLine
 10
451.964788441496
 20
12250.047155773531
 11
451.964788441496
 21
12211.22581615906
  0
LINE
  5
154
100
AcDbEntity
  8
1
  6
DOT_CENTER
 62
           1
100
AcDbLine
 10
471.964788441496
 20
12250.728231907109
 11
471.964788441496
 21
12209.999879118601
  0
LINE
  5
153
100
AcDbEntity
  8
1
  6
DOT_CENTER
 62
           1
100
AcDbLine
 10
441.950279347806
 20
12243.405391497859
 11
483.223493043188
 21
12243.405391497859
  0
LINE
  5
152
100
AcDbEntity
  8
1
  6
DOT_CENTER
 62
           1
100
AcDbLine
 10
441.541633667654
 20
12218.405391497859
 11
482.678632136319
 21
12218.405391497859
  0
LINE
  5
151
100
AcDbEntity
  8
1
  6
DOT_CENTER
 62
           1
100
AcDbLine
 10
461.964788441496
 20
12331.81409657199
 11
461.964788441496
 21
12001.213707321451
  0
LINE
  5
150
100
AcDbEntity
  8
1
  6
CONTINUOUS
 62
           3
100
AcDbLine
 10
766.005547523771
 20
12405.958245694839
 11
766.005547523771
 21
12418.458245694839
  0
LINE
  5
14F
100
AcDbEntity
  8
1
  6
CONTINUOUS
 62
           3
100
AcDbLine
 10
951.510660692628
 20
12011.405391497859
 11
993.510660692628
 21
12011.405391497859
  0
LINE
  5
14E
100
AcDbEntity
  8
1
  6
CONTINUOUS
 62
           3
100
AcDbLine
 10
1095.510660692628
 20
12011.405391497859
 11
1095.510660692628
 21
12008.405391497859
  0
LINE
  5
14D
100
AcDbEntity
  8
1
  6
CONTINUOUS
 62
           3
100
AcDbLine
 10
1095.510660692628
 20
12008.405391497859
 11
1053.510660692628
 21
12008.405391497859
  0
LINE
  5
14C
100
AcDbEntity
  8
1
  6
CONTINUOUS
 62
           3
100
AcDbLine
 10
951.510660692628
 20
12008.405391497859
 11
951.510660692628
 21
12011.405391497859
  0
LINE
  5
14B
100
AcDbEntity
  8
1
  6
CONTINUOUS
 62
           3
100
AcDbLine
 10
1053.510660692628
 20
12011.405391497859
 11
1053.510660692628
 21
12014.405391497859
  0
LINE
  5
14A
100
AcDbEntity
  8
1
  6
CONTINUOUS
 62
           3
100
AcDbLine
 10
1053.510660692628
 20
12323.405391497859
 11
1050.510660692628
 21
12323.405391497859
  0
LINE
  5
149
100
AcDbEntity
  8
1
  6
CONTINUOUS
 62
           3
100
AcDbLine
 10
993.510660692628
 20
12008.405391497859
 11
951.510660692628
 21
12008.405391497859
  0
LINE
  5
148
100
AcDbEntity
  8
1
  6
CONTINUOUS
 62
           3
100
AcDbLine
 10
1053.510660692628
 20
12008.405391497859
 11
1050.510660692628
 21
12008.405391497859
  0
LINE
  5
147
100
AcDbEntity
  8
1
  6
CONTINUOUS
 62
           3
100
AcDbLine
 10
996.510660692628
 20
12008.405391497859
 11
993.510660692628
 21
12008.405391497859
  0
LINE
  5
146
100
AcDbEntity
  8
1
  6
CONTINUOUS
 62
           3
100
AcDbLine
 10
1050.510660692628
 20
12008.405391497859
 11
1047.510660692628
 21
12008.405391497859
  0
LINE
  5
145
100
AcDbEntity
  8
1
  6
CONTINUOUS
 62
           3
100
AcDbLine
 10
1050.510660692628
 20
12014.88160975233
 11
1050.510660692628
 21
12008.405391497859
  0
LINE
  5
144
100
AcDbEntity
  8
1
  6
CONTINUOUS
 62
           3
100
AcDbLine
 10
996.510660692628
 20
12014.88160975233
 11
996.510660692628
 21
12008.405391497859
  0
LINE
  5
143
100
AcDbEntity
  8
1
  6
CONTINUOUS
 62
           3
100
AcDbLine
 10
1047.510660692628
 20
12008.405391497859
 11
1036.010660692628
 21
12008.405391497859
  0
LINE
  5
142
100
AcDbEntity
  8
1
  6
CONTINUOUS
 62
           3
100
AcDbLine
 10
993.510660692628
 20
12011.405391497859
 11
999.986878947105
 21
12011.405391497859
  0
LINE
  5
141
100
AcDbEntity
  8
1
  6
CONTINUOUS
 62
           3
100
AcDbLine
 10
999.510660692628
 20
12008.405391497859
 11
996.510660692628
 21
12008.405391497859
  0
LINE
  5
140
100
AcDbEntity
  8
1
  6
CONTINUOUS
 62
           3
100
AcDbLine
 10
1053.510660692628
 20
12014.405391497859
 11
1053.510660692628
 21
12323.405391497859
  0
LINE
  5
13F
100
AcDbEntity
  8
1
  6
CONTINUOUS
 62
           3
100
AcDbLine
 10
1053.510660692628
 20
12011.405391497859
 11
1095.510660692628
 21
12011.405391497859
  0
LINE
  5
13E
100
AcDbEntity
  8
1
  6
CONTINUOUS
 62
           3
100
AcDbLine
 10
1011.010660692628
 20
12008.405391497859
 11
1011.010660692628
 21
12011.405391497859
  0
LINE
  5
13D
100
AcDbEntity
  8
1
  6
CONTINUOUS
 62
           3
100
AcDbLine
 10
1011.010660692628
 20
12008.405391497859
 11
999.510660692628
 21
12008.405391497859
  0
LINE
  5
13C
100
AcDbEntity
  8
1
  6
CONTINUOUS
 62
           3
100
AcDbLine
 10
1011.010660692628
 20
12018.405391497859
 11
1036.010660692628
 21
12018.405391497859
  0
LINE
  5
13B
100
AcDbEntity
  8
1
  6
CONTINUOUS
 62
           3
100
AcDbLine
 10
1036.010660692628
 20
12018.405391497859
 11
1036.010660692628
 21
12011.405391497859
  0
LINE
  5
13A
100
AcDbEntity
  8
1
  6
CONTINUOUS
 62
           3
100
AcDbLine
 10
1036.010660692628
 20
12008.405391497859
 11
1011.010660692628
 21
12008.405391497859
  0
LINE
  5
139
100
AcDbEntity
  8
1
  6
DOTTED
 62
           1
100
AcDbLine
 10
1036.010660692628
 20
12011.405391497859
 11
1047.034442437218
 21
12011.405391497859
  0
LINE
  5
138
100
AcDbEntity
  8
1
  6
CONTINUOUS
 62
           3
100
AcDbLine
 10
1036.010660692628
 20
12011.405391497859
 11
1036.010660692628
 21
12008.405391497859
  0
LINE
  5
137
100
AcDbEntity
  8
1
  6
CONTINUOUS
 62
           3
100
AcDbLine
 10
1047.034442437218
 20
12011.405391497859
 11
1053.510660692628
 21
12011.405391497859
  0
LINE
  5
136
100
AcDbEntity
  8
1
  6
CONTINUOUS
 62
           3
100
AcDbLine
 10
1011.010660692628
 20
12011.405391497859
 11
1011.010660692628
 21
12018.405391497859
  0
LINE
  5
135
100
AcDbEntity
  8
1
  6
DOTTED
 62
           1
100
AcDbLine
 10
999.986878947105
 20
12011.405391497859
 11
1011.010660692628
 21
12011.405391497859
  0
LINE
  5
134
100
AcDbEntity
  8
1
  6
CONTINUOUS
 62
           3
100
AcDbLine
 10
1011.010660692628
 20
12011.405391497859
 11
1036.010660692628
 21
12011.405391497859
  0
LINE
  5
133
100
AcDbEntity
  8
1
  6
DOTTED
 62
           1
100
AcDbLine
 10
996.510660692628
 20
12323.405391497859
 11
996.510660692628
 21
12014.88160975233
  0
LINE
  5
132
100
AcDbEntity
  8
1
  6
DOTTED
 62
           1
100
AcDbLine
 10
1050.510660692628
 20
12014.88160975233
 11
1050.510660692628
 21
12323.405391497859
  0
LINE
  5
131
100
AcDbEntity
  8
1
  6
DOT_CENTER
 62
           1
100
AcDbLine
 10
1002.391623934172
 20
12050.405391497859
 11
1044.85231821341
 21
12050.405391497859
  0
LINE
  5
130
100
AcDbEntity
  8
1
  6
DOT_CENTER
 62
           1
100
AcDbLine
 10
1003.268763451574
 20
12093.405391497859
 11
1043.0275384032
 21
12093.405391497859
  0
LINE
  5
12F
100
AcDbEntity
  8
1
  6
DOT_CENTER
 62
           1
100
AcDbLine
 10
1003.268763451574
 20
12120.905391497859
 11
1043.0275384032
 21
12120.905391497859
  0
LINE
  5
12E
100
AcDbEntity
  8
1
  6
DOT_CENTER
 62
           1
100
AcDbLine
 10
1003.268763451574
 20
12148.405391497859
 11
1043.0275384032
 21
12148.405391497859
  0
LINE
  5
12D
100
AcDbEntity
  8
1
  6
DOT_CENTER
 62
           1
100
AcDbLine
 10
1003.268763451574
 20
12175.905391497859
 11
1043.0275384032
 21
12175.905391497859
  0
LINE
  5
12C
100
AcDbEntity
  8
1
  6
DOT_CENTER
 62
           1
100
AcDbLine
 10
1003.268763451574
 20
12285.905391497859
 11
1043.0275384032
 21
12285.905391497859
  0
LINE
  5
12B
100
AcDbEntity
  8
1
  6
DOT_CENTER
 62
           1
100
AcDbLine
 10
1003.268763451574
 20
12313.405391497859
 11
1043.0275384032
 21
12313.405391497859
  0
LINE
  5
12A
100
AcDbEntity
  8
1
  6
DOT_CENTER
 62
           1
100
AcDbLine
 10
1008.510660692628
 20
12326.31275971743
 11
1008.510660692628
 21
12083.95489932467
  0
LINE
  5
129
100
AcDbEntity
  8
1
  6
DOT_CENTER
 62
           1
100
AcDbLine
 10
966.010660692628
 20
12018.405391497859
 11
966.010660692628
 21
12004.10407302858
  0
LINE
  5
128
100
AcDbEntity
  8
1
  6
DOTTED
 62
           1
100
AcDbLine
 10
962.260660692628
 20
12008.405391497859
 11
962.260660692628
 21
12011.405391497859
  0
LINE
  5
127
100
AcDbEntity
  8
1
  6
DOTTED
 62
           1
100
AcDbLine
 10
969.760660692628
 20
12008.405391497859
 11
969.760660692628
 21
12011.405391497859
  0
LINE
  5
126
100
AcDbEntity
  8
1
  6
DOTTED
 62
           1
100
AcDbLine
 10
1077.260660692628
 20
12011.405391497859
 11
1077.260660692628
 21
12008.405391497859
  0
LINE
  5
125
100
AcDbEntity
  8
1
  6
DOTTED
 62
           1
100
AcDbLine
 10
1084.760660692628
 20
12011.405391497859
 11
1084.760660692628
 21
12008.405391497859
  0
LINE
  5
124
100
AcDbEntity
  8
1
  6
DOT_CENTER
 62
           1
100
AcDbLine
 10
1081.010660692628
 20
12004.10407302858
 11
1081.010660692628
 21
12018.405391497859
  0
LINE
  5
123
100
AcDbEntity
  8
1
  6
DOTTED
 62
           1
100
AcDbLine
 10
1027.260660692628
 20
12011.405391497859
 11
1027.260660692628
 21
12008.405391497859
  0
LINE
  5
122
100
AcDbEntity
  8
1
  6
DOTTED
 62
           1
100
AcDbLine
 10
1019.760660692628
 20
12011.405391497859
 11
1019.760660692628
 21
12008.405391497859
  0
LINE
  5
121
100
AcDbEntity
  8
1
  6
CONTINUOUS
 62
           3
100
AcDbLine
 10
763.005547523771
 20
12008.405391497859
 11
669.005547523771
 21
12008.405391497859
  0
LINE
  5
120
100
AcDbEntity
  8
1
  6
CONTINUOUS
 62
           3
100
AcDbLine
 10
669.005547523771
 20
12008.405391497859
 11
669.005547523771
 21
12011.405391497859
  0
LINE
  5
11F
100
AcDbEntity
  8
1
  6
CONTINUOUS
 62
           3
100
AcDbLine
 10
759.005547523771
 20
12011.405391497859
 11
759.005547523771
 21
12008.405391497859
  0
LINE
  5
11E
100
AcDbEntity
  8
1
  6
CONTINUOUS
 62
           3
100
AcDbLine
 10
766.005547523771
 20
12008.405391497859
 11
763.005547523771
 21
12008.405391497859
  0
LINE
  5
11D
100
AcDbEntity
  8
1
  6
CONTINUOUS
 62
           3
100
AcDbLine
 10
766.005547523771
 20
12323.405391497859
 11
769.005547523771
 21
12323.405391497859
  0
LINE
  5
11C
100
AcDbEntity
  8
1
  6
CONTINUOUS
 62
           3
100
AcDbLine
 10
766.005547523771
 20
12014.1634370013
 11
766.005547523771
 21
12011.405391497859
  0
LINE
  5
11B
100
AcDbEntity
  8
1
  6
DOTTED
 62
           1
100
AcDbLine
 10
766.005547523771
 20
12323.405391497859
 11
766.005547523771
 21
12014.1634370013
  0
LINE
  5
11A
100
AcDbEntity
  8
1
  6
CONTINUOUS
 62
           3
100
AcDbLine
 10
759.005547523771
 20
12318.405391497859
 11
759.005547523771
 21
12268.405391497859
  0
LINE
  5
119
100
AcDbEntity
  8
1
  6
CONTINUOUS
 62
           3
100
AcDbLine
 10
727.005547523771
 20
12011.405391497859
 11
769.005547523771
 21
12011.405391497859
  0
LINE
  5
118
100
AcDbEntity
  8
1
  6
CONTINUOUS
 62
           3
100
AcDbLine
 10
764.005547523771
 20
12323.405391497859
 11
766.005547523771
 21
12323.405391497859
  0
LINE
  5
117
100
AcDbEntity
  8
1
  6
DOT_CENTER
 62
           1
100
AcDbLine
 10
684.005547523771
 20
12001.607624907871
 11
684.005547523771
 21
12025.82448860401
  0
LINE
  5
116
100
AcDbEntity
  8
1
  6
CONTINUOUS
 62
           3
100
AcDbLine
 10
727.005547523771
 20
12020.405391497859
 11
759.005547523771
 21
12063.405391497859
  0
LINE
  5
115
100
AcDbEntity
  8
1
  6
CONTINUOUS
 62
           3
100
AcDbLine
 10
727.005547523771
 20
12011.405391497859
 11
727.005547523771
 21
12020.405391497859
  0
LINE
  5
114
100
AcDbEntity
  8
1
  6
CONTINUOUS
 62
           3
100
AcDbLine
 10
669.005547523771
 20
12011.405391497859
 11
727.005547523771
 21
12011.405391497859
  0
LINE
  5
113
100
AcDbEntity
  8
1
  6
DOT_CENTER
 62
           1
100
AcDbLine
 10
739.005547523771
 20
12001.607624907871
 11
739.005547523771
 21
12025.82448860401
  0
LINE
  5
112
100
AcDbEntity
  8
1
  6
DOTTED
 62
           1
100
AcDbLine
 10
735.255547523771
 20
12008.405391497859
 11
735.255547523771
 21
12011.405391497859
  0
LINE
  5
111
100
AcDbEntity
  8
1
  6
DOTTED
 62
           1
100
AcDbLine
 10
742.755547523771
 20
12008.405391497859
 11
742.755547523771
 21
12011.405391497859
  0
LINE
  5
110
100
AcDbEntity
  8
1
  6
DOTTED
 62
           1
100
AcDbLine
 10
687.755547523771
 20
12008.405391497859
 11
687.755547523771
 21
12011.405391497859
  0
LINE
  5
10F
100
AcDbEntity
  8
1
  6
DOTTED
 62
           1
100
AcDbLine
 10
680.255547523771
 20
12008.405391497859
 11
680.255547523771
 21
12011.405391497859
  0
LINE
  5
10E
100
AcDbEntity
  8
1
  6
DOTTED
 62
           1
100
AcDbLine
 10
766.005547523771
 20
12035.405391497859
 11
769.005547523771
 21
12035.405391497859
  0
LINE
  5
10D
100
AcDbEntity
  8
1
  6
DOTTED
 62
           1
100
AcDbLine
 10
766.005547523771
 20
12065.405391497859
 11
769.005547523771
 21
12065.405391497859
  0
LINE
  5
10C
100
AcDbEntity
  8
1
  6
DOTTED
 62
           1
100
AcDbLine
 10
766.005547523771
 20
12090.905391497859
 11
769.005547523771
 21
12090.905391497859
  0
LINE
  5
10B
100
AcDbEntity
  8
1
  6
DOTTED
 62
           1
100
AcDbLine
 10
766.005547523771
 20
12095.905391497859
 11
769.005547523771
 21
12095.905391497859
  0
LINE
  5
10A
100
AcDbEntity
  8
1
  6
DOT_CENTER
 62
           1
100
AcDbLine
 10
762.0770621429
 20
12093.405391497859
 11
774.6970621429
 21
12093.405391497859
  0
LINE
  5
109
100
AcDbEntity
  8
1
  6
DOT_CENTER
 62
           1
100
AcDbLine
 10
755.101636735029
 20
12050.405391497859
 11
777.711636735029
 21
12050.405391497859
  0
LINE
  5
108
100
AcDbEntity
  8
1
  6
DOT_CENTER
 62
           1
100
AcDbLine
 10
762.0770621429
 20
12120.905391497859
 11
774.6970621429
 21
12120.905391497859
  0
LINE
  5
107
100
AcDbEntity
  8
1
  6
DOTTED
 62
           1
100
AcDbLine
 10
766.005547523771
 20
12123.405391497859
 11
769.005547523771
 21
12123.405391497859
  0
LINE
  5
106
100
AcDbEntity
  8
1
  6
DOTTED
 62
           1
100
AcDbLine
 10
766.005547523771
 20
12118.405391497859
 11
769.005547523771
 21
12118.405391497859
  0
LINE
  5
105
100
AcDbEntity
  8
1
  6
DOT_CENTER
 62
           1
100
AcDbLine
 10
762.0770621429
 20
12148.405391497859
 11
774.6970621429
 21
12148.405391497859
  0
LINE
  5
104
100
AcDbEntity
  8
1
  6
DOTTED
 62
           1
100
AcDbLine
 10
766.005547523771
 20
12150.905391497859
 11
769.005547523771
 21
12150.905391497859
  0
LINE
  5
103
100
AcDbEntity
  8
1
  6
DOTTED
 62
           1
100
AcDbLine
 10
766.005547523771
 20
12145.905391497859
 11
769.005547523771
 21
12145.905391497859
  0
LINE
  5
102
100
AcDbEntity
  8
1
  6
DOT_CENTER
 62
           1
100
AcDbLine
 10
762.0770621429
 20
12175.905391497859
 11
774.6970621429
 21
12175.905391497859
  0
LINE
  5
101
100
AcDbEntity
  8
1
  6
DOTTED
 62
           1
100
AcDbLine
 10
766.005547523771
 20
12178.405391497859
 11
769.005547523771
 21
12178.405391497859
  0
LINE
  5
100
100
AcDbEntity
  8
1
  6
DOTTED
 62
           1
100
AcDbLine
 10
766.005547523771
 20
12173.405391497859
 11
769.005547523771
 21
12173.405391497859
  0
LINE
  5
FF
100
AcDbEntity
  8
1
  6
DOT_CENTER
 62
           1
100
AcDbLine
 10
762.0770621429
 20
12203.405391497859
 11
780.710906765213
 21
12203.405391497859
  0
LINE
  5
FE
100
AcDbEntity
  8
1
  6
DOTTED
 62
           1
100
AcDbLine
 10
766.005547523771
 20
12205.905391497859
 11
769.005547523771
 21
12205.905391497859
  0
LINE
  5
FD
100
AcDbEntity
  8
1
  6
DOTTED
 62
           1
100
AcDbLine
 10
766.005547523771
 20
12200.905391497859
 11
769.005547523771
 21
12200.905391497859
  0
LINE
  5
FC
100
AcDbEntity
  8
1
  6
DOTTED
 62
           1
100
AcDbLine
 10
766.005547523771
 20
12233.405391497859
 11
769.005547523771
 21
12233.405391497859
  0
LINE
  5
FB
100
AcDbEntity
  8
1
  6
DOTTED
 62
           1
100
AcDbLine
 10
766.005547523771
 20
12228.405391497859
 11
769.005547523771
 21
12228.405391497859
  0
LINE
  5
FA
100
AcDbEntity
  8
1
  6
DOT_CENTER
 62
           1
100
AcDbLine
 10
762.0770621429
 20
12258.405391497859
 11
780.710906765213
 21
12258.405391497859
  0
LINE
  5
F9
100
AcDbEntity
  8
1
  6
DOTTED
 62
           1
100
AcDbLine
 10
766.005547523771
 20
12260.905391497859
 11
769.005547523771
 21
12260.905391497859
  0
LINE
  5
F8
100
AcDbEntity
  8
1
  6
DOTTED
 62
           1
100
AcDbLine
 10
766.005547523771
 20
12255.905391497859
 11
769.005547523771
 21
12255.905391497859
  0
LINE
  5
F7
100
AcDbEntity
  8
1
  6
DOT_CENTER
 62
           1
100
AcDbLine
 10
762.0770621429
 20
12285.905391497859
 11
774.6970621429
 21
12285.905391497859
  0
LINE
  5
F6
100
AcDbEntity
  8
1
  6
DOTTED
 62
           1
100
AcDbLine
 10
766.005547523771
 20
12288.405391497859
 11
769.005547523771
 21
12288.405391497859
  0
LINE
  5
F5
100
AcDbEntity
  8
1
  6
DOTTED
 62
           1
100
AcDbLine
 10
766.005547523771
 20
12283.405391497859
 11
769.005547523771
 21
12283.405391497859
  0
LINE
  5
F4
100
AcDbEntity
  8
1
  6
DOT_CENTER
 62
           1
100
AcDbLine
 10
762.0770621429
 20
12313.405391497859
 11
774.6970621429
 21
12313.405391497859
  0
LINE
  5
F3
100
AcDbEntity
  8
1
  6
DOTTED
 62
           1
100
AcDbLine
 10
766.005547523771
 20
12315.905391497859
 11
769.005547523771
 21
12315.905391497859
  0
LINE
  5
F2
100
AcDbEntity
  8
1
  6
DOTTED
 62
           1
100
AcDbLine
 10
766.005547523771
 20
12310.905391497859
 11
769.005547523771
 21
12310.905391497859
  0
LINE
  5
F1
100
AcDbEntity
  8
1
  6
DOTTED
 62
           1
100
AcDbLine
 10
721.005547523771
 20
12457.958245694839
 11
721.005547523771
 21
12460.958245694839
  0
LINE
  5
F0
100
AcDbEntity
  8
1
  6
DOTTED
 62
           1
100
AcDbLine
 10
721.005547523771
 20
12400.958245694839
 11
721.005547523771
 21
12403.958245694839
  0
LINE
  5
EF
100
AcDbEntity
  8
1
  6
CONTINUOUS
 62
           3
100
AcDbLine
 10
759.005547523771
 20
12400.958245694839
 11
733.507331997556
 21
12400.958245694839
  0
LINE
  5
EE
100
AcDbEntity
  8
1
  6
CONTINUOUS
 62
           3
100
AcDbLine
 10
759.005547523771
 20
12460.958245694839
 11
766.005547523771
 21
12460.958245694839
  0
LINE
  5
ED
100
AcDbEntity
  8
1
  6
CONTINUOUS
 62
           3
100
AcDbLine
 10
759.005547523771
 20
12497.958245694839
 11
759.005547523771
 21
12460.958245694839
  0
LINE
  5
EC
100
AcDbEntity
  8
1
  6
CONTINUOUS
 62
           3
100
AcDbLine
 10
759.005547523771
 20
12400.958245694839
 11
759.005547523771
 21
12363.958245694839
  0
LINE
  5
EB
100
AcDbEntity
  8
1
  6
CONTINUOUS
 62
           3
100
AcDbLine
 10
756.005547523771
 20
12457.958245694839
 11
756.005547523771
 21
12460.958245694839
  0
LINE
  5
EA
100
AcDbEntity
  8
1
  6
CONTINUOUS
 62
           3
100
AcDbLine
 10
766.005547523771
 20
12403.958245694839
 11
733.507331997556
 21
12403.958245694839
  0
LINE
  5
E9
100
AcDbEntity
  8
1
  6
CONTINUOUS
 62
           3
100
AcDbLine
 10
766.005547523771
 20
12457.958245694839
 11
766.005547523771
 21
12443.458245694839
  0
LINE
  5
E8
100
AcDbEntity
  8
1
  6
DOTTED
 62
           1
100
AcDbLine
 10
721.005547523771
 20
12457.958245694839
 11
733.507331997556
 21
12457.958245694839
  0
LINE
  5
E7
100
AcDbEntity
  8
1
  6
CONTINUOUS
 62
           3
100
AcDbLine
 10
766.005547523771
 20
12400.958245694839
 11
759.005547523771
 21
12400.958245694839
  0
LINE
  5
E6
100
AcDbEntity
  8
1
  6
CONTINUOUS
 62
           3
100
AcDbLine
 10
769.005547523771
 20
12457.958245694839
 11
769.005547523771
 21
12403.958245694839
  0
LINE
  5
E5
100
AcDbEntity
  8
1
  6
DOTTED
 62
           1
100
AcDbLine
 10
721.005547523771
 20
12460.958245694839
 11
733.507331997556
 21
12460.958245694839
  0
LINE
  5
E4
100
AcDbEntity
  8
1
  6
CONTINUOUS
 62
           3
100
AcDbLine
 10
756.005547523771
 20
12400.958245694839
 11
756.005547523771
 21
12403.958245694839
  0
LINE
  5
E3
100
AcDbEntity
  8
1
  6
DOT_CENTER
 62
           1
100
AcDbLine
 10
675.25447988939
 20
12488.458245694839
 11
747.189076261201
 21
12488.458245694839
  0
LINE
  5
E2
100
AcDbEntity
  8
1
  6
DOT_CENTER
 62
           1
100
AcDbLine
 10
675.25447988939
 20
12373.458245694839
 11
747.189076261201
 21
12373.458245694839
  0
LINE
  5
E1
100
AcDbEntity
  8
1
  6
DOT_CENTER
 62
           1
100
AcDbLine
 10
739.005547523771
 20
12364.03934156741
 11
739.005547523771
 21
12497.5375955703
  0
LINE
  5
E0
100
AcDbEntity
  8
1
  6
CONTINUOUS
 62
           3
100
AcDbLine
 10
754.005547523771
 20
12358.958245694839
 11
674.005547523771
 21
12358.958245694839
  0
LINE
  5
DF
100
AcDbEntity
  8
1
  6
CONTINUOUS
 62
           3
100
AcDbLine
 10
674.005547523771
 20
12502.958245694839
 11
754.005547523771
 21
12502.958245694839
  0
LINE
  5
DE
100
AcDbEntity
  8
1
  6
CONTINUOUS
 62
           3
100
AcDbLine
 10
669.005547523771
 20
12363.958245694839
 11
669.005547523771
 21
12497.958245694839
  0
LINE
  5
DD
100
AcDbEntity
  8
1
  6
DOT_CENTER
 62
           1
100
AcDbLine
 10
959.510660692628
 20
12230.905391497859
 11
1091.251257564664
 21
12230.905391497859
  0
LINE
  5
DC
100
AcDbEntity
  8
1
  6
DOTTED
 62
           1
100
AcDbLine
 10
458.214788441496
 20
12011.405391497859
 11
458.214788441496
 21
12008.405391497859
  0
LINE
  5
DB
100
AcDbEntity
  8
1
  6
DOTTED
 62
           1
100
AcDbLine
 10
465.714788441496
 20
12011.405391497859
 11
465.714788441496
 21
12008.405391497859
  0
LINE
  5
DA
100
AcDbEntity
  8
1
  6
DOT_CENTER
 62
           1
100
AcDbLine
 10
519.464788441495
 20
12004.10407302858
 11
519.464788441495
 21
12018.405391497859
  0
LINE
  5
D9
100
AcDbEntity
  8
1
  6
DOTTED
 62
           1
100
AcDbLine
 10
523.214788441495
 20
12011.405391497859
 11
523.214788441495
 21
12008.405391497859
  0
LINE
  5
D8
100
AcDbEntity
  8
1
  6
DOTTED
 62
           1
100
AcDbLine
 10
515.714788441495
 20
12011.405391497859
 11
515.714788441495
 21
12008.405391497859
  0
LINE
  5
D7
100
AcDbEntity
  8
1
  6
DOTTED
 62
           1
100
AcDbLine
 10
408.214788441496
 20
12008.405391497859
 11
408.214788441496
 21
12011.405391497859
  0
LINE
  5
D6
100
AcDbEntity
  8
1
  6
DOTTED
 62
           1
100
AcDbLine
 10
400.714788441496
 20
12008.405391497859
 11
400.714788441496
 21
12011.405391497859
  0
LINE
  5
D5
100
AcDbEntity
  8
1
  6
DOT_CENTER
 62
           1
100
AcDbLine
 10
404.464788441496
 20
12018.405391497859
 11
404.464788441496
 21
12004.10407302858
  0
LINE
  5
D4
100
AcDbEntity
  8
1
  6
DOT_CENTER
 62
           1
100
AcDbLine
 10
476.964788441496
 20
12083.95489932467
 11
476.964788441496
 21
12326.31275971743
  0
LINE
  5
D3
100
AcDbEntity
  8
1
  6
DOT_CENTER
 62
           1
100
AcDbLine
 10
446.964788441496
 20
12326.31275971743
 11
446.964788441496
 21
12083.95489932467
  0
LINE
  5
D2
100
AcDbEntity
  8
1
  6
DOT_CENTER
 62
           1
100
AcDbLine
 10
441.722891200441
 20
12313.405391497859
 11
481.481666152067
 21
12313.405391497859
  0
LINE
  5
D1
100
AcDbEntity
  8
1
  6
DOT_CENTER
 62
           1
100
AcDbLine
 10
441.722891200441
 20
12148.405391497859
 11
481.481666152067
 21
12148.405391497859
  0
LINE
  5
D0
100
AcDbEntity
  8
1
  6
DOT_CENTER
 62
           1
100
AcDbLine
 10
441.722891200441
 20
12120.905391497859
 11
481.481666152067
 21
12120.905391497859
  0
LINE
  5
CF
100
AcDbEntity
  8
1
  6
DOT_CENTER
 62
           1
100
AcDbLine
 10
441.722891200441
 20
12093.405391497859
 11
481.481666152067
 21
12093.405391497859
  0
LINE
  5
CE
100
AcDbEntity
  8
1
  6
DOT_CENTER
 62
           1
100
AcDbLine
 10
440.845751683039
 20
12050.405391497859
 11
483.306445962277
 21
12050.405391497859
  0
LINE
  5
CD
100
AcDbEntity
  8
1
  6
CONTINUOUS
 62
           3
100
AcDbLine
 10
488.964788441496
 20
12014.88160975233
 11
488.964788441496
 21
12184.53578849599
  0
LINE
  5
CC
100
AcDbEntity
  8
1
  6
CONTINUOUS
 62
           3
100
AcDbLine
 10
449.464788441496
 20
12011.405391497859
 11
449.464788441496
 21
12018.405391497859
  0
LINE
  5
CB
100
AcDbEntity
  8
1
  6
DOTTED
 62
           1
100
AcDbLine
 10
474.464788441496
 20
12011.405391497859
 11
474.464788441496
 21
12008.405391497859
  0
LINE
  5
CA
100
AcDbEntity
  8
1
  6
CONTINUOUS
 62
           3
100
AcDbLine
 10
474.464788441496
 20
12018.405391497859
 11
474.464788441496
 21
12011.405391497859
  0
LINE
  5
C9
100
AcDbEntity
  8
1
  6
CONTINUOUS
 62
           3
100
AcDbLine
 10
449.464788441496
 20
12018.405391497859
 11
474.464788441496
 21
12018.405391497859
  0
LINE
  5
C8
100
AcDbEntity
  8
1
  6
DOTTED
 62
           1
100
AcDbLine
 10
449.464788441496
 20
12008.405391497859
 11
449.464788441496
 21
12011.405391497859
  0
LINE
  5
C7
100
AcDbEntity
  8
1
  6
CONTINUOUS
 62
           3
100
AcDbLine
 10
434.964788441495
 20
12014.88160975233
 11
434.964788441495
 21
12011.405391497859
  0
LINE
  5
C6
100
AcDbEntity
  8
1
  6
CONTINUOUS
 62
           3
100
AcDbLine
 10
488.964788441496
 20
12014.88160975233
 11
488.964788441496
 21
12011.405391497859
  0
LINE
  5
C5
100
AcDbEntity
  8
1
  6
CONTINUOUS
 62
           3
100
AcDbLine
 10
533.964788441495
 20
12008.405391497859
 11
389.964788441495
 21
12008.405391497859
  0
LINE
  5
C4
100
AcDbEntity
  8
1
  6
CONTINUOUS
 62
           3
100
AcDbLine
 10
491.964788441496
 20
12323.405391497859
 11
488.964788441496
 21
12323.405391497859
  0
LINE
  5
C3
100
AcDbEntity
  8
1
  6
CONTINUOUS
 62
           3
100
AcDbLine
 10
491.964788441496
 20
12011.405391497859
 11
491.964788441496
 21
12182.481383993179
  0
LINE
  5
C2
100
AcDbEntity
  8
1
  6
CONTINUOUS
 62
           3
100
AcDbLine
 10
389.964788441495
 20
12008.405391497859
 11
389.964788441495
 21
12011.405391497859
  0
LINE
  5
C1
100
AcDbEntity
  8
1
  6
CONTINUOUS
 62
           3
100
AcDbLine
 10
533.964788441495
 20
12011.405391497859
 11
533.964788441495
 21
12008.405391497859
  0
LINE
  5
C0
100
AcDbEntity
  8
1
  6
CONTINUOUS
 62
           3
100
AcDbLine
 10
389.964788441495
 20
12011.405391497859
 11
533.964788441495
 21
12011.405391497859
  0
LINE
  5
BF
100
AcDbEntity
  8
1
  6
CONTINUOUS
 62
           3
100
AcDbLine
 10
1038.010660692628
 20
12260.405391497859
 11
1039.010660692628
 21
12260.405391497859
  0
LINE
  5
BE
100
AcDbEntity
  8
1
  6
CONTINUOUS
 62
           3
100
AcDbLine
 10
1039.010660692628
 20
12260.405391497859
 11
1039.010660692628
 21
12259.405391497859
  0
LINE
  5
BD
100
AcDbEntity
  8
1
  6
CONTINUOUS
 62
           3
100
AcDbLine
 10
1039.010660692628
 20
12256.405391497859
 11
1038.010660692628
 21
12256.405391497859
  0
LINE
  5
BC
100
AcDbEntity
  8
1
  6
CONTINUOUS
 62
           3
100
AcDbLine
 10
1038.010660692628
 20
12256.405391497859
 11
1038.010660692628
 21
12257.405391497859
  0
LINE
  5
BB
100
AcDbEntity
  8
1
  6
CONTINUOUS
 62
           3
100
AcDbLine
 10
1036.510660692628
 20
12258.905391497859
 11
1037.510660692628
 21
12258.905391497859
  0
LINE
  5
BA
100
AcDbEntity
  8
1
  6
CONTINUOUS
 62
           3
100
AcDbLine
 10
1040.510660692628
 20
12258.905391497859
 11
1040.510660692628
 21
12257.905391497859
  0
LINE
  5
B9
100
AcDbEntity
  8
1
  6
CONTINUOUS
 62
           3
100
AcDbLine
 10
1040.510660692628
 20
12257.905391497859
 11
1039.510660692628
 21
12257.905391497859
  0
LINE
  5
B8
100
AcDbEntity
  8
1
  6
CONTINUOUS
 62
           3
100
AcDbLine
 10
1036.510660692628
 20
12257.905391497859
 11
1036.510660692628
 21
12258.905391497859
  0
LINE
  5
B7
100
AcDbEntity
  8
1
  6
CONTINUOUS
 62
           3
100
AcDbLine
 10
1038.010660692628
 20
12259.405391497859
 11
1038.010660692628
 21
12260.405391497859
  0
LINE
  5
B6
100
AcDbEntity
  8
1
  6
CONTINUOUS
 62
           3
100
AcDbLine
 10
1039.510660692628
 20
12258.905391497859
 11
1040.510660692628
 21
12258.905391497859
  0
LINE
  5
B5
100
AcDbEntity
  8
1
  6
CONTINUOUS
 62
           3
100
AcDbLine
 10
1037.510660692628
 20
12257.905391497859
 11
1036.510660692628
 21
12257.905391497859
  0
LINE
  5
B4
100
AcDbEntity
  8
1
  6
CONTINUOUS
 62
           3
100
AcDbLine
 10
1039.010660692628
 20
12257.405391497859
 11
1039.010660692628
 21
12256.405391497859
  0
LINE
  5
B3
100
AcDbEntity
  8
1
  6
CONTINUOUS
 62
           3
100
AcDbLine
 10
1008.010660692628
 20
12256.405391497859
 11
1008.010660692628
 21
12257.405391497859
  0
LINE
  5
B2
100
AcDbEntity
  8
1
  6
CONTINUOUS
 62
           3
100
AcDbLine
 10
1010.510660692628
 20
12257.905391497859
 11
1009.510660692628
 21
12257.905391497859
  0
LINE
  5
B1
100
AcDbEntity
  8
1
  6
CONTINUOUS
 62
           3
100
AcDbLine
 10
1006.510660692628
 20
12258.905391497859
 11
1007.510660692628
 21
12258.905391497859
  0
LINE
  5
B0
100
AcDbEntity
  8
1
  6
CONTINUOUS
 62
           3
100
AcDbLine
 10
1009.010660692628
 20
12260.405391497859
 11
1009.010660692628
 21
12259.405391497859
  0
LINE
  5
AF
100
AcDbEntity
  8
1
  6
CONTINUOUS
 62
           3
100
AcDbLine
 10
1010.510660692628
 20
12258.905391497859
 11
1010.510660692628
 21
12257.905391497859
  0
LINE
  5
AE
100
AcDbEntity
  8
1
  6
CONTINUOUS
 62
           3
100
AcDbLine
 10
1007.510660692628
 20
12257.905391497859
 11
1006.510660692628
 21
12257.905391497859
  0
LINE
  5
AD
100
AcDbEntity
  8
1
  6
CONTINUOUS
 62
           3
100
AcDbLine
 10
1006.510660692628
 20
12257.905391497859
 11
1006.510660692628
 21
12258.905391497859
  0
LINE
  5
AC
100
AcDbEntity
  8
1
  6
CONTINUOUS
 62
           3
100
AcDbLine
 10
1009.510660692628
 20
12258.905391497859
 11
1010.510660692628
 21
12258.905391497859
  0
LINE
  5
AB
100
AcDbEntity
  8
1
  6
CONTINUOUS
 62
           3
100
AcDbLine
 10
1009.010660692628
 20
12257.405391497859
 11
1009.010660692628
 21
12256.405391497859
  0
LINE
  5
AA
100
AcDbEntity
  8
1
  6
CONTINUOUS
 62
           3
100
AcDbLine
 10
1009.010660692628
 20
12256.405391497859
 11
1008.010660692628
 21
12256.405391497859
  0
LINE
  5
A9
100
AcDbEntity
  8
1
  6
CONTINUOUS
 62
           3
100
AcDbLine
 10
1008.010660692628
 20
12259.405391497859
 11
1008.010660692628
 21
12260.405391497859
  0
LINE
  5
A8
100
AcDbEntity
  8
1
  6
CONTINUOUS
 62
           3
100
AcDbLine
 10
1008.010660692628
 20
12260.405391497859
 11
1009.010660692628
 21
12260.405391497859
  0
LINE
  5
A7
100
AcDbEntity
  8
1
  6
CONTINUOUS
 62
           3
100
AcDbLine
 10
1009.010660692628
 20
12201.405391497859
 11
1008.010660692628
 21
12201.405391497859
  0
LINE
  5
A6
100
AcDbEntity
  8
1
  6
CONTINUOUS
 62
           3
100
AcDbLine
 10
1008.010660692628
 20
12201.405391497859
 11
1008.010660692628
 21
12202.405391497859
  0
LINE
  5
A5
100
AcDbEntity
  8
1
  6
CONTINUOUS
 62
           3
100
AcDbLine
 10
1008.010660692628
 20
12205.405391497859
 11
1009.010660692628
 21
12205.405391497859
  0
LINE
  5
A4
100
AcDbEntity
  8
1
  6
CONTINUOUS
 62
           3
100
AcDbLine
 10
1009.010660692628
 20
12205.405391497859
 11
1009.010660692628
 21
12204.405391497859
  0
LINE
  5
A3
100
AcDbEntity
  8
1
  6
CONTINUOUS
 62
           3
100
AcDbLine
 10
1010.510660692628
 20
12202.905391497859
 11
1009.510660692628
 21
12202.905391497859
  0
LINE
  5
A2
100
AcDbEntity
  8
1
  6
CONTINUOUS
 62
           3
100
AcDbLine
 10
1006.510660692628
 20
12202.905391497859
 11
1006.510660692628
 21
12203.905391497859
  0
LINE
  5
A1
100
AcDbEntity
  8
1
  6
CONTINUOUS
 62
           3
100
AcDbLine
 10
1006.510660692628
 20
12203.905391497859
 11
1007.510660692628
 21
12203.905391497859
  0
LINE
  5
A0
100
AcDbEntity
  8
1
  6
CONTINUOUS
 62
           3
100
AcDbLine
 10
1010.510660692628
 20
12203.905391497859
 11
1010.510660692628
 21
12202.905391497859
  0
LINE
  5
9F
100
AcDbEntity
  8
1
  6
CONTINUOUS
 62
           3
100
AcDbLine
 10
1009.010660692628
 20
12202.405391497859
 11
1009.010660692628
 21
12201.405391497859
  0
LINE
  5
9E
100
AcDbEntity
  8
1
  6
CONTINUOUS
 62
           3
100
AcDbLine
 10
1007.510660692628
 20
12202.905391497859
 11
1006.510660692628
 21
12202.905391497859
  0
LINE
  5
9D
100
AcDbEntity
  8
1
  6
CONTINUOUS
 62
           3
100
AcDbLine
 10
1009.510660692628
 20
12203.905391497859
 11
1010.510660692628
 21
12203.905391497859
  0
LINE
  5
9C
100
AcDbEntity
  8
1
  6
CONTINUOUS
 62
           3
100
AcDbLine
 10
1008.010660692628
 20
12204.405391497859
 11
1008.010660692628
 21
12205.405391497859
  0
LINE
  5
9B
100
AcDbEntity
  8
1
  6
CONTINUOUS
 62
           3
100
AcDbLine
 10
1039.010660692628
 20
12205.405391497859
 11
1039.010660692628
 21
12204.405391497859
  0
LINE
  5
9A
100
AcDbEntity
  8
1
  6
CONTINUOUS
 62
           3
100
AcDbLine
 10
1036.510660692628
 20
12203.905391497859
 11
1037.510660692628
 21
12203.905391497859
  0
LINE
  5
99
100
AcDbEntity
  8
1
  6
CONTINUOUS
 62
           3
100
AcDbLine
 10
1040.510660692628
 20
12202.905391497859
 11
1039.510660692628
 21
12202.905391497859
  0
LINE
  5
98
100
AcDbEntity
  8
1
  6
CONTINUOUS
 62
           3
100
AcDbLine
 10
1038.010660692628
 20
12201.405391497859
 11
1038.010660692628
 21
12202.405391497859
  0
LINE
  5
97
100
AcDbEntity
  8
1
  6
CONTINUOUS
 62
           3
100
AcDbLine
 10
1036.510660692628
 20
12202.905391497859
 11
1036.510660692628
 21
12203.905391497859
  0
LINE
  5
96
100
AcDbEntity
  8
1
  6
CONTINUOUS
 62
           3
100
AcDbLine
 10
1039.510660692628
 20
12203.905391497859
 11
1040.510660692628
 21
12203.905391497859
  0
LINE
  5
95
100
AcDbEntity
  8
1
  6
CONTINUOUS
 62
           3
100
AcDbLine
 10
1040.510660692628
 20
12203.905391497859
 11
1040.510660692628
 21
12202.905391497859
  0
LINE
  5
94
100
AcDbEntity
  8
1
  6
CONTINUOUS
 62
           3
100
AcDbLine
 10
1037.510660692628
 20
12202.905391497859
 11
1036.510660692628
 21
12202.905391497859
  0
LINE
  5
93
100
AcDbEntity
  8
1
  6
CONTINUOUS
 62
           3
100
AcDbLine
 10
1038.010660692628
 20
12204.405391497859
 11
1038.010660692628
 21
12205.405391497859
  0
LINE
  5
92
100
AcDbEntity
  8
1
  6
CONTINUOUS
 62
           3
100
AcDbLine
 10
1038.010660692628
 20
12205.405391497859
 11
1039.010660692628
 21
12205.405391497859
  0
LINE
  5
91
100
AcDbEntity
  8
1
  6
CONTINUOUS
 62
           3
100
AcDbLine
 10
1039.010660692628
 20
12202.405391497859
 11
1039.010660692628
 21
12201.405391497859
  0
LINE
  5
90
100
AcDbEntity
  8
1
  6
CONTINUOUS
 62
           3
100
AcDbLine
 10
1039.010660692628
 20
12201.405391497859
 11
1038.010660692628
 21
12201.405391497859
  0
LINE
  5
8F
100
AcDbEntity
  8
1
  6
DOT_CENTER
 62
           1
100
AcDbLine
 10
1043.0275384032
 20
12203.405391497859
 11
1003.268763451574
 21
12203.405391497859
  0
LINE
  5
8E
100
AcDbEntity
  8
1
  6
CONTINUOUS
 62
           3
100
AcDbLine
 10
993.510660692628
 20
12323.405391497859
 11
993.510660692628
 21
12011.405391497859
  0
LINE
  5
8D
100
AcDbEntity
  8
1
  6
DOT_CENTER
 62
           1
100
AcDbLine
 10
1043.0275384032
 20
12258.405391497859
 11
1003.268763451574
 21
12258.405391497859
  0
LINE
  5
8C
100
AcDbEntity
  8
1
  6
CONTINUOUS
 62
           3
100
AcDbLine
 10
769.005547523771
 20
12323.405391497859
 11
769.005547523771
 21
12011.405391497859
  0
LINE
  5
8B
100
AcDbEntity
  8
1
  6
CONTINUOUS
 62
           3
100
AcDbLine
 10
769.005547523771
 20
12263.405391497859
 11
769.505547523771
 21
12263.405391497859
  0
LINE
  5
8A
100
AcDbEntity
  8
1
  6
CONTINUOUS
 62
           3
100
AcDbLine
 10
769.005547523771
 20
12253.405391497859
 11
769.505547523771
 21
12253.405391497859
  0
LINE
  5
89
100
AcDbEntity
  8
1
  6
CONTINUOUS
 62
           1
100
AcDbLine
 10
769.505547523771
 20
12263.405391497859
 11
769.505547523771
 21
12253.405391497859
  0
LINE
  5
88
100
AcDbEntity
  8
1
  6
CONTINUOUS
 62
           1
100
AcDbLine
 10
769.505547523771
 20
12208.405391497859
 11
769.505547523771
 21
12198.405391497859
  0
LINE
  5
87
100
AcDbEntity
  8
1
  6
CONTINUOUS
 62
           3
100
AcDbLine
 10
769.005547523771
 20
12198.405391497859
 11
769.505547523771
 21
12198.405391497859
  0
LINE
  5
86
100
AcDbEntity
  8
1
  6
CONTINUOUS
 62
           3
100
AcDbLine
 10
769.005547523771
 20
12208.405391497859
 11
769.505547523771
 21
12208.405391497859
  0
LINE
  5
85
100
AcDbEntity
  8
1
  6
CONTINUOUS
 62
           3
100
AcDbLine
 10
431.964788441495
 20
12323.405391497859
 11
431.964788441495
 21
12279.32939900254
  0
LINE
  5
84
100
AcDbEntity
  8
1
  6
CONTINUOUS
 62
           3
100
AcDbLine
 10
434.964788441495
 20
12323.405391497859
 11
434.964788441495
 21
12277.27499449973
  0
LINE
  5
83
100
AcDbEntity
  8
1
  6
DOT_CENTER
 62
           1
100
AcDbLine
 10
1038.510660692628
 20
12083.95489932467
 11
1038.510660692628
 21
12326.31275971743
  0
LINE
  5
82
100
AcDbEntity
  8
1
  6
CONTINUOUS
 62
           3
100
AcDbLine
 10
1050.510660692628
 20
12323.405391497859
 11
993.510660692628
 21
12323.405391497859
  0
LINE
  5
81
100
AcDbEntity
  8
1
  6
CONTINUOUS
 62
           3
100
AcDbLine
 10
766.005547523771
 20
12443.458245694839
 11
766.005547523771
 21
12455.958245694839
  0
LINE
  5
80
100
AcDbEntity
  8
1
  6
CONTINUOUS
 62
           3
100
AcDbLine
 10
766.005547523771
 20
12443.458245694839
 11
766.005547523771
 21
12418.458245694839
  0
LINE
  5
7F
100
AcDbEntity
  8
1
  6
CONTINUOUS
 62
           3
100
AcDbLine
 10
766.005547523771
 20
12418.458245694839
 11
766.005547523771
 21
12443.458245694839
  0
LINE
  5
7E
100
AcDbEntity
  8
1
  6
CONTINUOUS
 62
           3
100
AcDbLine
 10
766.005547523771
 20
12418.458245694839
 11
766.005547523771
 21
12403.958245694839
  0
LINE
  5
7D
100
AcDbEntity
  8
1
  6
CONTINUOUS
 62
           3
100
AcDbLine
 10
757.505547523771
 20
12455.958245694839
 11
766.005547523771
 21
12455.958245694839
  0
LINE
  5
7C
100
AcDbEntity
  8
1
  6
CONTINUOUS
 62
           3
100
AcDbLine
 10
745.005547523771
 20
12439.958245694839
 11
745.007331997556
 21
12439.958245694839
  0
LINE
  5
7B
100
AcDbEntity
  8
1
  6
CONTINUOUS
 62
           3
100
AcDbLine
 10
766.005547523771
 20
12405.958245694839
 11
757.505547523771
 21
12405.958245694839
  0
LINE
  5
7A
100
AcDbEntity
  8
1
  6
DOT_CENTER
 62
           1
100
AcDbLine
 10
754.94635213396
 20
12445.958245694839
 11
774.494878309451
 21
12445.958245694839
  0
LINE
  5
79
100
AcDbEntity
  8
1
  6
CONTINUOUS
 62
           3
100
AcDbLine
 10
756.005547523771
 20
12454.458245694839
 11
756.005547523771
 21
12407.458245694839
  0
LINE
  5
78
100
AcDbEntity
  8
1
  6
CONTINUOUS
 62
           3
100
AcDbLine
 10
751.005547523771
 20
12421.958245694839
 11
735.007331997556
 21
12421.958245694839
  0
LINE
  5
77
100
AcDbEntity
  8
1
  6
CONTINUOUS
 62
           3
100
AcDbLine
 10
735.007331997556
 20
12439.958245694839
 11
751.005547523771
 21
12439.958245694839
  0
LINE
  5
76
100
AcDbEntity
  8
1
  6
DOT_CENTER
 62
           1
100
AcDbLine
 10
745.005547523771
 20
12442.62418402474
 11
745.005547523771
 21
12418.58472647875
  0
LINE
  5
75
100
AcDbEntity
  8
1
  6
DOT_CENTER
 62
           1
100
AcDbLine
 10
774.494878309451
 20
12415.958245694839
 11
754.94635213396
 21
12415.958245694839
  0
LINE
  5
74
100
AcDbEntity
  8
1
  6
CONTINUOUS
 62
           3
100
AcDbLine
 10
755.009116471344
 20
12241.855391497849
 11
737.007331997557
 21
12241.855391497849
  0
LINE
  5
73
100
AcDbEntity
  8
1
  6
CONTINUOUS
 62
           3
100
AcDbLine
 10
736.007331997558
 20
12242.855391497849
 11
736.007331997557
 21
12254.40539149785
  0
LINE
  5
72
100
AcDbEntity
  8
1
  6
CONTINUOUS
 62
           3
100
AcDbLine
 10
737.007331997557
 20
12255.405391497859
 11
752.005547523771
 21
12255.40539149785
  0
LINE
  5
71
100
AcDbEntity
  8
1
  6
CONTINUOUS
 62
           3
100
AcDbLine
 10
752.005547523771
 20
12206.405391497859
 11
737.007331997557
 21
12206.405391497859
  0
LINE
  5
70
100
AcDbEntity
  8
1
  6
CONTINUOUS
 62
           3
100
AcDbLine
 10
737.007331997557
 20
12219.955391497861
 11
755.009116471344
 21
12219.955391497861
  0
LINE
  5
6F
100
AcDbEntity
  8
1
  6
CONTINUOUS
 62
           3
100
AcDbLine
 10
736.007331997558
 20
12207.405391497859
 11
736.007331997558
 21
12218.955391497861
  0
LINE
  5
6E
100
AcDbEntity
  8
1
  6
DOT_CENTER
 62
           1
100
AcDbLine
 10
745.007331997558
 20
12200.778547673781
 11
745.007331997558
 21
12261.587661304189
  0
LINE
  5
6D
100
AcDbEntity
  8
1
  6
DOT_CENTER
 62
           1
100
AcDbLine
 10
665.790534056459
 20
12230.905391497859
 11
783.268629988227
 21
12230.905391497859
  0
LINE
  5
6C
100
AcDbEntity
  8
1
  6
CONTINUOUS
 62
           1
100
AcDbLine
 10
769.505547523771
 20
12450.958245694839
 11
769.505547523771
 21
12440.958245694839
  0
LINE
  5
6B
100
AcDbEntity
  8
1
  6
CONTINUOUS
 62
           3
100
AcDbLine
 10
769.005547523771
 20
12440.958245694839
 11
769.505547523771
 21
12440.958245694839
  0
LINE
  5
6A
100
AcDbEntity
  8
1
  6
CONTINUOUS
 62
           3
100
AcDbLine
 10
769.005547523771
 20
12450.958245694839
 11
769.505547523771
 21
12450.958245694839
  0
LINE
  5
69
100
AcDbEntity
  8
1
  6
CONTINUOUS
 62
           3
100
AcDbLine
 10
769.005547523771
 20
12420.958245694839
 11
769.505547523771
 21
12420.958245694839
  0
LINE
  5
68
100
AcDbEntity
  8
1
  6
CONTINUOUS
 62
           3
100
AcDbLine
 10
769.005547523771
 20
12410.958245694839
 11
769.505547523771
 21
12410.958245694839
  0
LINE
  5
67
100
AcDbEntity
  8
1
  6
CONTINUOUS
 62
           1
100
AcDbLine
 10
769.505547523771
 20
12420.958245694839
 11
769.505547523771
 21
12410.958245694839
  0
LINE
  5
66
100
AcDbEntity
  8
1
  6
CONTINUOUS
 62
           3
100
AcDbLine
 10
684.007331997556
 20
12495.958245694839
 11
684.007331997556
 21
12365.958245694839
  0
LINE
  5
65
100
AcDbEntity
  8
1
  6
DOT_CENTER
 62
           1
100
AcDbLine
 10
684.005547523771
 20
12495.958245694839
 11
684.005547523771
 21
12497.316937299231
  0
LINE
  5
64
100
AcDbEntity
  8
1
  6
CONTINUOUS
 62
           3
100
AcDbLine
 10
682.007331997558
 20
12365.958245694839
 11
682.007331997556
 21
12495.958245694839
  0
LINE
  5
63
100
AcDbEntity
  8
1
  6
CONTINUOUS
 62
           3
100
AcDbLine
 10
684.005547523771
 20
12495.958245694839
 11
684.007331997556
 21
12495.958245694839
  0
LINE
  5
62
100
AcDbEntity
  8
1
  6
CONTINUOUS
 62
           3
100
AcDbLine
 10
682.007331997558
 20
12365.958245694839
 11
682.007331997556
 21
12365.958245694839
  0
LINE
  5
61
100
AcDbEntity
  8
1
  6
CONTINUOUS
 62
           3
100
AcDbLine
 10
733.507331997556
 20
12460.958245694839
 11
759.005547523771
 21
12460.958245694839
  0
LINE
  5
60
100
AcDbEntity
  8
1
  6
CONTINUOUS
 62
           3
100
AcDbLine
 10
733.507331997556
 20
12457.958245694839
 11
766.005547523771
 21
12457.958245694839
  0
LINE
  5
5F
100
AcDbEntity
  8
1
  6
CONTINUOUS
 62
           3
100
AcDbLine
 10
733.507331997556
 20
12469.958245694839
 11
733.507331997556
 21
12437.958245694839
  0
LINE
  5
5E
100
AcDbEntity
  8
1
  6
DOTTED
 62
           1
100
AcDbLine
 10
733.507331997556
 20
12403.958245694839
 11
721.005547523771
 21
12403.958245694839
  0
LINE
  5
5D
100
AcDbEntity
  8
1
  6
DOTTED
 62
           1
100
AcDbLine
 10
733.507331997556
 20
12400.958245694839
 11
721.005547523771
 21
12400.958245694839
  0
LINE
  5
5C
100
AcDbEntity
  8
1
  6
DOT_CENTER
 62
           1
100
AcDbLine
 10
1061.010660692628
 20
12259.425793835
 11
1061.010660692628
 21
12277.076650793841
  0
LINE
  5
5B
100
AcDbEntity
  8
1
  6
DOT_CENTER
 62
           1
100
AcDbLine
 10
1052.016211854342
 20
12268.405391497859
 11
1071.296378686302
 21
12268.405391497859
  0
LINE
  5
5A
100
AcDbEntity
  8
1
  6
DOT_CENTER
 62
           1
100
AcDbLine
 10
1073.510660692628
 20
12271.91716952895
 11
1073.510660692628
 21
12288.30078547535
  0
LINE
  5
59
100
AcDbEntity
  8
1
  6
DOT_CENTER
 62
           1
100
AcDbLine
 10
986.010660692628
 20
12184.29716563172
 11
986.010660692628
 21
12201.875297381221
  0
LINE
  5
58
100
AcDbEntity
  8
1
  6
DOT_CENTER
 62
           1
100
AcDbLine
 10
973.510660692628
 20
12173.29296933325
 11
973.510660692628
 21
12188.155779918199
  0
LINE
  5
57
100
AcDbEntity
  8
1
  6
DOT_CENTER
 62
           1
100
AcDbLine
 10
965.579286409262
 20
12180.905391497859
 11
981.87121339661
 21
12180.905391497859
  0
LINE
  5
56
100
AcDbEntity
  8
1
  6
DOT_CENTER
 62
           1
100
AcDbLine
 10
1054.203350885467
 20
12193.405391497859
 11
1067.244490309387
 21
12193.405391497859
  0
LINE
  5
55
100
AcDbEntity
  8
1
  6
DOT_CENTER
 62
           1
100
AcDbLine
 10
1056.483072834347
 20
12196.805391497859
 11
1065.852122810257
 21
12196.805391497859
  0
LINE
  5
54
100
AcDbEntity
  8
1
  6
DOT_CENTER
 62
           1
100
AcDbLine
 10
1056.219897273227
 20
12190.00539149786
 11
1065.904757922478
 21
12190.00539149786
  0
LINE
  5
53
100
AcDbEntity
  8
1
  6
DOT_CENTER
 62
           1
100
AcDbLine
 10
1061.010660692628
 20
12202.229686870971
 11
1061.010660692628
 21
12184.860099836989
  0
LINE
  5
52
100
AcDbEntity
  8
1
  6
CONTINUOUS
 62
           3
100
AcDbLine
 10
1058.410660692628
 20
12190.00539149786
 11
1058.410660692628
 21
12196.805391497859
  0
LINE
  5
51
100
AcDbEntity
  8
1
  6
CONTINUOUS
 62
           3
100
AcDbLine
 10
1063.610660692629
 20
12196.805391497859
 11
1063.610660692629
 21
12190.00539149786
  0
LINE
  5
50
100
AcDbEntity
  8
1
  6
CONTINUOUS
 62
           3
100
AcDbLine
 10
1076.110660692629
 20
12184.305391497859
 11
1076.110660692629
 21
12177.50539149786
  0
LINE
  5
4F
100
AcDbEntity
  8
1
  6
CONTINUOUS
 62
           3
100
AcDbLine
 10
1070.910660692628
 20
12177.50539149786
 11
1070.910660692628
 21
12184.305391497859
  0
LINE
  5
4E
100
AcDbEntity
  8
1
  6
DOT_CENTER
 62
           1
100
AcDbLine
 10
1073.510660692628
 20
12189.729686870971
 11
1073.510660692628
 21
12172.360099836989
  0
LINE
  5
4D
100
AcDbEntity
  8
1
  6
DOT_CENTER
 62
           1
100
AcDbLine
 10
1068.719897273227
 20
12177.50539149786
 11
1078.404757922478
 21
12177.50539149786
  0
LINE
  5
4C
100
AcDbEntity
  8
1
  6
DOT_CENTER
 62
           1
100
AcDbLine
 10
1068.983072834347
 20
12184.305391497859
 11
1078.352122810257
 21
12184.305391497859
  0
LINE
  5
4B
100
AcDbEntity
  8
1
  6
DOT_CENTER
 62
           1
100
AcDbLine
 10
1066.703350885467
 20
12180.905391497859
 11
1079.744490309387
 21
12180.905391497859
  0
LINE
  5
4A
100
AcDbEntity
  8
1
  6
CONTINUOUS
 62
           3
100
AcDbLine
 10
982.610660692628
 20
12271.00539149786
 11
989.410660692628
 21
12271.00539149786
  0
LINE
  5
49
100
AcDbEntity
  8
1
  6
CONTINUOUS
 62
           3
100
AcDbLine
 10
989.410660692628
 20
12265.805391497859
 11
982.610660692628
 21
12265.805391497859
  0
LINE
  5
48
100
AcDbEntity
  8
1
  6
DOT_CENTER
 62
           1
100
AcDbLine
 10
977.186365319513
 20
12268.405391497859
 11
994.555952353496
 21
12268.405391497859
  0
LINE
  5
47
100
AcDbEntity
  8
1
  6
DOT_CENTER
 62
           1
100
AcDbLine
 10
989.410660692628
 20
12263.614628078451
 11
989.410660692628
 21
12273.299488727709
  0
LINE
  5
46
100
AcDbEntity
  8
1
  6
DOT_CENTER
 62
           1
100
AcDbLine
 10
982.610660692628
 20
12263.87780363958
 11
982.610660692628
 21
12273.24685361549
  0
LINE
  5
45
100
AcDbEntity
  8
1
  6
DOT_CENTER
 62
           1
100
AcDbLine
 10
986.010660692628
 20
12261.59808169069
 11
986.010660692628
 21
12274.63922111461
  0
LINE
  5
44
100
AcDbEntity
  8
1
  6
DOT_CENTER
 62
           1
100
AcDbLine
 10
1056.197165766347
 20
12263.591896571579
 11
1065.418643887399
 21
12272.813374692631
  0
LINE
  5
43
100
AcDbEntity
  8
1
  6
DOT_CENTER
 62
           1
100
AcDbLine
 10
1055.405009559585
 20
12267.60806647688
 11
1062.029928330827
 21
12274.232985248131
  0
LINE
  5
42
100
AcDbEntity
  8
1
  6
DOT_CENTER
 62
           1
100
AcDbLine
 10
1060.027242447743
 20
12262.613647140901
 11
1066.875473087675
 21
12269.461877780839
  0
LINE
  5
41
100
AcDbEntity
  8
1
  6
DOT_CENTER
 62
           1
100
AcDbLine
 10
1054.770941595105
 20
12274.64511059538
 11
1067.053094373245
 21
12262.36295781724
  0
LINE
  5
40
100
AcDbEntity
  8
1
  6
CONTINUOUS
 62
           3
100
AcDbLine
 10
1061.576346117577
 20
12264.162750810739
 11
1056.768020005508
 21
12268.97107692281
  0
LINE
  5
3F
100
AcDbEntity
  8
1
  6
CONTINUOUS
 62
           3
100
AcDbLine
 10
1060.444975267679
 20
12272.648032184979
 11
1065.253301379747
 21
12267.839706072909
  0
LINE
  5
3E
100
AcDbEntity
  8
1
  6
CONTINUOUS
 62
           3
100
AcDbLine
 10
1072.944975267679
 20
12285.148032184979
 11
1077.753301379747
 21
12280.339706072909
  0
LINE
  5
3D
100
AcDbEntity
  8
1
  6
CONTINUOUS
 62
           3
100
AcDbLine
 10
1074.076346117577
 20
12276.662750810739
 11
1069.268020005508
 21
12281.47107692281
  0
LINE
  5
3C
100
AcDbEntity
  8
1
  6
DOT_CENTER
 62
           1
100
AcDbLine
 10
1067.270941595105
 20
12287.14511059538
 11
1079.553094373245
 21
12274.86295781724
  0
LINE
  5
3B
100
AcDbEntity
  8
1
  6
DOT_CENTER
 62
           1
100
AcDbLine
 10
1072.527242447743
 20
12275.113647140901
 11
1079.375473087675
 21
12281.961877780839
  0
LINE
  5
3A
100
AcDbEntity
  8
1
  6
DOT_CENTER
 62
           1
100
AcDbLine
 10
1067.905009559585
 20
12280.10806647688
 11
1074.529928330827
 21
12286.732985248131
  0
LINE
  5
39
100
AcDbEntity
  8
1
  6
DOT_CENTER
 62
           1
100
AcDbLine
 10
1068.697165766347
 20
12276.091896571579
 11
1077.918643887399
 21
12285.313374692631
  0
LINE
  5
38
100
AcDbEntity
  8
1
  6
DOT_CENTER
 62
           1
100
AcDbLine
 10
973.510660692628
 20
12274.09808169069
 11
973.510660692628
 21
12287.13922111461
  0
LINE
  5
37
100
AcDbEntity
  8
1
  6
DOT_CENTER
 62
           1
100
AcDbLine
 10
970.110660692628
 20
12276.37780363958
 11
970.110660692628
 21
12285.74685361549
  0
LINE
  5
36
100
AcDbEntity
  8
1
  6
DOT_CENTER
 62
           1
100
AcDbLine
 10
976.910660692628
 20
12276.114628078451
 11
976.910660692628
 21
12285.799488727709
  0
LINE
  5
35
100
AcDbEntity
  8
1
  6
DOT_CENTER
 62
           1
100
AcDbLine
 10
964.686365319513
 20
12280.905391497859
 11
982.055952353496
 21
12280.905391497859
  0
LINE
  5
34
100
AcDbEntity
  8
1
  6
CONTINUOUS
 62
           3
100
AcDbLine
 10
976.910660692628
 20
12278.305391497859
 11
970.110660692628
 21
12278.305391497859
  0
LINE
  5
33
100
AcDbEntity
  8
1
  6
CONTINUOUS
 62
           3
100
AcDbLine
 10
970.110660692628
 20
12283.50539149786
 11
976.910660692628
 21
12283.50539149786
  0
LINE
  5
32
100
AcDbEntity
  8
1
  6
CONTINUOUS
 62
           3
100
AcDbLine
 10
965.259861154506
 20
12275.25523159023
 11
991.76146023075
 21
12236.555551405479
  0
LINE
  5
31
100
AcDbEntity
  8
1
  6
CONTINUOUS
 62
           3
100
AcDbLine
 10
991.76146023075
 20
12225.25523159023
 11
965.259861154506
 21
12186.555551405479
  0
LINE
  5
30
100
AcDbEntity
  8
1
  6
CONTINUOUS
 62
           3
100
AcDbLine
 10
1053.510660692628
 20
12182.481383993179
 11
1067.860500785003
 21
12172.654591959739
  0
LINE
  5
2F
100
AcDbEntity
  8
1
  6
CONTINUOUS
 62
           3
100
AcDbLine
 10
1081.76146023075
 20
12186.555551405479
 11
1055.259861154506
 21
12225.25523159023
  0
LINE
  5
2E
100
AcDbEntity
  8
1
  6
CONTINUOUS
 62
           3
100
AcDbLine
 10
1055.259861154506
 20
12236.555551405479
 11
1081.76146023075
 21
12275.25523159023
  0
LINE
  5
2D
100
AcDbEntity
  8
1
  6
CONTINUOUS
 62
           3
100
AcDbLine
 10
993.510660692628
 20
12279.32939900254
 11
979.160820600252
 21
12289.15619103598
  0
LINE
  5
2C
100
AcDbEntity
  8
1
  6
CONTINUOUS
 62
           3
100
AcDbLine
 10
1067.860500785003
 20
12289.15619103598
 11
1053.510660692628
 21
12279.32939900254
  0
LINE
  5
2B
100
AcDbEntity
  8
1
  6
CONTINUOUS
 62
           3
100
AcDbLine
 10
979.160820600252
 20
12172.654591959739
 11
993.510660692628
 21
12182.481383993179
  0
LINE
  5
2A
100
AcDbEntity
  8
1
  6
DOTTED
 62
           1
100
AcDbLine
 10
434.964788441495
 20
12011.405391497859
 11
434.964788441495
 21
12008.405391497859
  0
LINE
  5
29
100
AcDbEntity
  8
1
  6
DOTTED
 62
           1
100
AcDbLine
 10
488.964788441496
 20
12011.405391497859
 11
488.964788441496
 21
12008.405391497859
  0
LINE
  5
28
100
AcDbEntity
  8
1
  6
DOT_CENTER
 62
           1
100
AcDbLine
 10
977.320823066666
 20
12193.405391497859
 11
994.740823066666
 21
12193.405391497859
  0
ENDSEC
  0
SECTION
  2
OBJECTS
  0
DICTIONARY
  5
19
100
AcDbDictionary
  3
ACAD_GROUP
350
1A
  3
ACAD_MLINESTYLE
350
1B
  0
DICTIONARY
  5
1A
102
{ACAD_REACTORS
330
19
102
}
100
AcDbDictionary
  0
DICTIONARY
  5
1B
102
{ACAD_REACTORS
330
19
102
}
100
AcDbDictionary
  3
STANDARD
350
1C
  0
MLINESTYLE
  5
1C
102
{ACAD_REACTORS
330
1B
102
}
100
AcDbMlineStyle
  2
STANDARD
 70
           0
  3

 62
           0
 51
90.0
 52
90.0
 71
           2
 49
0.5
 62
         256
  6
BYLAYER
 49
-0.5
 62
         256
  6
BYLAYER
  0
ENDSEC
  0
EOF
