  0
SECTION
  2
HEADER
  9
$ACADVER
  1
AC1014
  9
$ACADMAINTVER
 70
           0
  9
$DWGCODEPAGE
  3
DOS932
  9
$INSBASE
 10
0.0
 20
0.0
 30
0.0
  9
$EXTMIN
 10
1.000000000000E+20
 20
1.000000000000E+20
 30
1.000000000000E+20
  9
$EXTMAX
 10
-1.000000000000E+20
 20
-1.000000000000E+20
 30
-1.000000000000E+20
  9
$LIMMIN
 10
0.0
 20
0.0
  9
$LIMMAX
 10
0.0
 20
0.0
  9
$ORTHOMODE
 70
           0
  9
$REGENMODE
 70
           1
  9
$FILLMODE
 70
           1
  9
$QTEXTMODE
 70
           0
  9
$MIRRTEXT
 70
           1
  9
$DRAGMODE
 70
           2
  9
$LTSCALE
 40
1.0
  9
$OSMODE
 70
           0
  9
$ATTMODE
 70
           1
  9
$TEXTSIZE
 40
0.2
  9
$TRACEWID
 40
0.05
  9
$TEXTSTYLE
  7
STANDARD
  9
$CLAYER
  8
0
  9
$CELTYPE
  6
CONTINUOUS
  9
$CECOLOR
 62
         256
  9
$CELTSCALE
 40
1.0
  9
$DELOBJ
 70
           1
  9
$DISPSILH
 70
           0
  9
$DIMSCALE
 40
1.0
  9
$DIMASZ
 40
0.18
  9
$DIMEXO
 40
0.0625
  9
$DIMDLI
 40
0.38
  9
$DIMRND
 40
0.0
  9
$DIMDLE
 40
0.0
  9
$DIMEXE
 40
0.18
  9
$DIMTP
 40
0.0
  9
$DIMTM
 40
0.0
  9
$DIMTXT
 40
0.18
  9
$DIMCEN
 40
0.09
  9
$DIMTSZ
 40
0.0
  9
$DIMTOL
 70
           0
  9
$DIMLIM
 70
           0
  9
$DIMTIH
 70
           1
  9
$DIMTOH
 70
           1
  9
$DIMSE1
 70
           0
  9
$DIMSE2
 70
           0
  9
$DIMTAD
 70
           0
  9
$DIMZIN
 70
           0
  9
$DIMBLK
  1

  9
$DIMASO
 70
           1
  9
$DIMSHO
 70
           1
  9
$DIMPOST
  1

  9
$DIMAPOST
  1

  9
$DIMALT
 70
           0
  9
$DIMALTD
 70
           2
  9
$DIMALTF
 40
25.4
  9
$DIMLFAC
 40
1.0
  9
$DIMTOFL
 70
           0
  9
$DIMTVP
 40
0.0
  9
$DIMTIX
 70
           0
  9
$DIMSOXD
 70
           0
  9
$DIMSAH
 70
           0
  9
$DIMBLK1
  1

  9
$DIMBLK2
  1

  9
$DIMSTYLE
  2
STANDARD
  9
$DIMCLRD
 70
           0
  9
$DIMCLRE
 70
           0
  9
$DIMCLRT
 70
           0
  9
$DIMTFAC
 40
1.0
  9
$DIMGAP
 40
0.09
  9
$DIMJUST
 70
           0
  9
$DIMSD1
 70
           0
  9
$DIMSD2
 70
           0
  9
$DIMTOLJ
 70
           1
  9
$DIMTZIN
 70
           0
  9
$DIMALTZ
 70
           0
  9
$DIMALTTZ
 70
           0
  9
$DIMFIT
 70
           3
  9
$DIMUPT
 70
           0
  9
$DIMUNIT
 70
           2
  9
$DIMDEC
 70
           4
  9
$DIMTDEC
 70
           4
  9
$DIMALTU
 70
           2
  9
$DIMALTTD
 70
           2
  9
$DIMTXSTY
  7
STANDARD
  9
$DIMAUNIT
 70
           0
  9
$LUNITS
 70
           2
  9
$LUPREC
 70
           4
  9
$SKETCHINC
 40
0.1
  9
$FILLETRAD
 40
0.0
  9
$AUNITS
 70
           0
  9
$AUPREC
 70
           0
  9
$MENU
  1
acad
  9
$ELEVATION
 40
0.0
  9
$PELEVATION
 40
0.0
  9
$THICKNESS
 40
0.0
  9
$LIMCHECK
 70
           0
  9
$BLIPMODE
 70
           1
  9
$CHAMFERA
 40
0.0
  9
$CHAMFERB
 40
0.0
  9
$CHAMFERC
 40
0.0
  9
$CHAMFERD
 40
0.0
  9
$SKPOLY
 70
           0
  9
$TDCREATE
 40
0.000000000
  9
$TDUPDATE
 40
0.000000000
  9
$TDINDWG
 40
0.0000000000
  9
$TDUSRTIMER
 40
0.0000000000
  9
$USRTIMER
 70
           1
  9
$ANGBASE
 50
0.0
  9
$ANGDIR
 70
           0
  9
$PDMODE
 70
           0
  9
$PDSIZE
 40
0.0
  9
$PLINEWID
 40
0.0
  9
$COORDS
 70
           0
  9
$SPLFRAME
 70
           0
  9
$SPLINETYPE
 70
           6
  9
$SPLINESEGS
 70
           8
  9
$ATTDIA
 70
           0
  9
$ATTREQ
 70
           1
  9
$HANDLING
 70
           1
  9
$HANDSEED
  5
41E
  9
$SURFTAB1
 70
           6
  9
$SURFTAB2
 70
           6
  9
$SURFTYPE
 70
           6
  9
$SURFU
 70
           6
  9
$SURFV
 70
           6
  9
$UCSNAME
  2

  9
$UCSORG
 10
0.0
 20
0.0
 30
0.0
  9
$UCSXDIR
 10
1.0
 20
0.0
 30
0.0
  9
$UCSYDIR
 10
0.0
 20
1.0
 30
0.0
  9
$PUCSNAME
  2

  9
$PUCSORG
 10
0.0
 20
0.0
 30
0.0
  9
$PUCSXDIR
 10
1.0
 20
0.0
 30
0.0
  9
$PUCSYDIR
 10
0.0
 20
1.0
 30
0.0
  9
$USERI1
 70
           0
  9
$USERI2
 70
           0
  9
$USERI3
 70
           0
  9
$USERI4
 70
           0
  9
$USERI5
 70
           0
  9
$USERR1
 40
0.0
  9
$USERR2
 40
0.0
  9
$USERR3
 40
0.0
  9
$USERR4
 40
0.0
  9
$USERR5
 40
0.0
  9
$WORLDVIEW
 70
           1
  9
$SHADEDGE
 70
           3
  9
$SHADEDIF
 70
          70
  9
$TILEMODE
 70
           1
  9
$MAXACTVP
 70
          16
  9
$PINSBASE
 10
0.0
 20
0.0
 30
0.0
  9
$PLIMCHECK
 70
           0
  9
$PEXTMIN
 10
1.000000000000E+20
 20
1.000000000000E+20
 30
1.000000000000E+20
  9
$PEXTMAX
 10
-1.000000000000E+20
 20
-1.000000000000E+20
 30
-1.000000000000E+20
  9
$PLIMMIN
 10
0.0
 20
0.0
  9
$PLIMMAX
 10
12.0
 20
9.0
  9
$UNITMODE
 70
           0
  9
$VISRETAIN
 70
           0
  9
$PLINEGEN
 70
           1
  9
$PSLTSCALE
 70
           0
  9
$TREEDEPTH
 70
        3020
  9
$PICKSTYLE
 70
           1
  9
$CMLSTYLE
  2
STANDARD
  9
$CMLJUST
 70
           0
  9
$CMLSCALE
 40
1.0
  9
$PROXYGRAPHICS
 70
           0
  9
$MEASUREMENT
 70
           1
  0
ENDSEC
  0
SECTION
  2
CLASSES
  0
CLASS
  1
LWPOLYLINE
  2
AcDbPolyline
  3
"AutoCAD"
 90
        0
280
           0
281
           1
  0
CLASS
  1
IMAGE
  2
AcDbRasterImage
  3
ISM
 90
      127
280
           0
281
           1
  0
CLASS
  1
OLE2FRAME
  2
AcDbOle2Frame
  3
""
 90
        0
280
           0
281
           1
  0
CLASS
  1
HATCH
  2
AcDbHatch
  3
"ACAD_SEDONA"
 90
        0
280
           0
281
           1
  0
CLASS
  1
DICTIONARYVAR
  2
AcDbDictionaryVar
  3
"AutoCAD"
 90
        0
280
           0
281
           0
  0
CLASS
  1
RASTERVARIABLES
  2
AcDbRasterVariables
  3
ISM
 90
        0
280
           0
281
           0
  0
CLASS
  1
IMAGEDEF
  2
AcDbRasterImageDef
  3
ISM
 90
        0
280
           0
281
           0
  0
CLASS
  1
IMAGEDEF_REACTOR
  2
AcDbRasterImageDefReactor
  3
ISM
 90
        1
280
           0
281
           0
  0
CLASS
  1
IDBUFFER
  2
AcDbIdBuffer
  3
"Acad"
 90
        0
280
           0
281
           0
  0
CLASS
  1
SPATIAL_FILTER
  2
AcDbSpatialFilter
  3
"Acad"
 90
        0
280
           0
281
           0
  0
CLASS
  1
XRECORD
  2
AcDbXrecord
  3
"<Built In>"
 90
        0
280
           0
281
           0
  0
CLASS
  1
SORTENTSTABLE
  2
AcDbSortentsTable
  3
"AutoCAD"
 90
        0
280
           0
281
           0
  0
CLASS
  1
LAYER_INDEX
  2
AcDbLayerIndex
  3
"Acad"
 90
        0
280
           0
281
           0
  0
CLASS
  1
SPATIAL_INDEX
  2
AcDbSpatialIndex
  3
"Acad"
 90
        0
280
           0
281
           0
  0
CLASS
  1
OBJECT_PTR
  2
CAseDLPNTableRecord
  3
"ASE-LPNTableRecord"
 90
        1
280
           0
281
           0
  0
CLASS
  1
LAYOUT
  2
AcDbLayout
  3
"AutoCAD 2000"
 90
        1
280
           0
281
           0
  0
CLASS
  1
PLOTSETTINGS
  2
AcDbPlotSettings
  3
"AutoCAD 2000"
 90
        1
280
           0
281
           0
  0
CLASS
  1
ACDBDICTIONARYWDFLT
  2
AcDbDictionaryWithDefault
  3
"AutoCAD 2000"
 90
        1
280
           0
281
           0
  0
CLASS
  1
ACDBPLACEHOLDER
  2
AcDbPlaceHolder
  3
"AutoCAD 2000"
 90
        1
280
           0
281
           0
  0
CLASS
  1
VBA_PROJECT
  2
AcDbVbaProject
  3
"acadvba"
 90
        1
280
           0
281
           0
  0
CLASS
  1
WIPEOUT
  2
AcDbWipeout
  3
WipeOut|AutoCAD Express Tool|expresstools@autodesk.com
 90
      127
280
           0
281
           1
  0
CLASS
  1
WIPEOUTVARIABLES
  2
AcDbWipeoutVariables
  3
WipeOut|AutoCAD Express Tool|expresstools@autodesk.com
 90
        0
280
           0
281
           0
  0
CLASS
  1
RTEXT
  2
RText
  3
RText|AutoCAD Express Tool|expresstools@autodesk.com
 90
        0
280
           0
281
           1
  0
CLASS
  1
ARCALIGNEDTEXT
  2
AcDbArcAlignedText
  3
ATEXT|AutoCAD Express Tool|expresstools@autodesk.com
 90
        0
280
           0
281
           1
  0
ENDSEC
  0
SECTION
  2
TABLES
  0
TABLE
  2
VPORT
  5
7
100
AcDbSymbolTable
 70
           1
  0
VPORT
  5
15
100
AcDbSymbolTableRecord
100
AcDbViewportTableRecord
  2
*ACTIVE
 70
           0
 10
0.0
 20
0.0
 11
1.0
 21
1.0
 12
6.591288
 22
4.579184
 13
0.0
 23
0.0
 14
1.0
 24
1.0
 15
0.0
 25
0.0
 16
0.0
 26
0.0
 36
1.0
 17
0.0
 27
0.0
 37
0.0
 40
9.158369
 41
0.688564
 42
50.0
 43
0.0
 44
0.0
 50
0.0
 51
0.0
 71
           0
 72
         100
 73
           1
 74
           1
 75
           0
 76
           0
 77
           0
 78
           0
  0
ENDTAB
  0
TABLE
  2
LTYPE
  5
4
100
AcDbSymbolTable
 70
          10
  0
LTYPE
  5
11
100
AcDbSymbolTableRecord
100
AcDbLinetypeTableRecord
  2
BYBLOCK
 70
          64
  3

 72
          65
 73
           0
 40
0.0
  0
LTYPE
  5
12
100
AcDbSymbolTableRecord
100
AcDbLinetypeTableRecord
  2
BYLAYER
 70
          64
  3

 72
          65
 73
           0
 40
0.0
  0
LTYPE
  5
13
100
AcDbSymbolTableRecord
100
AcDbLinetypeTableRecord
  2
CONTINUOUS
 70
          64
  3
Solid line
 72
          65
 73
           0
 40
0.0
  0
LTYPE
  5
1D
100
AcDbSymbolTableRecord
100
AcDbLinetypeTableRecord
  2
DASHED
 70
          64
  3
Dashed
 72
          65
 73
           2
 40
15.0
 49
12.0
 74
           0
 49
-3.0
 74
           0
  0
LTYPE
  5
1E
100
AcDbSymbolTableRecord
100
AcDbLinetypeTableRecord
  2
DOTTED
 70
          64
  3
Dotted
 72
          65
 73
           2
 40
3.5
 49
0.5
 74
           0
 49
-3.0
 74
           0
  0
LTYPE
  5
1F
100
AcDbSymbolTableRecord
100
AcDbLinetypeTableRecord
  2
DOT_CENTER
 70
          64
  3
Dot_Center
 72
          65
 73
           4
 40
2.0
 49
1.25
 74
           0
 49
-0.25
 74
           0
 49
0.25
 74
           0
 49
-0.25
 74
           0
  0
LTYPE
  5
20
100
AcDbSymbolTableRecord
100
AcDbLinetypeTableRecord
  2
LONG_DASHED
 70
          64
  3
Long_Dashed
 72
          65
 73
           2
 40
2.0
 49
1.5
 74
           0
 49
-0.5
 74
           0
  0
LTYPE
  5
21
100
AcDbSymbolTableRecord
100
AcDbLinetypeTableRecord
  2
DASH_CENTER
 70
          64
  3
Dash_Center
 72
          65
 73
           4
 40
36.0
 49
24.0
 74
           0
 49
-3.0
 74
           0
 49
6.0
 74
           0
 49
-3.0
 74
           0
  0
LTYPE
  5
22
100
AcDbSymbolTableRecord
100
AcDbLinetypeTableRecord
  2
PHANTOM
 70
          64
  3
Phantom
 72
          65
 73
           6
 40
2.5
 49
1.25
 74
           0
 49
-0.25
 74
           0
 49
0.25
 74
           0
 49
-0.25
 74
           0
 49
0.25
 74
           0
 49
-0.25
 74
           0
  0
LTYPE
  5
23
100
AcDbSymbolTableRecord
100
AcDbLinetypeTableRecord
  2
CENTER_DASH_DASH
 70
          64
  3
Center_Dash_Dash
 72
          65
 73
           6
 40
22.0
 49
12.0
 74
           0
 49
-3.0
 74
           0
 49
0.5
 74
           0
 49
-3.0
 74
           0
 49
0.5
 74
           0
 49
-3.0
 74
           0
  0
ENDTAB
  0
TABLE
  2
LAYER
  5
2
100
AcDbSymbolTable
 70
           2
  0
LAYER
  5
14
100
AcDbSymbolTableRecord
100
AcDbLayerTableRecord
  2
0
 70
           0
 62
           7
  6
CONTINUOUS
  0
LAYER
  5
24
100
AcDbSymbolTableRecord
100
AcDbLayerTableRecord
  2
1
 70
           0
 62
           7
  6
CONTINUOUS
  0
ENDTAB
  0
TABLE
  2
STYLE
  5
3
100
AcDbSymbolTable
 70
           3
  0
STYLE
  5
17
100
AcDbSymbolTableRecord
100
AcDbTextStyleTableRecord
  2
STANDARD
 70
           0
 40
0.0
 41
1.0
 50
0.0
 71
           0
 42
0.0
  3
txt
  4

  0
STYLE
  5
419
100
AcDbSymbolTableRecord
100
AcDbTextStyleTableRecord
  2
CONVERTER_1
 70
           0
 40
0.0
 41
1.125
 50
0.0
 71
           0
 42
0.0
  3
txt
  4

  0
STYLE
  5
41B
100
AcDbSymbolTableRecord
100
AcDbTextStyleTableRecord
  2
CONVERTER_2
 70
           0
 40
0.0
 41
0.72
 50
0.0
 71
           0
 42
0.0
  3
MS Gothic
  4

1001
ACAD
1000
MS Gothic
1071
    32785
  0
ENDTAB
  0
TABLE
  2
VIEW
  5
5
100
AcDbSymbolTable
 70
           0
  0
ENDTAB
  0
TABLE
  2
UCS
  5
6
100
AcDbSymbolTable
 70
           0
  0
ENDTAB
  0
TABLE
  2
APPID
  5
8
100
AcDbSymbolTable
 70
           1
  0
APPID
  5
16
100
AcDbSymbolTableRecord
100
AcDbRegAppTableRecord
  2
ACAD
 70
           0
  0
ENDTAB
  0
TABLE
  2
DIMSTYLE
  5
9
100
AcDbSymbolTable
 70
           1
  0
DIMSTYLE
105
18
100
AcDbSymbolTableRecord
100
AcDbDimStyleTableRecord
  2
STANDARD
 70
           0
  3

  4

  5

  6

  7

 40
1.0
 41
0.18
 42
0.0625
 43
0.38
 44
0.18
 45
0.0
 46
0.0
 47
0.0
 48
0.0
 71
           0
 72
           0
 73
           1
 74
           1
 75
           0
 76
           0
 77
           0
 78
           0
140
0.18
141
0.09
142
0.0
143
25.4
144
1.0
145
0.0
146
1.0
147
0.09
170
           0
171
           2
172
           0
173
           0
174
           0
175
           0
176
           0
177
           0
178
           0
270
           2
271
           4
272
           4
273
           2
274
           2
275
           0
280
           0
281
           0
282
           0
283
           1
284
           0
285
           0
286
           0
287
           0
288
           0
340
17
  0
ENDTAB
  0
TABLE
  2
BLOCK_RECORD
  5
1
100
AcDbSymbolTable
 70
           0
  0
BLOCK_RECORD
  5
A
100
AcDbSymbolTableRecord
100
AcDbBlockTableRecord
  2
*MODEL_SPACE
  0
BLOCK_RECORD
  5
B
100
AcDbSymbolTableRecord
100
AcDbBlockTableRecord
  2
*PAPER_SPACE
  0
ENDTAB
  0
ENDSEC
  0
SECTION
  2
BLOCKS
  0
BLOCK
  5
D
100
AcDbEntity
  8
0
100
AcDbBlockBegin
  2
*MODEL_SPACE
 70
           0
 10
0.0
 20
0.0
 30
0.0
  3
*MODEL_SPACE
  1

  0
ENDBLK
  5
E
100
AcDbEntity
  8
0
100
AcDbBlockEnd
  0
BLOCK
  5
F
100
AcDbEntity
 67
           1
  8
0
100
AcDbBlockBegin
  2
*PAPER_SPACE
 70
           0
 10
0.0
 20
0.0
 30
0.0
  3
*PAPER_SPACE
  1

  0
ENDBLK
  5
10
100
AcDbEntity
 67
           1
  8
0
100
AcDbBlockEnd
  0
ENDSEC
  0
SECTION
  2
ENTITIES
  0
MTEXT
  5
41C
100
AcDbEntity
  8
1
 62
           1
100
AcDbMText
 10
1027.453738626719
 20
13949.349012549759
 30
0.0
 40
7.799804672134
 41
0.0
 71
           5
 72
           1
  1
Ｎ-ＴＶアーム ３軸・標準アーム・スタンド型
  7
CONVERTER_2
 11
1.0
 21
0.0
 31
0.0
  0
MTEXT
  5
41A
100
AcDbEntity
  8
1
 62
           1
100
AcDbMText
 10
1027.453738626719
 20
13966.999012549761
 30
0.0
 40
7.799804672134
 41
0.0
 71
           5
 72
           1
  1
NTV-3S
  7
CONVERTER_1
 11
1.0
 21
0.0
 31
0.0
  0
ARC
  5
418
100
AcDbEntity
  8
1
  6
CONTINUOUS
 62
           3
100
AcDbCircle
 10
513.460408193442
 20
13907.97602581389
 40
4.0
100
AcDbArc
 50
180.0
 51
-138.590377890781
  0
ARC
  5
417
100
AcDbEntity
  8
1
  6
CONTINUOUS
 62
           3
100
AcDbCircle
 10
512.460408193442
 20
13962.97602581389
 40
2.0
100
AcDbArc
 50
90.0
 51
180.0
  0
ARC
  5
416
100
AcDbEntity
  8
1
  6
CONTINUOUS
 62
           3
100
AcDbCircle
 10
512.460408193442
 20
13884.97602581389
 40
2.0
100
AcDbArc
 50
180.0
 51
-90.0
  0
ARC
  5
415
100
AcDbEntity
  8
1
  6
CONTINUOUS
 62
           3
100
AcDbCircle
 10
513.460408193442
 20
13939.97602581389
 40
4.000000000003
100
AcDbArc
 50
138.590377890683
 51
180.0
  0
ARC
  5
414
100
AcDbEntity
  8
1
  6
CONTINUOUS
 62
           3
100
AcDbCircle
 10
556.960408193442
 20
13962.97602581389
 40
2.0
100
AcDbArc
 50
0.0
 51
90.0
  0
ARC
  5
413
100
AcDbEntity
  8
1
  6
CONTINUOUS
 62
           3
100
AcDbCircle
 10
556.960408193442
 20
13884.97602581389
 40
2.0
100
AcDbArc
 50
-90.0
 51
0.0
  0
ARC
  5
412
100
AcDbEntity
  8
1
  6
CONTINUOUS
 62
           3
100
AcDbCircle
 10
558.960408193442
 20
13927.97602581389
 40
1.0
100
AcDbArc
 50
0.0
 51
90.0
  0
ARC
  5
411
100
AcDbEntity
  8
1
  6
CONTINUOUS
 62
           3
100
AcDbCircle
 10
558.960408193442
 20
13919.97602581389
 40
1.0
100
AcDbArc
 50
-90.0
 51
0.0
  0
ARC
  5
410
100
AcDbEntity
  8
1
  6
CONTINUOUS
 62
           3
100
AcDbCircle
 10
561.960408193442
 20
13913.97602581389
 40
1.0
100
AcDbArc
 50
180.0
 51
-90.0
  0
ARC
  5
40F
100
AcDbEntity
  8
1
  6
CONTINUOUS
 62
           3
100
AcDbCircle
 10
558.960408193442
 20
13930.97602581389
 40
2.0
100
AcDbArc
 50
-90.0
 51
0.0
  0
ARC
  5
40E
100
AcDbEntity
  8
1
  6
CONTINUOUS
 62
           3
100
AcDbCircle
 10
558.960408193442
 20
13916.97602581389
 40
2.0
100
AcDbArc
 50
0.0
 51
90.0
  0
ARC
  5
40D
100
AcDbEntity
  8
1
  6
CONTINUOUS
 62
           3
100
AcDbCircle
 10
619.960408193442
 20
13632.491467022401
 40
3.0
100
AcDbArc
 50
0.0
 51
90.0
  0
ARC
  5
40C
100
AcDbEntity
  8
1
  6
CONTINUOUS
 62
           3
100
AcDbCircle
 10
619.960408193442
 20
13617.491467022401
 40
3.0
100
AcDbArc
 50
-90.0
 51
0.0
  0
ARC
  5
40B
100
AcDbEntity
  8
1
  6
CONTINUOUS
 62
           3
100
AcDbCircle
 10
598.960408193442
 20
13617.491467022401
 40
3.0
100
AcDbArc
 50
180.0
 51
-90.0
  0
ARC
  5
40A
100
AcDbEntity
  8
1
  6
CONTINUOUS
 62
           3
100
AcDbCircle
 10
598.960408193442
 20
13632.491467022401
 40
3.0
100
AcDbArc
 50
90.0
 51
180.0
  0
ARC
  5
409
100
AcDbEntity
  8
1
  6
CONTINUOUS
 62
           3
100
AcDbCircle
 10
654.960408193442
 20
13632.491467022401
 40
3.0
100
AcDbArc
 50
0.0
 51
90.0
  0
ARC
  5
408
100
AcDbEntity
  8
1
  6
CONTINUOUS
 62
           3
100
AcDbCircle
 10
654.960408193442
 20
13617.491467022401
 40
3.0
100
AcDbArc
 50
-90.0
 51
0.0
  0
ARC
  5
407
100
AcDbEntity
  8
1
  6
CONTINUOUS
 62
           3
100
AcDbCircle
 10
633.960408193442
 20
13617.491467022401
 40
3.0
100
AcDbArc
 50
180.0
 51
-90.0
  0
ARC
  5
406
100
AcDbEntity
  8
1
  6
CONTINUOUS
 62
           3
100
AcDbCircle
 10
633.960408193442
 20
13632.491467022401
 40
3.0
100
AcDbArc
 50
90.0
 51
180.0
  0
ARC
  5
405
100
AcDbEntity
  8
1
  6
CONTINUOUS
 62
           3
100
AcDbCircle
 10
556.960408193442
 20
13640.491467022401
 40
2.0
100
AcDbArc
 50
0.0
 51
90.0
  0
ARC
  5
404
100
AcDbEntity
  8
1
  6
CONTINUOUS
 62
           3
100
AcDbCircle
 10
560.960408193442
 20
13634.991467022401
 40
2.0
100
AcDbArc
 50
180.0
 51
-90.0
  0
ARC
  5
403
100
AcDbEntity
  8
1
  6
CONTINUOUS
 62
           3
100
AcDbCircle
 10
560.960408193442
 20
13614.991467022401
 40
2.0
100
AcDbArc
 50
90.0
 51
180.0
  0
ARC
  5
402
100
AcDbEntity
  8
1
  6
CONTINUOUS
 62
           3
100
AcDbCircle
 10
556.960408193442
 20
13609.491467022401
 40
2.0
100
AcDbArc
 50
-90.0
 51
0.0
  0
ARC
  5
401
100
AcDbEntity
  8
1
  6
CONTINUOUS
 62
           3
100
AcDbCircle
 10
560.960408193442
 20
13630.991467022401
 40
2.0
100
AcDbArc
 50
90.0
 51
180.0
  0
ARC
  5
400
100
AcDbEntity
  8
1
  6
CONTINUOUS
 62
           3
100
AcDbCircle
 10
560.960408193442
 20
13618.991467022401
 40
2.0
100
AcDbArc
 50
180.0
 51
-90.0
  0
ARC
  5
3FF
100
AcDbEntity
  8
1
  6
CONTINUOUS
 62
           3
100
AcDbCircle
 10
561.460408193442
 20
13646.991467022401
 40
0.5
100
AcDbArc
 50
90.0
 51
180.0
  0
ARC
  5
3FE
100
AcDbEntity
  8
1
  6
CONTINUOUS
 62
           3
100
AcDbCircle
 10
561.460408193442
 20
13635.491467022401
 40
0.5
100
AcDbArc
 50
180.0
 51
-90.0
  0
ARC
  5
3FD
100
AcDbEntity
  8
1
  6
CONTINUOUS
 62
           3
100
AcDbCircle
 10
561.460408193442
 20
13602.991467022401
 40
0.5
100
AcDbArc
 50
180.0
 51
-90.0
  0
ARC
  5
3FC
100
AcDbEntity
  8
1
  6
CONTINUOUS
 62
           3
100
AcDbCircle
 10
561.460408193442
 20
13614.491467022401
 40
0.5
100
AcDbArc
 50
90.0
 51
180.0
  0
ARC
  5
3FB
100
AcDbEntity
  8
1
  6
CONTINUOUS
 62
           3
100
AcDbCircle
 10
582.460408193442
 20
13632.491467022401
 40
0.5
100
AcDbArc
 50
0.0
 51
90.0
  0
ARC
  5
3FA
100
AcDbEntity
  8
1
  6
CONTINUOUS
 62
           3
100
AcDbCircle
 10
582.460408193442
 20
13617.491467022401
 40
0.5
100
AcDbArc
 50
-90.0
 51
0.0
  0
ARC
  5
3F9
100
AcDbEntity
  8
1
  6
CONTINUOUS
 62
           3
100
AcDbCircle
 10
717.460408193442
 20
13646.991467022401
 40
0.5
100
AcDbArc
 50
0.0
 51
90.0
  0
ARC
  5
3F8
100
AcDbEntity
  8
1
  6
CONTINUOUS
 62
           3
100
AcDbCircle
 10
717.460408193442
 20
13602.991467022401
 40
0.5
100
AcDbArc
 50
-90.0
 51
0.0
  0
ARC
  5
3F7
100
AcDbEntity
  8
1
  6
CONTINUOUS
 62
           3
100
AcDbCircle
 10
582.960408193442
 20
13632.991467022401
 40
2.0
100
AcDbArc
 50
0.0
 51
90.0
  0
ARC
  5
3F6
100
AcDbEntity
  8
1
  6
CONTINUOUS
 62
           3
100
AcDbCircle
 10
582.960408193442
 20
13616.991467022401
 40
2.0
100
AcDbArc
 50
-90.0
 51
0.0
  0
ARC
  5
3F5
100
AcDbEntity
  8
1
  6
CONTINUOUS
 62
           3
100
AcDbCircle
 10
668.960408193442
 20
13632.491467022401
 40
3.0
100
AcDbArc
 50
90.0
 51
180.0
  0
ARC
  5
3F4
100
AcDbEntity
  8
1
  6
CONTINUOUS
 62
           3
100
AcDbCircle
 10
668.960408193442
 20
13617.491467022401
 40
3.0
100
AcDbArc
 50
180.0
 51
-90.0
  0
ARC
  5
3F3
100
AcDbEntity
  8
1
  6
CONTINUOUS
 62
           3
100
AcDbCircle
 10
689.960408193442
 20
13617.491467022401
 40
3.0
100
AcDbArc
 50
-90.0
 51
0.0
  0
ARC
  5
3F2
100
AcDbEntity
  8
1
  6
CONTINUOUS
 62
           3
100
AcDbCircle
 10
689.960408193442
 20
13632.491467022401
 40
3.0
100
AcDbArc
 50
0.0
 51
90.0
  0
ARC
  5
3F1
100
AcDbEntity
  8
1
  6
CONTINUOUS
 62
           3
100
AcDbCircle
 10
887.460408193442
 20
13674.491467022401
 40
0.5
100
AcDbArc
 50
0.0
 51
90.0
  0
ARC
  5
3F0
100
AcDbEntity
  8
1
  6
CONTINUOUS
 62
           3
100
AcDbCircle
 10
887.460408193442
 20
13650.491467022401
 40
0.5
100
AcDbArc
 50
-90.0
 51
0.0
  0
ARC
  5
3EF
100
AcDbEntity
  8
1
  6
CONTINUOUS
 62
           3
100
AcDbCircle
 10
887.460408193442
 20
13599.491467022401
 40
0.5
100
AcDbArc
 50
0.0
 51
90.0
  0
ARC
  5
3EE
100
AcDbEntity
  8
1
  6
CONTINUOUS
 62
           3
100
AcDbCircle
 10
887.460408193442
 20
13575.491467022401
 40
0.5
100
AcDbArc
 50
-90.0
 51
0.0
  0
ARC
  5
3ED
100
AcDbEntity
  8
1
  6
CONTINUOUS
 62
           3
100
AcDbCircle
 10
866.460408193442
 20
13647.491467022401
 40
0.5
100
AcDbArc
 50
90.0
 51
180.0
  0
ARC
  5
3EC
100
AcDbEntity
  8
1
  6
CONTINUOUS
 62
           3
100
AcDbCircle
 10
866.460408193442
 20
13602.491467022401
 40
0.5
100
AcDbArc
 50
180.0
 51
-90.0
  0
ARC
  5
3EB
100
AcDbEntity
  8
1
  6
CONTINUOUS
 62
           3
100
AcDbCircle
 10
890.460408193442
 20
13673.991467022401
 40
1.0
100
AcDbArc
 50
90.0
 51
180.0
  0
ARC
  5
3EA
100
AcDbEntity
  8
1
  6
CONTINUOUS
 62
           3
100
AcDbCircle
 10
890.460408193442
 20
13575.991467022401
 40
1.0
100
AcDbArc
 50
180.0
 51
-90.0
  0
ARC
  5
3E9
100
AcDbEntity
  8
1
  6
CONTINUOUS
 62
           3
100
AcDbCircle
 10
849.960408193442
 20
13602.991467022401
 40
3.0
100
AcDbArc
 50
-90.0
 51
0.0
  0
ARC
  5
3E8
100
AcDbEntity
  8
1
  6
CONTINUOUS
 62
           3
100
AcDbCircle
 10
866.960408193442
 20
13602.991467022401
 40
3.0
100
AcDbArc
 50
180.0
 51
-90.0
  0
ARC
  5
3E7
100
AcDbEntity
  8
1
  6
CONTINUOUS
 62
           3
100
AcDbCircle
 10
866.960408193442
 20
13646.991467022401
 40
3.0
100
AcDbArc
 50
90.0
 51
180.0
  0
ARC
  5
3E6
100
AcDbEntity
  8
1
  6
CONTINUOUS
 62
           3
100
AcDbCircle
 10
849.960408193442
 20
13646.991467022401
 40
3.0
100
AcDbArc
 50
0.0
 51
90.0
  0
ARC
  5
3E5
100
AcDbEntity
  8
1
  6
CONTINUOUS
 62
           3
100
AcDbCircle
 10
690.460408193442
 20
13575.491467022401
 40
0.5
100
AcDbArc
 50
180.0
 51
-90.0
  0
ARC
  5
3E4
100
AcDbEntity
  8
1
  6
CONTINUOUS
 62
           3
100
AcDbCircle
 10
690.460408193442
 20
13674.491467022401
 40
0.5
100
AcDbArc
 50
90.0
 51
180.0
  0
ARC
  5
3E3
100
AcDbEntity
  8
1
  6
CONTINUOUS
 62
           3
100
AcDbCircle
 10
690.460408193442
 20
13650.491467022401
 40
0.5
100
AcDbArc
 50
180.0
 51
-90.0
  0
ARC
  5
3E2
100
AcDbEntity
  8
1
  6
CONTINUOUS
 62
           3
100
AcDbCircle
 10
593.460408193442
 20
13613.991467022401
 40
0.5
100
AcDbArc
 50
90.0
 51
180.0
  0
ARC
  5
3E1
100
AcDbEntity
  8
1
  6
CONTINUOUS
 62
           3
100
AcDbCircle
 10
602.460408193442
 20
13613.991467022401
 40
0.5
100
AcDbArc
 50
0.0
 51
90.0
  0
ARC
  5
3E0
100
AcDbEntity
  8
1
  6
CONTINUOUS
 62
           3
100
AcDbCircle
 10
593.460408193442
 20
13579.991467022401
 40
0.5
100
AcDbArc
 50
180.0
 51
-90.0
  0
ARC
  5
3DF
100
AcDbEntity
  8
1
  6
CONTINUOUS
 62
           3
100
AcDbCircle
 10
602.460408193442
 20
13579.991467022401
 40
0.5
100
AcDbArc
 50
-90.0
 51
0.0
  0
ARC
  5
3DE
100
AcDbEntity
  8
1
  6
CONTINUOUS
 62
           3
100
AcDbCircle
 10
722.460408193442
 20
13587.491467022401
 40
0.5
100
AcDbArc
 50
90.0
 51
180.0
  0
ARC
  5
3DD
100
AcDbEntity
  8
1
  6
CONTINUOUS
 62
           3
100
AcDbCircle
 10
731.460408193442
 20
13587.491467022401
 40
0.5
100
AcDbArc
 50
0.0
 51
90.0
  0
ARC
  5
3DC
100
AcDbEntity
  8
1
  6
CONTINUOUS
 62
           3
100
AcDbCircle
 10
722.460408193442
 20
13553.491467022401
 40
0.5
100
AcDbArc
 50
180.0
 51
-90.0
  0
ARC
  5
3DB
100
AcDbEntity
  8
1
  6
CONTINUOUS
 62
           3
100
AcDbCircle
 10
731.460408193442
 20
13553.491467022401
 40
0.5
100
AcDbArc
 50
-90.0
 51
0.0
  0
ARC
  5
3DA
100
AcDbEntity
  8
1
  6
CONTINUOUS
 62
           3
100
AcDbCircle
 10
852.460408193442
 20
13587.491467022401
 40
0.5
100
AcDbArc
 50
90.0
 51
180.0
  0
ARC
  5
3D9
100
AcDbEntity
  8
1
  6
CONTINUOUS
 62
           3
100
AcDbCircle
 10
861.460408193442
 20
13587.491467022401
 40
0.5
100
AcDbArc
 50
0.0
 51
90.0
  0
ARC
  5
3D8
100
AcDbEntity
  8
1
  6
CONTINUOUS
 62
           3
100
AcDbCircle
 10
852.460408193442
 20
13553.491467022401
 40
0.5
100
AcDbArc
 50
180.0
 51
-90.0
  0
ARC
  5
3D7
100
AcDbEntity
  8
1
  6
CONTINUOUS
 62
           3
100
AcDbCircle
 10
861.460408193442
 20
13553.491467022401
 40
0.5
100
AcDbArc
 50
-90.0
 51
0.0
  0
ARC
  5
3D6
100
AcDbEntity
  8
1
  6
CONTINUOUS
 62
           3
100
AcDbCircle
 10
511.460408193442
 20
13606.491467022401
 40
1.0
100
AcDbArc
 50
180.0
 51
-90.0
  0
ARC
  5
3D5
100
AcDbEntity
  8
1
  6
CONTINUOUS
 62
           3
100
AcDbCircle
 10
511.460408193442
 20
13643.491467022401
 40
1.0
100
AcDbArc
 50
90.0
 51
180.0
  0
ARC
  5
3D4
100
AcDbEntity
  8
1
  6
PHANTOM
 62
           1
100
AcDbCircle
 10
818.460408193442
 20
13904.97602581389
 40
3.999999999997
100
AcDbArc
 50
138.590377890781
 51
180.0
  0
ARC
  5
3D3
100
AcDbEntity
  8
1
  6
PHANTOM
 62
           1
100
AcDbCircle
 10
817.460408193441
 20
13849.97602581389
 40
2.0
100
AcDbArc
 50
180.0
 51
-90.0
  0
ARC
  5
3D2
100
AcDbEntity
  8
1
  6
PHANTOM
 62
           1
100
AcDbCircle
 10
817.460408193441
 20
13927.97602581389
 40
2.0
100
AcDbArc
 50
90.0
 51
180.0
  0
ARC
  5
3D1
100
AcDbEntity
  8
1
  6
PHANTOM
 62
           1
100
AcDbCircle
 10
818.460408193442
 20
13872.97602581389
 40
4.0
100
AcDbArc
 50
180.0
 51
-138.590377890566
  0
ARC
  5
3D0
100
AcDbEntity
  8
1
  6
PHANTOM
 62
           1
100
AcDbCircle
 10
884.460408193442
 20
13907.97602581389
 40
5.0
100
AcDbArc
 50
0.0
 51
45.572995999105
  0
ARC
  5
3CF
100
AcDbEntity
  8
1
  6
PHANTOM
 62
           1
100
AcDbCircle
 10
884.460408193442
 20
13939.97602581389
 40
5.0
100
AcDbArc
 50
-90.0
 51
0.0
  0
ARC
  5
3CE
100
AcDbEntity
  8
1
  6
PHANTOM
 62
           1
100
AcDbCircle
 10
884.460408193442
 20
13907.97602581389
 40
4.999999999992
100
AcDbArc
 50
45.572995999105
 51
90.0
  0
ARC
  5
3CD
100
AcDbEntity
  8
1
  6
PHANTOM
 62
           1
100
AcDbCircle
 10
891.460408193442
 20
13946.97602581389
 40
2.0
100
AcDbArc
 50
90.0
 51
180.0
  0
ARC
  5
3CC
100
AcDbEntity
  8
1
  6
PHANTOM
 62
           1
100
AcDbCircle
 10
891.460408193442
 20
13900.97602581389
 40
2.0
100
AcDbArc
 50
180.0
 51
-90.0
  0
ARC
  5
3CB
100
AcDbEntity
  8
1
  6
PHANTOM
 62
           1
100
AcDbCircle
 10
863.960408193442
 20
13881.97602581389
 40
2.0
100
AcDbArc
 50
0.0
 51
90.000000000026
  0
ARC
  5
3CA
100
AcDbEntity
  8
1
  6
PHANTOM
 62
           1
100
AcDbCircle
 10
863.960408193441
 20
13895.97602581389
 40
2.0
100
AcDbArc
 50
-90.0
 51
0.0
  0
ARC
  5
3C9
100
AcDbEntity
  8
1
  6
PHANTOM
 62
           1
100
AcDbCircle
 10
866.960408193442
 20
13878.97602581389
 40
1.0
100
AcDbArc
 50
180.0
 51
-90.000000000052
  0
ARC
  5
3C8
100
AcDbEntity
  8
1
  6
PHANTOM
 62
           1
100
AcDbCircle
 10
863.960408193441
 20
13884.97602581389
 40
1.0
100
AcDbArc
 50
-90.0
 51
0.0
  0
ARC
  5
3C7
100
AcDbEntity
  8
1
  6
PHANTOM
 62
           1
100
AcDbCircle
 10
863.960408193441
 20
13892.97602581389
 40
1.0
100
AcDbArc
 50
0.0
 51
90.0
  0
ARC
  5
3C6
100
AcDbEntity
  8
1
  6
PHANTOM
 62
           1
100
AcDbCircle
 10
861.960408193442
 20
13849.97602581389
 40
2.0
100
AcDbArc
 50
-90.0
 51
0.0
  0
ARC
  5
3C5
100
AcDbEntity
  8
1
  6
PHANTOM
 62
           1
100
AcDbCircle
 10
861.960408193442
 20
13927.97602581389
 40
2.0
100
AcDbArc
 50
0.0
 51
89.999999999974
  0
ARC
  5
3C4
100
AcDbEntity
  8
1
  6
PHANTOM
 62
           1
100
AcDbCircle
 10
866.960408193442
 20
13898.97602581389
 40
1.0
100
AcDbArc
 50
90.0
 51
180.0
  0
CIRCLE
  5
3C3
100
AcDbEntity
  8
1
  6
CONTINUOUS
 62
           3
100
AcDbCircle
 10
571.960408193442
 20
13923.97602581389
 40
8.75
  0
CIRCLE
  5
3C2
100
AcDbEntity
  8
1
  6
CONTINUOUS
 62
           3
100
AcDbCircle
 10
706.960408193442
 20
13923.97602581389
 40
8.75
  0
CIRCLE
  5
3C1
100
AcDbEntity
  8
1
  6
CONTINUOUS
 62
           3
100
AcDbCircle
 10
992.788934451672
 20
13587.491467022401
 40
2.6
  0
CIRCLE
  5
3C0
100
AcDbEntity
  8
1
  6
CONTINUOUS
 62
           3
100
AcDbCircle
 10
980.288934451672
 20
13574.991467022401
 40
2.6
  0
CIRCLE
  5
3BF
100
AcDbEntity
  8
1
  6
CONTINUOUS
 62
           3
100
AcDbCircle
 10
372.0075370422
 20
13679.991467022401
 40
2.5
  0
CIRCLE
  5
3BE
100
AcDbEntity
  8
1
  6
CONTINUOUS
 62
           3
100
AcDbCircle
 10
402.0075370422
 20
13679.991467022401
 40
2.5
  0
CIRCLE
  5
3BD
100
AcDbEntity
  8
1
  6
DOTTED
 62
           1
100
AcDbCircle
 10
402.0075370422
 20
13652.491467022401
 40
2.5
  0
CIRCLE
  5
3BC
100
AcDbEntity
  8
1
  6
DOTTED
 62
           1
100
AcDbCircle
 10
372.0075370422
 20
13652.491467022401
 40
2.5
  0
CIRCLE
  5
3BB
100
AcDbEntity
  8
1
  6
DOTTED
 62
           1
100
AcDbCircle
 10
372.0075370422
 20
13624.991467022401
 40
2.5
  0
CIRCLE
  5
3BA
100
AcDbEntity
  8
1
  6
DOTTED
 62
           1
100
AcDbCircle
 10
402.0075370422
 20
13624.991467022401
 40
2.5
  0
CIRCLE
  5
3B9
100
AcDbEntity
  8
1
  6
DOTTED
 62
           1
100
AcDbCircle
 10
402.0075370422
 20
13597.491467022401
 40
2.5
  0
CIRCLE
  5
3B8
100
AcDbEntity
  8
1
  6
DOTTED
 62
           1
100
AcDbCircle
 10
372.0075370422
 20
13597.491467022401
 40
2.5
  0
CIRCLE
  5
3B7
100
AcDbEntity
  8
1
  6
CONTINUOUS
 62
           3
100
AcDbCircle
 10
372.0075370422
 20
13569.991467022401
 40
2.5
  0
CIRCLE
  5
3B6
100
AcDbEntity
  8
1
  6
CONTINUOUS
 62
           3
100
AcDbCircle
 10
402.0075370422
 20
13569.991467022401
 40
2.5
  0
CIRCLE
  5
3B5
100
AcDbEntity
  8
1
  6
CONTINUOUS
 62
           3
100
AcDbCircle
 10
437.0075370422
 20
13574.991467022401
 40
2.6
  0
CIRCLE
  5
3B4
100
AcDbEntity
  8
1
  6
CONTINUOUS
 62
           3
100
AcDbCircle
 10
424.5075370422
 20
13587.491467022401
 40
2.6
  0
CIRCLE
  5
3B3
100
AcDbEntity
  8
1
  6
CONTINUOUS
 62
           3
100
AcDbCircle
 10
377.0075370422
 20
13637.491467022401
 40
3.5
  0
CIRCLE
  5
3B2
100
AcDbEntity
  8
1
  6
CONTINUOUS
 62
           3
100
AcDbCircle
 10
397.0075370422
 20
13637.491467022401
 40
3.5
  0
CIRCLE
  5
3B1
100
AcDbEntity
  8
1
  6
CONTINUOUS
 62
           3
100
AcDbCircle
 10
397.0075370422
 20
13612.491467022401
 40
3.5
  0
CIRCLE
  5
3B0
100
AcDbEntity
  8
1
  6
CONTINUOUS
 62
           3
100
AcDbCircle
 10
377.0075370422
 20
13612.491467022401
 40
3.5
  0
CIRCLE
  5
3AF
100
AcDbEntity
  8
1
  6
CONTINUOUS
 62
           3
100
AcDbCircle
 10
1030.288934451672
 20
13444.491467022401
 40
15.0
  0
CIRCLE
  5
3AE
100
AcDbEntity
  8
1
  6
CONTINUOUS
 62
           3
100
AcDbCircle
 10
1045.288934451672
 20
13487.491467022401
 40
2.5
  0
CIRCLE
  5
3AD
100
AcDbEntity
  8
1
  6
CONTINUOUS
 62
           3
100
AcDbCircle
 10
1015.288934451672
 20
13487.491467022401
 40
2.5
  0
CIRCLE
  5
3AC
100
AcDbEntity
  8
1
  6
CONTINUOUS
 62
           3
100
AcDbCircle
 10
1015.288934451672
 20
13514.991467022401
 40
2.5
  0
CIRCLE
  5
3AB
100
AcDbEntity
  8
1
  6
CONTINUOUS
 62
           3
100
AcDbCircle
 10
1045.288934451672
 20
13514.991467022401
 40
2.5
  0
CIRCLE
  5
3AA
100
AcDbEntity
  8
1
  6
CONTINUOUS
 62
           3
100
AcDbCircle
 10
1015.288934451672
 20
13542.491467022401
 40
2.5
  0
CIRCLE
  5
3A9
100
AcDbEntity
  8
1
  6
CONTINUOUS
 62
           3
100
AcDbCircle
 10
1045.288934451672
 20
13542.491467022401
 40
2.5
  0
CIRCLE
  5
3A8
100
AcDbEntity
  8
1
  6
CONTINUOUS
 62
           3
100
AcDbCircle
 10
1015.288934451672
 20
13569.991467022401
 40
2.5
  0
CIRCLE
  5
3A7
100
AcDbEntity
  8
1
  6
CONTINUOUS
 62
           3
100
AcDbCircle
 10
1045.288934451672
 20
13569.991467022401
 40
2.5
  0
CIRCLE
  5
3A6
100
AcDbEntity
  8
1
  6
CONTINUOUS
 62
           3
100
AcDbCircle
 10
1015.288934451672
 20
13624.991467022401
 40
2.5
  0
CIRCLE
  5
3A5
100
AcDbEntity
  8
1
  6
CONTINUOUS
 62
           3
100
AcDbCircle
 10
1045.288934451672
 20
13624.991467022401
 40
2.5
  0
CIRCLE
  5
3A4
100
AcDbEntity
  8
1
  6
CONTINUOUS
 62
           3
100
AcDbCircle
 10
1015.288934451672
 20
13679.991467022401
 40
2.5
  0
CIRCLE
  5
3A3
100
AcDbEntity
  8
1
  6
CONTINUOUS
 62
           3
100
AcDbCircle
 10
1045.288934451672
 20
13679.991467022401
 40
2.5
  0
CIRCLE
  5
3A2
100
AcDbEntity
  8
1
  6
CONTINUOUS
 62
           3
100
AcDbCircle
 10
1015.288934451672
 20
13707.491467022401
 40
2.5
  0
CIRCLE
  5
3A1
100
AcDbEntity
  8
1
  6
CONTINUOUS
 62
           3
100
AcDbCircle
 10
1045.288934451672
 20
13707.491467022401
 40
2.5
  0
CIRCLE
  5
3A0
100
AcDbEntity
  8
1
  6
CONTINUOUS
 62
           3
100
AcDbCircle
 10
817.460408193442
 20
13981.47602581389
 40
3.75
  0
CIRCLE
  5
39F
100
AcDbEntity
  8
1
  6
CONTINUOUS
 62
           3
100
AcDbCircle
 10
872.460408193442
 20
13981.47602581389
 40
3.75
  0
CIRCLE
  5
39E
100
AcDbEntity
  8
1
  6
CONTINUOUS
 62
           3
100
AcDbCircle
 10
872.460408193442
 20
13866.47602581389
 40
3.75
  0
CIRCLE
  5
39D
100
AcDbEntity
  8
1
  6
CONTINUOUS
 62
           3
100
AcDbCircle
 10
817.460408193442
 20
13866.47602581389
 40
3.75
  0
CIRCLE
  5
39C
100
AcDbEntity
  8
1
  6
CONTINUOUS
 62
           3
100
AcDbCircle
 10
402.0075370422
 20
13707.491467022401
 40
2.5
  0
CIRCLE
  5
39B
100
AcDbEntity
  8
1
  6
CONTINUOUS
 62
           3
100
AcDbCircle
 10
372.0075370422
 20
13707.491467022401
 40
2.5
  0
CIRCLE
  5
39A
100
AcDbEntity
  8
1
  6
CONTINUOUS
 62
           3
100
AcDbCircle
 10
402.0075370422
 20
13542.491467022401
 40
2.5
  0
CIRCLE
  5
399
100
AcDbEntity
  8
1
  6
CONTINUOUS
 62
           3
100
AcDbCircle
 10
372.0075370422
 20
13542.491467022401
 40
2.5
  0
CIRCLE
  5
398
100
AcDbEntity
  8
1
  6
CONTINUOUS
 62
           3
100
AcDbCircle
 10
402.0075370422
 20
13514.991467022401
 40
2.5
  0
CIRCLE
  5
397
100
AcDbEntity
  8
1
  6
CONTINUOUS
 62
           3
100
AcDbCircle
 10
372.0075370422
 20
13514.991467022401
 40
2.5
  0
CIRCLE
  5
396
100
AcDbEntity
  8
1
  6
CONTINUOUS
 62
           3
100
AcDbCircle
 10
372.0075370422
 20
13487.491467022401
 40
2.5
  0
CIRCLE
  5
395
100
AcDbEntity
  8
1
  6
CONTINUOUS
 62
           3
100
AcDbCircle
 10
402.0075370422
 20
13487.491467022401
 40
2.5
  0
CIRCLE
  5
394
100
AcDbEntity
  8
1
  6
CONTINUOUS
 62
           3
100
AcDbCircle
 10
387.0075370422
 20
13444.491467022401
 40
15.0
  0
CIRCLE
  5
393
100
AcDbEntity
  8
1
  6
CONTINUOUS
 62
           3
100
AcDbCircle
 10
1045.288934451672
 20
13652.491467022401
 40
5.0
  0
CIRCLE
  5
392
100
AcDbEntity
  8
1
  6
CONTINUOUS
 62
           3
100
AcDbCircle
 10
1015.288934451672
 20
13652.491467022401
 40
5.0
  0
CIRCLE
  5
391
100
AcDbEntity
  8
1
  6
CONTINUOUS
 62
           3
100
AcDbCircle
 10
1015.288934451672
 20
13597.491467022401
 40
5.0
  0
CIRCLE
  5
390
100
AcDbEntity
  8
1
  6
CONTINUOUS
 62
           3
100
AcDbCircle
 10
1045.288934451672
 20
13597.491467022401
 40
5.0
  0
CIRCLE
  5
38F
100
AcDbEntity
  8
1
  6
DOTTED
 62
           1
100
AcDbCircle
 10
1015.288934451672
 20
13652.491467022401
 40
2.5
  0
CIRCLE
  5
38E
100
AcDbEntity
  8
1
  6
DOTTED
 62
           1
100
AcDbCircle
 10
1045.288934451672
 20
13652.491467022401
 40
2.5
  0
CIRCLE
  5
38D
100
AcDbEntity
  8
1
  6
DOTTED
 62
           1
100
AcDbCircle
 10
1045.288934451672
 20
13597.491467022401
 40
2.5
  0
CIRCLE
  5
38C
100
AcDbEntity
  8
1
  6
DOTTED
 62
           1
100
AcDbCircle
 10
1015.288934451672
 20
13597.491467022401
 40
2.5
  0
CIRCLE
  5
38B
100
AcDbEntity
  8
1
  6
PHANTOM
 62
           1
100
AcDbCircle
 10
876.960408193442
 20
13923.97602581389
 40
8.75
  0
CIRCLE
  5
38A
100
AcDbEntity
  8
1
  6
PHANTOM
 62
           1
100
AcDbCircle
 10
876.960408193442
 20
13753.97602581389
 40
8.75
  0
CIRCLE
  5
389
100
AcDbEntity
  8
1
  6
PHANTOM
 62
           1
100
AcDbCircle
 10
876.960408193442
 20
13888.97602581389
 40
8.749999999995
  0
ARC
  5
388
100
AcDbEntity
  8
1
  6
DOTTED
 62
           1
100
AcDbCircle
 10
571.960408193442
 20
13923.97602581389
 40
11.0
100
AcDbArc
 50
-90.0
 51
90.0
  0
ARC
  5
387
100
AcDbEntity
  8
1
  6
CONTINUOUS
 62
           3
100
AcDbCircle
 10
571.960408193442
 20
13923.97602581389
 40
11.0
100
AcDbArc
 50
90.0
 51
-90.0
  0
ARC
  5
386
100
AcDbEntity
  8
1
  6
DOTTED
 62
           1
100
AcDbCircle
 10
706.960408193442
 20
13923.97602581389
 40
11.0
100
AcDbArc
 50
-90.0
 51
90.0
  0
ARC
  5
385
100
AcDbEntity
  8
1
  6
CONTINUOUS
 62
           3
100
AcDbCircle
 10
706.960408193442
 20
13923.97602581389
 40
11.0
100
AcDbArc
 50
90.0
 51
-90.0
  0
ARC
  5
384
100
AcDbEntity
  8
1
  6
CONTINUOUS
 62
           3
100
AcDbCircle
 10
1067.788934451673
 20
13590.8914670224
 40
2.599999999999
100
AcDbArc
 50
0.0
 51
89.999999999975
  0
ARC
  5
383
100
AcDbEntity
  8
1
  6
CONTINUOUS
 62
           3
100
AcDbCircle
 10
1067.788934451673
 20
13590.8914670224
 40
2.6
100
AcDbArc
 50
89.999999999975
 51
180.0
  0
ARC
  5
382
100
AcDbEntity
  8
1
  6
CONTINUOUS
 62
           3
100
AcDbCircle
 10
1067.788934451673
 20
13584.091467022399
 40
2.6
100
AcDbArc
 50
180.0
 51
-90.0
  0
ARC
  5
381
100
AcDbEntity
  8
1
  6
CONTINUOUS
 62
           3
100
AcDbCircle
 10
1067.788934451673
 20
13584.091467022399
 40
2.599999999999
100
AcDbArc
 50
-90.0
 51
0.0
  0
ARC
  5
380
100
AcDbEntity
  8
1
  6
CONTINUOUS
 62
           3
100
AcDbCircle
 10
1080.288934451673
 20
13571.591467022399
 40
2.599999999999
100
AcDbArc
 50
-90.0
 51
0.0
  0
ARC
  5
37F
100
AcDbEntity
  8
1
  6
CONTINUOUS
 62
           3
100
AcDbCircle
 10
1080.288934451673
 20
13571.591467022399
 40
2.600000000001
100
AcDbArc
 50
180.0
 51
-90.0
  0
ARC
  5
37E
100
AcDbEntity
  8
1
  6
CONTINUOUS
 62
           3
100
AcDbCircle
 10
1080.288934451673
 20
13578.3914670224
 40
2.6
100
AcDbArc
 50
89.999999999975
 51
180.0
  0
ARC
  5
37D
100
AcDbEntity
  8
1
  6
CONTINUOUS
 62
           3
100
AcDbCircle
 10
1080.288934451673
 20
13578.3914670224
 40
2.599999999999
100
AcDbArc
 50
0.0
 51
89.999999999975
  0
ARC
  5
37C
100
AcDbEntity
  8
1
  6
CONTINUOUS
 62
           3
100
AcDbCircle
 10
996.188934451672
 20
13662.491467022401
 40
2.600000000002
100
AcDbArc
 50
0.0
 51
90.0
  0
ARC
  5
37B
100
AcDbEntity
  8
1
  6
CONTINUOUS
 62
           3
100
AcDbCircle
 10
996.188934451672
 20
13662.491467022401
 40
2.6
100
AcDbArc
 50
-90.0
 51
0.0
  0
ARC
  5
37A
100
AcDbEntity
  8
1
  6
CONTINUOUS
 62
           3
100
AcDbCircle
 10
989.388934451672
 20
13662.491467022401
 40
2.599999999999
100
AcDbArc
 50
180.0
 51
-90.0
  0
ARC
  5
379
100
AcDbEntity
  8
1
  6
CONTINUOUS
 62
           3
100
AcDbCircle
 10
989.388934451672
 20
13662.491467022401
 40
2.599999999999
100
AcDbArc
 50
90.0
 51
180.0
  0
ARC
  5
378
100
AcDbEntity
  8
1
  6
CONTINUOUS
 62
           3
100
AcDbCircle
 10
1065.384771395638
 20
13664.895630078439
 40
2.59999999999
100
AcDbArc
 50
44.999999999773
 51
135.000000000226
  0
ARC
  5
377
100
AcDbEntity
  8
1
  6
CONTINUOUS
 62
           3
100
AcDbCircle
 10
1065.384771395638
 20
13664.895630078439
 40
2.59999999999
100
AcDbArc
 50
135.000000000226
 51
-134.999999999773
  0
ARC
  5
376
100
AcDbEntity
  8
1
  6
CONTINUOUS
 62
           3
100
AcDbCircle
 10
1070.193097507706
 20
13660.087303966369
 40
2.600000000009
100
AcDbArc
 50
-134.999999999755
 51
-45.000000000227
  0
ARC
  5
375
100
AcDbEntity
  8
1
  6
CONTINUOUS
 62
           3
100
AcDbCircle
 10
1070.193097507706
 20
13660.087303966369
 40
2.60000000001
100
AcDbArc
 50
-45.000000000227
 51
44.999999999773
  0
ARC
  5
374
100
AcDbEntity
  8
1
  6
CONTINUOUS
 62
           3
100
AcDbCircle
 10
1082.693097507706
 20
13672.587303966369
 40
2.60000000001
100
AcDbArc
 50
-45.000000000227
 51
44.999999999773
  0
ARC
  5
373
100
AcDbEntity
  8
1
  6
CONTINUOUS
 62
           3
100
AcDbCircle
 10
1082.693097507706
 20
13672.587303966369
 40
2.600000000009
100
AcDbArc
 50
-134.999999999755
 51
-45.000000000227
  0
ARC
  5
372
100
AcDbEntity
  8
1
  6
CONTINUOUS
 62
           3
100
AcDbCircle
 10
1077.884771395638
 20
13677.395630078439
 40
2.59999999999
100
AcDbArc
 50
135.000000000226
 51
-134.999999999773
  0
ARC
  5
371
100
AcDbEntity
  8
1
  6
CONTINUOUS
 62
           3
100
AcDbCircle
 10
1077.884771395638
 20
13677.395630078439
 40
2.59999999999
100
AcDbArc
 50
44.999999999773
 51
135.000000000226
  0
ARC
  5
370
100
AcDbEntity
  8
1
  6
CONTINUOUS
 62
           3
100
AcDbCircle
 10
976.888934451672
 20
13674.991467022401
 40
2.599999999999
100
AcDbArc
 50
90.0
 51
180.0
  0
ARC
  5
36F
100
AcDbEntity
  8
1
  6
CONTINUOUS
 62
           3
100
AcDbCircle
 10
976.888934451672
 20
13674.991467022401
 40
2.599999999999
100
AcDbArc
 50
180.0
 51
-90.0
  0
ARC
  5
36E
100
AcDbEntity
  8
1
  6
CONTINUOUS
 62
           3
100
AcDbCircle
 10
983.688934451672
 20
13674.991467022401
 40
2.6
100
AcDbArc
 50
-90.0
 51
0.0
  0
ARC
  5
36D
100
AcDbEntity
  8
1
  6
CONTINUOUS
 62
           3
100
AcDbCircle
 10
983.688934451672
 20
13674.991467022401
 40
2.600000000002
100
AcDbArc
 50
0.0
 51
90.0
  0
ARC
  5
36C
100
AcDbEntity
  8
1
  6
CONTINUOUS
 62
           3
100
AcDbCircle
 10
990.288934451672
 20
13624.991467022401
 40
9.999999999999
100
AcDbArc
 50
-34.403401743792
 51
34.403401743838
  0
ARC
  5
36B
100
AcDbEntity
  8
1
  6
CONTINUOUS
 62
           3
100
AcDbCircle
 10
980.288934451672
 20
13674.991467022401
 40
9.999999999989
100
AcDbArc
 50
55.596598256144
 51
-145.596598256202
  0
ARC
  5
36A
100
AcDbEntity
  8
1
  6
CONTINUOUS
 62
           3
100
AcDbCircle
 10
980.288934451672
 20
13574.991467022401
 40
9.999999999996
100
AcDbArc
 50
145.596598256197
 51
-55.59659825621
  0
ARC
  5
369
100
AcDbEntity
  8
1
  6
CONTINUOUS
 62
           3
100
AcDbCircle
 10
1080.288934451672
 20
13574.991467022401
 40
10.000000000008
100
AcDbArc
 50
-124.403401743796
 51
34.403401743838
  0
ARC
  5
368
100
AcDbEntity
  8
1
  6
CONTINUOUS
 62
           3
100
AcDbCircle
 10
1070.288934451672
 20
13624.991467022401
 40
10.000000000002
100
AcDbArc
 50
145.596598256156
 51
-145.596598256202
  0
ARC
  5
367
100
AcDbEntity
  8
1
  6
CONTINUOUS
 62
           3
100
AcDbCircle
 10
1080.288934451672
 20
13674.991467022401
 40
9.999999999999
100
AcDbArc
 50
-34.403401743791
 51
124.403401743858
  0
ARC
  5
366
100
AcDbEntity
  8
1
  6
CONTINUOUS
 62
           3
100
AcDbCircle
 10
387.0075370422
 20
13664.991467022401
 40
10.000000000008
100
AcDbArc
 50
-124.403401743791
 51
-55.59659825621
  0
ARC
  5
365
100
AcDbEntity
  8
1
  6
CONTINUOUS
 62
           3
100
AcDbCircle
 10
337.0075370422
 20
13674.991467022401
 40
9.99999999999
100
AcDbArc
 50
55.596598256139
 51
-145.596598256208
  0
ARC
  5
364
100
AcDbEntity
  8
1
  6
CONTINUOUS
 62
           3
100
AcDbCircle
 10
347.0075370422
 20
13624.991467022401
 40
9.999999999998
100
AcDbArc
 50
-34.403401743797
 51
34.403401743843
  0
ARC
  5
363
100
AcDbEntity
  8
1
  6
CONTINUOUS
 62
           3
100
AcDbCircle
 10
337.0075370422
 20
13574.991467022401
 40
10.000000000003
100
AcDbArc
 50
145.596598256159
 51
-55.596598256203
  0
ARC
  5
362
100
AcDbEntity
  8
1
  6
CONTINUOUS
 62
           3
100
AcDbCircle
 10
387.0075370422
 20
13584.991467022401
 40
9.99999999999
100
AcDbArc
 50
55.59659825614
 51
124.403401743862
  0
ARC
  5
361
100
AcDbEntity
  8
1
  6
CONTINUOUS
 62
           3
100
AcDbCircle
 10
437.0075370422
 20
13574.991467022401
 40
10.000000000008
100
AcDbArc
 50
-124.40340174379
 51
34.403401743802
  0
ARC
  5
360
100
AcDbEntity
  8
1
  6
CONTINUOUS
 62
           3
100
AcDbCircle
 10
437.0075370422
 20
13674.991467022401
 40
9.999999999998
100
AcDbArc
 50
-34.403401743797
 51
124.403401743855
  0
ARC
  5
35F
100
AcDbEntity
  8
1
  6
CONTINUOUS
 62
           3
100
AcDbCircle
 10
427.0075370422
 20
13624.991467022401
 40
10.000000000003
100
AcDbArc
 50
145.59659825616
 51
-145.596598256205
  0
ARC
  5
35E
100
AcDbEntity
  8
1
  6
CONTINUOUS
 62
           3
100
AcDbCircle
 10
1058.139845730264
 20
13404.64055574381
 40
4.410000000914
100
AcDbArc
 50
168.874983335487
 51
-150.835303463502
  0
ARC
  5
35D
100
AcDbEntity
  8
1
  6
CONTINUOUS
 62
           3
100
AcDbCircle
 10
1002.43802317308
 20
13404.64055574381
 40
4.410000000001
100
AcDbArc
 50
78.874983333132
 51
119.164696536496
  0
ARC
  5
35C
100
AcDbEntity
  8
1
  6
CONTINUOUS
 62
           3
100
AcDbCircle
 10
1058.139845730264
 20
13404.64055574381
 40
4.410000000914
100
AcDbArc
 50
60.835303463509
 51
101.125016666893
  0
ARC
  5
35B
100
AcDbEntity
  8
1
  6
CONTINUOUS
 62
           3
100
AcDbCircle
 10
1002.43802317308
 20
13404.64055574381
 40
4.41
100
AcDbArc
 50
11.125016666848
 51
78.874983333132
  0
ARC
  5
35A
100
AcDbEntity
  8
1
  6
CONTINUOUS
 62
           3
100
AcDbCircle
 10
1002.43802317308
 20
13404.64055574381
 40
4.410000000916
100
AcDbArc
 50
-29.164696536497
 51
11.125016666893
  0
ARC
  5
359
100
AcDbEntity
  8
1
  6
CONTINUOUS
 62
           3
100
AcDbCircle
 10
1058.139845730264
 20
13404.64055574381
 40
4.410000000001
100
AcDbArc
 50
101.125016666864
 51
168.874983335532
  0
ARC
  5
358
100
AcDbEntity
  8
1
  6
CONTINUOUS
 62
           3
100
AcDbCircle
 10
901.344565830581
 20
13403.607309385259
 40
5.01000000032
100
AcDbArc
 50
77.13098003484
 51
112.091040129128
  0
ARC
  5
357
100
AcDbEntity
  8
1
  6
CONTINUOUS
 62
           3
100
AcDbCircle
 10
901.344565830581
 20
13403.607309385259
 40
5.01
100
AcDbArc
 50
112.091040129159
 51
-167.130980034746
  0
ARC
  5
356
100
AcDbEntity
  8
1
  6
CONTINUOUS
 62
           3
100
AcDbCircle
 10
359.156625763608
 20
13404.64055574381
 40
4.409999999999
100
AcDbArc
 50
11.12501666685
 51
78.87498333313
  0
ARC
  5
355
100
AcDbEntity
  8
1
  6
CONTINUOUS
 62
           3
100
AcDbCircle
 10
414.858448320792
 20
13404.64055574381
 40
4.410000000001
100
AcDbArc
 50
101.125016666864
 51
168.874983335533
  0
ARC
  5
354
100
AcDbEntity
  8
1
  6
CONTINUOUS
 62
           3
100
AcDbCircle
 10
897.710408193445
 20
13652.491467022401
 40
7.249999999998
100
AcDbArc
 50
-43.60281897272
 51
43.60281897272
  0
ARC
  5
353
100
AcDbEntity
  8
1
  6
CONTINUOUS
 62
           3
100
AcDbCircle
 10
897.710408193445
 20
13597.491467022401
 40
7.249999999998
100
AcDbArc
 50
-43.60281897272
 51
43.60281897272
  0
ARC
  5
352
100
AcDbEntity
  8
1
  6
CONTINUOUS
 62
           3
100
AcDbCircle
 10
433.6075370422
 20
13674.991467022401
 40
2.599999999999
100
AcDbArc
 50
90.0
 51
180.0
  0
ARC
  5
351
100
AcDbEntity
  8
1
  6
CONTINUOUS
 62
           3
100
AcDbCircle
 10
433.6075370422
 20
13674.991467022401
 40
2.6
100
AcDbArc
 50
180.0
 51
-90.0
  0
ARC
  5
350
100
AcDbEntity
  8
1
  6
CONTINUOUS
 62
           3
100
AcDbCircle
 10
440.4075370422
 20
13674.991467022401
 40
2.6
100
AcDbArc
 50
-90.0
 51
90.0
  0
ARC
  5
34F
100
AcDbEntity
  8
1
  6
CONTINUOUS
 62
           3
100
AcDbCircle
 10
339.411700098234
 20
13677.395630078439
 40
2.59999999999
100
AcDbArc
 50
44.999999999773
 51
135.000000000227
  0
ARC
  5
34E
100
AcDbEntity
  8
1
  6
CONTINUOUS
 62
           3
100
AcDbCircle
 10
339.411700098234
 20
13677.395630078439
 40
2.60000000001
100
AcDbArc
 50
-45.000000000223
 51
44.999999999773
  0
ARC
  5
34D
100
AcDbEntity
  8
1
  6
CONTINUOUS
 62
           3
100
AcDbCircle
 10
334.603373986166
 20
13672.587303966369
 40
2.60000000001
100
AcDbArc
 50
-134.999999999771
 51
-45.000000000236
  0
ARC
  5
34C
100
AcDbEntity
  8
1
  6
CONTINUOUS
 62
           3
100
AcDbCircle
 10
334.603373986166
 20
13672.587303966369
 40
2.59999999999
100
AcDbArc
 50
135.000000000225
 51
-134.999999999771
  0
ARC
  5
34B
100
AcDbEntity
  8
1
  6
CONTINUOUS
 62
           3
100
AcDbCircle
 10
347.103373986166
 20
13660.087303966369
 40
2.59999999999
100
AcDbArc
 50
135.000000000225
 51
-134.999999999771
  0
ARC
  5
34A
100
AcDbEntity
  8
1
  6
CONTINUOUS
 62
           3
100
AcDbCircle
 10
347.103373986166
 20
13660.087303966369
 40
2.60000000001
100
AcDbArc
 50
-134.999999999771
 51
-45.000000000236
  0
ARC
  5
349
100
AcDbEntity
  8
1
  6
CONTINUOUS
 62
           3
100
AcDbCircle
 10
351.911700098234
 20
13664.895630078439
 40
2.60000000001
100
AcDbArc
 50
-45.000000000223
 51
44.999999999773
  0
ARC
  5
348
100
AcDbEntity
  8
1
  6
CONTINUOUS
 62
           3
100
AcDbCircle
 10
351.911700098234
 20
13664.895630078439
 40
2.59999999999
100
AcDbArc
 50
44.999999999773
 51
135.000000000227
  0
ARC
  5
347
100
AcDbEntity
  8
1
  6
CONTINUOUS
 62
           3
100
AcDbCircle
 10
427.9075370422
 20
13662.491467022401
 40
2.599999999999
100
AcDbArc
 50
0.0
 51
90.0
  0
ARC
  5
346
100
AcDbEntity
  8
1
  6
CONTINUOUS
 62
           3
100
AcDbCircle
 10
427.9075370422
 20
13662.491467022401
 40
2.6
100
AcDbArc
 50
-90.0
 51
0.0
  0
ARC
  5
345
100
AcDbEntity
  8
1
  6
CONTINUOUS
 62
           3
100
AcDbCircle
 10
421.1075370422
 20
13662.491467022401
 40
2.6
100
AcDbArc
 50
180.0
 51
-90.0
  0
ARC
  5
344
100
AcDbEntity
  8
1
  6
CONTINUOUS
 62
           3
100
AcDbCircle
 10
421.1075370422
 20
13662.491467022401
 40
2.599999999999
100
AcDbArc
 50
90.0
 51
180.0
  0
ARC
  5
343
100
AcDbEntity
  8
1
  6
CONTINUOUS
 62
           3
100
AcDbCircle
 10
337.007537042199
 20
13578.3914670224
 40
2.6
100
AcDbArc
 50
90.00000000001
 51
180.0
  0
ARC
  5
342
100
AcDbEntity
  8
1
  6
CONTINUOUS
 62
           3
100
AcDbCircle
 10
337.007537042199
 20
13578.3914670224
 40
2.600000000001
100
AcDbArc
 50
0.0
 51
90.00000000001
  0
ARC
  5
341
100
AcDbEntity
  8
1
  6
CONTINUOUS
 62
           3
100
AcDbCircle
 10
337.007537042199
 20
13571.591467022399
 40
2.599999999999
100
AcDbArc
 50
-90.0
 51
0.0
  0
ARC
  5
340
100
AcDbEntity
  8
1
  6
CONTINUOUS
 62
           3
100
AcDbCircle
 10
337.007537042199
 20
13571.591467022399
 40
2.6
100
AcDbArc
 50
180.0
 51
-90.0
  0
ARC
  5
33F
100
AcDbEntity
  8
1
  6
CONTINUOUS
 62
           3
100
AcDbCircle
 10
349.507537042199
 20
13584.091467022399
 40
2.6
100
AcDbArc
 50
180.0
 51
-90.0
  0
ARC
  5
33E
100
AcDbEntity
  8
1
  6
CONTINUOUS
 62
           3
100
AcDbCircle
 10
349.507537042199
 20
13584.091467022399
 40
2.599999999999
100
AcDbArc
 50
-90.0
 51
0.0
  0
ARC
  5
33D
100
AcDbEntity
  8
1
  6
CONTINUOUS
 62
           3
100
AcDbCircle
 10
349.507537042199
 20
13590.8914670224
 40
2.600000000001
100
AcDbArc
 50
0.0
 51
90.00000000001
  0
ARC
  5
33C
100
AcDbEntity
  8
1
  6
CONTINUOUS
 62
           3
100
AcDbCircle
 10
349.507537042199
 20
13590.8914670224
 40
2.6
100
AcDbArc
 50
90.00000000001
 51
180.0
  0
ARC
  5
33B
100
AcDbEntity
  8
1
  6
CONTINUOUS
 62
           6
100
AcDbCircle
 10
378.0075370422
 20
13638.491467022401
 40
0.5
100
AcDbArc
 50
180.0
 51
-90.0
  0
ARC
  5
33A
100
AcDbEntity
  8
1
  6
CONTINUOUS
 62
           6
100
AcDbCircle
 10
378.0075370422
 20
13636.491467022401
 40
0.5
100
AcDbArc
 50
90.0
 51
180.0
  0
ARC
  5
339
100
AcDbEntity
  8
1
  6
CONTINUOUS
 62
           6
100
AcDbCircle
 10
376.0075370422
 20
13636.491467022401
 40
0.5
100
AcDbArc
 50
0.0
 51
90.0
  0
ARC
  5
338
100
AcDbEntity
  8
1
  6
CONTINUOUS
 62
           6
100
AcDbCircle
 10
376.0075370422
 20
13638.491467022401
 40
0.5
100
AcDbArc
 50
-90.0
 51
0.0
  0
ARC
  5
337
100
AcDbEntity
  8
1
  6
CONTINUOUS
 62
           6
100
AcDbCircle
 10
398.0075370422
 20
13638.491467022401
 40
0.5
100
AcDbArc
 50
180.0
 51
-90.0
  0
ARC
  5
336
100
AcDbEntity
  8
1
  6
CONTINUOUS
 62
           6
100
AcDbCircle
 10
398.0075370422
 20
13636.491467022401
 40
0.5
100
AcDbArc
 50
90.0
 51
180.0
  0
ARC
  5
335
100
AcDbEntity
  8
1
  6
CONTINUOUS
 62
           6
100
AcDbCircle
 10
396.0075370422
 20
13636.491467022401
 40
0.5
100
AcDbArc
 50
0.0
 51
90.0
  0
ARC
  5
334
100
AcDbEntity
  8
1
  6
CONTINUOUS
 62
           6
100
AcDbCircle
 10
396.0075370422
 20
13638.491467022401
 40
0.5
100
AcDbArc
 50
-90.0
 51
0.0
  0
ARC
  5
333
100
AcDbEntity
  8
1
  6
CONTINUOUS
 62
           6
100
AcDbCircle
 10
396.0075370422
 20
13611.491467022401
 40
0.5
100
AcDbArc
 50
0.0
 51
90.0
  0
ARC
  5
332
100
AcDbEntity
  8
1
  6
CONTINUOUS
 62
           6
100
AcDbCircle
 10
396.0075370422
 20
13613.491467022401
 40
0.5
100
AcDbArc
 50
-90.0
 51
0.0
  0
ARC
  5
331
100
AcDbEntity
  8
1
  6
CONTINUOUS
 62
           6
100
AcDbCircle
 10
398.0075370422
 20
13613.491467022401
 40
0.5
100
AcDbArc
 50
180.0
 51
-90.0
  0
ARC
  5
330
100
AcDbEntity
  8
1
  6
CONTINUOUS
 62
           6
100
AcDbCircle
 10
398.0075370422
 20
13611.491467022401
 40
0.5
100
AcDbArc
 50
90.0
 51
180.0
  0
ARC
  5
32F
100
AcDbEntity
  8
1
  6
CONTINUOUS
 62
           6
100
AcDbCircle
 10
376.0075370422
 20
13611.491467022401
 40
0.5
100
AcDbArc
 50
0.0
 51
90.0
  0
ARC
  5
32E
100
AcDbEntity
  8
1
  6
CONTINUOUS
 62
           6
100
AcDbCircle
 10
376.0075370422
 20
13613.491467022401
 40
0.5
100
AcDbArc
 50
-90.0
 51
0.0
  0
ARC
  5
32D
100
AcDbEntity
  8
1
  6
CONTINUOUS
 62
           6
100
AcDbCircle
 10
378.0075370422
 20
13613.491467022401
 40
0.5
100
AcDbArc
 50
180.0
 51
-90.0
  0
ARC
  5
32C
100
AcDbEntity
  8
1
  6
CONTINUOUS
 62
           6
100
AcDbCircle
 10
378.0075370422
 20
13611.491467022401
 40
0.5
100
AcDbArc
 50
90.0
 51
180.0
  0
ARC
  5
32B
100
AcDbEntity
  8
1
  6
CONTINUOUS
 62
           3
100
AcDbCircle
 10
897.460408193442
 20
13712.491467022401
 40
5.0
100
AcDbArc
 50
90.0
 51
180.0
  0
ARC
  5
32A
100
AcDbEntity
  8
1
  6
CONTINUOUS
 62
           3
100
AcDbCircle
 10
899.460408193442
 20
13405.491467022401
 40
3.0
100
AcDbArc
 50
-90.0
 51
0.0
  0
ARC
  5
329
100
AcDbEntity
  8
1
  6
CONTINUOUS
 62
           3
100
AcDbCircle
 10
887.460408193442
 20
13856.97602581389
 40
5.0
100
AcDbArc
 50
-90.0
 51
0.0
  0
ARC
  5
328
100
AcDbEntity
  8
1
  6
CONTINUOUS
 62
           3
100
AcDbCircle
 10
887.460408193442
 20
13990.97602581389
 40
5.0
100
AcDbArc
 50
0.0
 51
90.0
  0
ARC
  5
327
100
AcDbEntity
  8
1
  6
CONTINUOUS
 62
           3
100
AcDbCircle
 10
807.460408193442
 20
13990.97602581389
 40
5.0
100
AcDbArc
 50
90.0
 51
180.0
  0
ARC
  5
326
100
AcDbEntity
  8
1
  6
CONTINUOUS
 62
           3
100
AcDbCircle
 10
807.460408193442
 20
13856.97602581389
 40
5.0
100
AcDbArc
 50
180.0
 51
-90.0
  0
ARC
  5
325
100
AcDbEntity
  8
1
  6
CONTINUOUS
 62
           3
100
AcDbCircle
 10
899.460408193442
 20
13896.97602581389
 40
3.0
100
AcDbArc
 50
-90.0
 51
0.0
  0
ARC
  5
324
100
AcDbEntity
  8
1
  6
CONTINUOUS
 62
           3
100
AcDbCircle
 10
899.460408193442
 20
13950.97602581389
 40
3.0
100
AcDbArc
 50
0.0
 51
90.0
  0
ARC
  5
323
100
AcDbEntity
  8
1
  6
CONTINUOUS
 62
           3
100
AcDbCircle
 10
1044.288934451672
 20
13653.491467022401
 40
0.5
100
AcDbArc
 50
-90.0
 51
0.0
  0
ARC
  5
322
100
AcDbEntity
  8
1
  6
CONTINUOUS
 62
           3
100
AcDbCircle
 10
1046.288934451672
 20
13653.491467022401
 40
0.5
100
AcDbArc
 50
180.0
 51
-90.0
  0
ARC
  5
321
100
AcDbEntity
  8
1
  6
CONTINUOUS
 62
           3
100
AcDbCircle
 10
1046.288934451672
 20
13651.491467022401
 40
0.5
100
AcDbArc
 50
90.0
 51
180.0
  0
ARC
  5
320
100
AcDbEntity
  8
1
  6
CONTINUOUS
 62
           3
100
AcDbCircle
 10
1044.288934451672
 20
13651.491467022401
 40
0.5
100
AcDbArc
 50
0.0
 51
90.0
  0
ARC
  5
31F
100
AcDbEntity
  8
1
  6
CONTINUOUS
 62
           3
100
AcDbCircle
 10
1016.288934451672
 20
13651.491467022401
 40
0.5
100
AcDbArc
 50
90.0
 51
180.0
  0
ARC
  5
31E
100
AcDbEntity
  8
1
  6
CONTINUOUS
 62
           3
100
AcDbCircle
 10
1014.288934451672
 20
13651.491467022401
 40
0.5
100
AcDbArc
 50
0.0
 51
90.0
  0
ARC
  5
31D
100
AcDbEntity
  8
1
  6
CONTINUOUS
 62
           3
100
AcDbCircle
 10
1014.288934451672
 20
13653.491467022401
 40
0.5
100
AcDbArc
 50
-90.0
 51
0.0
  0
ARC
  5
31C
100
AcDbEntity
  8
1
  6
CONTINUOUS
 62
           3
100
AcDbCircle
 10
1016.288934451672
 20
13653.491467022401
 40
0.5
100
AcDbArc
 50
180.0
 51
-90.0
  0
ARC
  5
31B
100
AcDbEntity
  8
1
  6
CONTINUOUS
 62
           3
100
AcDbCircle
 10
1016.288934451672
 20
13596.491467022401
 40
0.5
100
AcDbArc
 50
90.0
 51
180.0
  0
ARC
  5
31A
100
AcDbEntity
  8
1
  6
CONTINUOUS
 62
           3
100
AcDbCircle
 10
1014.288934451672
 20
13596.491467022401
 40
0.5
100
AcDbArc
 50
0.0
 51
90.0
  0
ARC
  5
319
100
AcDbEntity
  8
1
  6
CONTINUOUS
 62
           3
100
AcDbCircle
 10
1014.288934451672
 20
13598.491467022401
 40
0.5
100
AcDbArc
 50
-90.0
 51
0.0
  0
ARC
  5
318
100
AcDbEntity
  8
1
  6
CONTINUOUS
 62
           3
100
AcDbCircle
 10
1016.288934451672
 20
13598.491467022401
 40
0.5
100
AcDbArc
 50
180.0
 51
-90.0
  0
ARC
  5
317
100
AcDbEntity
  8
1
  6
CONTINUOUS
 62
           3
100
AcDbCircle
 10
1044.288934451672
 20
13598.491467022401
 40
0.5
100
AcDbArc
 50
-90.0
 51
0.0
  0
ARC
  5
316
100
AcDbEntity
  8
1
  6
CONTINUOUS
 62
           3
100
AcDbCircle
 10
1046.288934451672
 20
13598.491467022401
 40
0.5
100
AcDbArc
 50
180.0
 51
-90.0
  0
ARC
  5
315
100
AcDbEntity
  8
1
  6
CONTINUOUS
 62
           3
100
AcDbCircle
 10
1046.288934451672
 20
13596.491467022401
 40
0.5
100
AcDbArc
 50
90.0
 51
180.0
  0
ARC
  5
314
100
AcDbEntity
  8
1
  6
CONTINUOUS
 62
           3
100
AcDbCircle
 10
1044.288934451672
 20
13596.491467022401
 40
0.5
100
AcDbArc
 50
0.0
 51
90.0
  0
ARC
  5
313
100
AcDbEntity
  8
1
  6
CONTINUOUS
 62
           3
100
AcDbCircle
 10
539.460408193442
 20
13624.991467022401
 40
19.5
100
AcDbArc
 50
63.823047828333
 51
90.0
  0
ARC
  5
312
100
AcDbEntity
  8
1
  6
CONTINUOUS
 62
           3
100
AcDbCircle
 10
539.460408193442
 20
13624.991467022401
 40
19.5
100
AcDbArc
 50
-63.823047828333
 51
0.0
  0
ARC
  5
311
100
AcDbEntity
  8
1
  6
CONTINUOUS
 62
           3
100
AcDbCircle
 10
539.460408193442
 20
13624.991467022401
 40
19.5
100
AcDbArc
 50
0.0
 51
63.823047828333
  0
ARC
  5
310
100
AcDbEntity
  8
1
  6
CONTINUOUS
 62
           3
100
AcDbCircle
 10
539.460408193442
 20
13624.991467022401
 40
19.5
100
AcDbArc
 50
-90.0
 51
-63.823047828333
  0
ARC
  5
30F
100
AcDbEntity
  8
1
  6
CONTINUOUS
 62
           3
100
AcDbCircle
 10
571.960408193442
 20
13609.710217022401
 40
38.78125
100
AcDbArc
 50
76.960396496686
 51
103.039603503314
  0
ARC
  5
30E
100
AcDbEntity
  8
1
  6
CONTINUOUS
 62
           3
100
AcDbCircle
 10
706.960408193442
 20
13637.210217022401
 40
38.78125
100
AcDbArc
 50
76.960396496686
 51
103.039603503314
  0
ARC
  5
30D
100
AcDbEntity
  8
1
  6
CONTINUOUS
 62
           3
100
AcDbCircle
 10
876.960408193442
 20
13637.210217022401
 40
38.78125
100
AcDbArc
 50
76.960396496686
 51
103.039603503314
  0
ARC
  5
30C
100
AcDbEntity
  8
1
  6
CONTINUOUS
 62
           3
100
AcDbCircle
 10
778.460408193442
 20
13660.491467022401
 40
3.5
100
AcDbArc
 50
90.0
 51
-90.0
  0
ARC
  5
30B
100
AcDbEntity
  8
1
  6
CONTINUOUS
 62
           3
100
AcDbCircle
 10
805.460408193442
 20
13660.491467022401
 40
3.5
100
AcDbArc
 50
-90.0
 51
90.0
  0
ARC
  5
30A
100
AcDbEntity
  8
1
  6
CONTINUOUS
 62
           3
100
AcDbCircle
 10
828.460408193442
 20
13660.491467022401
 40
3.5
100
AcDbArc
 50
90.0
 51
-90.0
  0
ARC
  5
309
100
AcDbEntity
  8
1
  6
CONTINUOUS
 62
           3
100
AcDbCircle
 10
855.460408193442
 20
13660.491467022401
 40
3.5
100
AcDbArc
 50
-90.0
 51
90.0
  0
ARC
  5
308
100
AcDbEntity
  8
1
  6
CONTINUOUS
 62
           3
100
AcDbCircle
 10
728.460408193442
 20
13660.491467022401
 40
3.5
100
AcDbArc
 50
90.0
 51
-90.0
  0
ARC
  5
307
100
AcDbEntity
  8
1
  6
CONTINUOUS
 62
           3
100
AcDbCircle
 10
755.460408193442
 20
13660.491467022401
 40
3.5
100
AcDbArc
 50
-90.0
 51
90.0
  0
ARC
  5
306
100
AcDbEntity
  8
1
  6
CONTINUOUS
 62
           3
100
AcDbCircle
 10
755.460408193442
 20
13589.491467022401
 40
3.5
100
AcDbArc
 50
-90.0
 51
90.0
  0
ARC
  5
305
100
AcDbEntity
  8
1
  6
DOTTED
 62
           1
100
AcDbCircle
 10
728.460408193442
 20
13589.491467022401
 40
3.499999999999
100
AcDbArc
 50
-154.623066474842
 51
-90.0
  0
ARC
  5
304
100
AcDbEntity
  8
1
  6
CONTINUOUS
 62
           3
100
AcDbCircle
 10
855.460408193442
 20
13589.491467022401
 40
3.499999999999
100
AcDbArc
 50
-25.376933525158
 51
90.0
  0
ARC
  5
303
100
AcDbEntity
  8
1
  6
CONTINUOUS
 62
           3
100
AcDbCircle
 10
828.460408193442
 20
13589.491467022401
 40
3.5
100
AcDbArc
 50
90.0
 51
-90.0
  0
ARC
  5
302
100
AcDbEntity
  8
1
  6
CONTINUOUS
 62
           3
100
AcDbCircle
 10
805.460408193442
 20
13589.491467022401
 40
3.5
100
AcDbArc
 50
-90.0
 51
90.0
  0
ARC
  5
301
100
AcDbEntity
  8
1
  6
CONTINUOUS
 62
           3
100
AcDbCircle
 10
778.460408193442
 20
13589.491467022401
 40
3.5
100
AcDbArc
 50
90.0
 51
-90.0
  0
ARC
  5
300
100
AcDbEntity
  8
1
  6
DOTTED
 62
           1
100
AcDbCircle
 10
855.460408193442
 20
13589.491467022401
 40
3.5
100
AcDbArc
 50
-90.0
 51
-25.376933525158
  0
ARC
  5
2FF
100
AcDbEntity
  8
1
  6
CONTINUOUS
 62
           3
100
AcDbCircle
 10
728.460408193442
 20
13589.491467022401
 40
3.5
100
AcDbArc
 50
90.0
 51
-154.623066474842
  0
ARC
  5
2FE
100
AcDbEntity
  8
1
  6
PHANTOM
 62
           1
100
AcDbCircle
 10
876.960408193442
 20
13923.97602581389
 40
11.0
100
AcDbArc
 50
0.0
 51
94.310000000007
  0
ARC
  5
2FD
100
AcDbEntity
  8
1
  6
PHANTOM
 62
           1
100
AcDbCircle
 10
876.960408193442
 20
13923.97602581389
 40
10.999999999983
100
AcDbArc
 50
94.310000000007
 51
180.0
  0
ARC
  5
2FC
100
AcDbEntity
  8
1
  6
PHANTOM
 62
           1
100
AcDbCircle
 10
876.960408193442
 20
13888.97602581389
 40
10.999999999999
100
AcDbArc
 50
4.309999999952
 51
180.0
  0
ARC
  5
2FB
100
AcDbEntity
  8
1
  6
PHANTOM
 62
           1
100
AcDbCircle
 10
876.960408193442
 20
13923.97602581389
 40
11.0
100
AcDbArc
 50
180.0
 51
-90.0
  0
ARC
  5
2FA
100
AcDbEntity
  8
1
  6
PHANTOM
 62
           1
100
AcDbCircle
 10
876.960408193442
 20
13753.97602581389
 40
11.0
100
AcDbArc
 50
180.0
 51
0.0
  0
ARC
  5
2F9
100
AcDbEntity
  8
1
  6
PHANTOM
 62
           1
100
AcDbCircle
 10
876.960408193442
 20
13888.97602581389
 40
11.0
100
AcDbArc
 50
-90.0
 51
4.309999999952
  0
LINE
  5
2F8
100
AcDbEntity
  8
1
  6
CONTINUOUS
 62
           3
100
AcDbLine
 10
431.357377134577
 20
13683.242266560521
 11
392.657696949825
 21
13656.74066748427
  0
LINE
  5
2F7
100
AcDbEntity
  8
1
  6
CONTINUOUS
 62
           3
100
AcDbLine
 10
509.460408193442
 20
13863.97602581389
 11
507.460408193442
 21
13863.97602581389
  0
LINE
  5
2F6
100
AcDbEntity
  8
1
  6
CONTINUOUS
 62
           3
100
AcDbLine
 10
524.460408193442
 20
13929.97602581389
 11
524.460408193442
 21
13928.97602581389
  0
LINE
  5
2F5
100
AcDbEntity
  8
1
  6
CONTINUOUS
 62
           3
100
AcDbLine
 10
512.460408193442
 20
13929.97602581389
 11
512.460408193442
 21
13917.97602581389
  0
LINE
  5
2F4
100
AcDbEntity
  8
1
  6
CONTINUOUS
 62
           3
100
AcDbLine
 10
510.460408193442
 20
13929.97602581389
 11
510.460408193442
 21
13962.97602581389
  0
LINE
  5
2F3
100
AcDbEntity
  8
1
  6
CONTINUOUS
 62
           3
100
AcDbLine
 10
510.460408193442
 20
13884.97602581389
 11
510.460408193442
 21
13917.97602581389
  0
LINE
  5
2F2
100
AcDbEntity
  8
1
  6
CONTINUOUS
 62
           3
100
AcDbLine
 10
521.960408193442
 20
13928.97602581389
 11
524.460408193442
 21
13928.97602581389
  0
LINE
  5
2F1
100
AcDbEntity
  8
1
  6
CONTINUOUS
 62
           3
100
AcDbLine
 10
524.460408193442
 20
13918.97602581389
 11
524.460408193442
 21
13917.97602581389
  0
LINE
  5
2F0
100
AcDbEntity
  8
1
  6
CONTINUOUS
 62
           3
100
AcDbLine
 10
524.460408193442
 20
13918.97602581389
 11
521.960408193442
 21
13918.97602581389
  0
LINE
  5
2EF
100
AcDbEntity
  8
1
  6
CONTINUOUS
 62
           3
100
AcDbLine
 10
521.960408193442
 20
13918.97602581389
 11
521.960408193442
 21
13928.97602581389
  0
LINE
  5
2EE
100
AcDbEntity
  8
1
  6
CONTINUOUS
 62
           3
100
AcDbLine
 10
509.460408193442
 20
13983.97602581389
 11
509.460408193442
 21
13863.97602581389
  0
LINE
  5
2ED
100
AcDbEntity
  8
1
  6
CONTINUOUS
 62
           3
100
AcDbLine
 10
507.460408193442
 20
13983.97602581389
 11
509.460408193442
 21
13983.97602581389
  0
LINE
  5
2EC
100
AcDbEntity
  8
1
  6
CONTINUOUS
 62
           3
100
AcDbLine
 10
507.460408193442
 20
13863.97602581389
 11
507.460408193442
 21
13983.97602581389
  0
LINE
  5
2EB
100
AcDbEntity
  8
1
  6
DOTTED
 62
           1
100
AcDbLine
 10
507.460408193442
 20
13978.975150948319
 11
509.460408193442
 21
13978.975150948319
  0
LINE
  5
2EA
100
AcDbEntity
  8
1
  6
DOTTED
 62
           1
100
AcDbLine
 10
507.460408193442
 20
13968.97711485535
 11
509.460408193442
 21
13968.97711485535
  0
LINE
  5
2E9
100
AcDbEntity
  8
1
  6
DOT_CENTER
 62
           1
100
AcDbLine
 10
501.68645596188
 20
13973.97602581389
 11
514.960531621348
 21
13973.97602581389
  0
LINE
  5
2E8
100
AcDbEntity
  8
1
  6
DOTTED
 62
           1
100
AcDbLine
 10
509.460408193442
 20
13879.97602581389
 11
507.460408193442
 21
13879.97602581389
  0
LINE
  5
2E7
100
AcDbEntity
  8
1
  6
DOTTED
 62
           1
100
AcDbLine
 10
509.460408193442
 20
13867.97602581389
 11
507.460408193442
 21
13867.97602581389
  0
LINE
  5
2E6
100
AcDbEntity
  8
1
  6
DOT_CENTER
 62
           1
100
AcDbLine
 10
514.124404992002
 20
13873.97602581389
 11
501.68645596188
 21
13873.97602581389
  0
LINE
  5
2E5
100
AcDbEntity
  8
1
  6
DOT_CENTER
 62
           1
100
AcDbLine
 10
514.124404992002
 20
13886.47602581389
 11
501.68645596188
 21
13886.47602581389
  0
LINE
  5
2E4
100
AcDbEntity
  8
1
  6
DOTTED
 62
           1
100
AcDbLine
 10
509.460408193442
 20
13880.47602581389
 11
507.460408193442
 21
13880.47602581389
  0
LINE
  5
2E3
100
AcDbEntity
  8
1
  6
DOTTED
 62
           1
100
AcDbLine
 10
509.460408193442
 20
13892.47602581389
 11
507.460408193442
 21
13892.47602581389
  0
LINE
  5
2E2
100
AcDbEntity
  8
1
  6
DOT_CENTER
 62
           1
100
AcDbLine
 10
501.68645596188
 20
13961.47602581389
 11
514.960531621348
 21
13961.47602581389
  0
LINE
  5
2E1
100
AcDbEntity
  8
1
  6
DOTTED
 62
           1
100
AcDbLine
 10
507.460408193442
 20
13956.47711485535
 11
509.460408193442
 21
13956.47711485535
  0
LINE
  5
2E0
100
AcDbEntity
  8
1
  6
DOTTED
 62
           1
100
AcDbLine
 10
507.460408193442
 20
13966.475150948319
 11
509.460408193442
 21
13966.475150948319
  0
LINE
  5
2DF
100
AcDbEntity
  8
1
  6
DOT_CENTER
 62
           1
100
AcDbLine
 10
539.460408193442
 20
13982.488508746301
 11
539.460408193442
 21
13867.752581569701
  0
LINE
  5
2DE
100
AcDbEntity
  8
1
  6
CONTINUOUS
 62
           3
100
AcDbLine
 10
558.960408193442
 20
13918.97602581389
 11
554.460408193442
 21
13918.97602581389
  0
LINE
  5
2DD
100
AcDbEntity
  8
1
  6
CONTINUOUS
 62
           3
100
AcDbLine
 10
554.460408193442
 20
13918.97602581389
 11
554.460408193442
 21
13917.97602581389
  0
LINE
  5
2DC
100
AcDbEntity
  8
1
  6
CONTINUOUS
 62
           3
100
AcDbLine
 10
558.960408193442
 20
13929.97602581389
 11
509.460408193442
 21
13929.97602581389
  0
LINE
  5
2DB
100
AcDbEntity
  8
1
  6
CONTINUOUS
 62
           3
100
AcDbLine
 10
524.460408193442
 20
13928.97602581389
 11
554.460408193442
 21
13928.97602581389
  0
LINE
  5
2DA
100
AcDbEntity
  8
1
  6
CONTINUOUS
 62
           3
100
AcDbLine
 10
554.460408193442
 20
13929.97602581389
 11
554.460408193442
 21
13928.97602581389
  0
LINE
  5
2D9
100
AcDbEntity
  8
1
  6
CONTINUOUS
 62
           3
100
AcDbLine
 10
554.460408193442
 20
13918.97602581389
 11
524.460408193442
 21
13918.97602581389
  0
LINE
  5
2D8
100
AcDbEntity
  8
1
  6
CONTINUOUS
 62
           3
100
AcDbLine
 10
509.460408193442
 20
13964.97602581389
 11
556.960408193442
 21
13964.97602581389
  0
LINE
  5
2D7
100
AcDbEntity
  8
1
  6
CONTINUOUS
 62
           3
100
AcDbLine
 10
558.960408193442
 20
13962.97602581389
 11
558.960408193442
 21
13929.97602581389
  0
LINE
  5
2D6
100
AcDbEntity
  8
1
  6
CONTINUOUS
 62
           3
100
AcDbLine
 10
509.460408193442
 20
13917.97602581389
 11
558.960408193442
 21
13917.97602581389
  0
LINE
  5
2D5
100
AcDbEntity
  8
1
  6
CONTINUOUS
 62
           3
100
AcDbLine
 10
558.960408193442
 20
13917.97602581389
 11
558.960408193442
 21
13884.97602581389
  0
LINE
  5
2D4
100
AcDbEntity
  8
1
  6
CONTINUOUS
 62
           3
100
AcDbLine
 10
556.960408193442
 20
13882.97602581389
 11
509.460408193442
 21
13882.97602581389
  0
LINE
  5
2D3
100
AcDbEntity
  8
1
  6
CONTINUOUS
 62
           3
100
AcDbLine
 10
560.960408193442
 20
13934.97602581389
 11
560.960408193442
 21
13930.97602581389
  0
LINE
  5
2D2
100
AcDbEntity
  8
1
  6
DOT_CENTER
 62
           1
100
AcDbLine
 10
571.960408193442
 20
13912.97602581389
 11
571.960408193442
 21
13934.97602581389
  0
LINE
  5
2D1
100
AcDbEntity
  8
1
  6
CONTINUOUS
 62
           3
100
AcDbLine
 10
571.960408193442
 20
13934.97602581389
 11
560.960408193442
 21
13934.97602581389
  0
LINE
  5
2D0
100
AcDbEntity
  8
1
  6
CONTINUOUS
 62
           3
100
AcDbLine
 10
560.960408193442
 20
13916.97602581389
 11
560.960408193442
 21
13913.97602581389
  0
LINE
  5
2CF
100
AcDbEntity
  8
1
  6
DOT_CENTER
 62
           1
100
AcDbLine
 10
571.960408193442
 20
13902.41162776511
 11
571.960408193442
 21
13912.97602581389
  0
LINE
  5
2CE
100
AcDbEntity
  8
1
  6
CONTINUOUS
 62
           3
100
AcDbLine
 10
561.960408193442
 20
13912.97602581389
 11
571.960408193442
 21
13912.97602581389
  0
LINE
  5
2CD
100
AcDbEntity
  8
1
  6
CONTINUOUS
 62
           3
100
AcDbLine
 10
554.460408193442
 20
13928.97602581389
 11
558.960408193442
 21
13928.97602581389
  0
LINE
  5
2CC
100
AcDbEntity
  8
1
  6
CONTINUOUS
 62
           3
100
AcDbLine
 10
559.960408193442
 20
13927.97602581389
 11
559.960408193442
 21
13919.97602581389
  0
LINE
  5
2CB
100
AcDbEntity
  8
1
  6
CONTINUOUS
 62
           3
100
AcDbLine
 10
706.960408193442
 20
13912.97602581389
 11
536.960408193442
 21
13912.97602581389
  0
LINE
  5
2CA
100
AcDbEntity
  8
1
  6
CONTINUOUS
 62
           3
100
AcDbLine
 10
706.960408193442
 20
13934.97602581389
 11
536.960408193442
 21
13934.97602581389
  0
LINE
  5
2C9
100
AcDbEntity
  8
1
  6
DOT_CENTER
 62
           1
100
AcDbLine
 10
571.960408193442
 20
13934.97602581389
 11
571.960408193442
 21
13945.3516277651
  0
LINE
  5
2C8
100
AcDbEntity
  8
1
  6
DOT_CENTER
 62
           1
100
AcDbLine
 10
706.960408193442
 20
13944.842723340451
 11
706.960408193442
 21
13902.662723340451
  0
LINE
  5
2C7
100
AcDbEntity
  8
1
  6
CONTINUOUS
 62
           3
100
AcDbLine
 10
796.03
 20
13934.97602581389
 11
706.960408193442
 21
13934.97602581389
  0
LINE
  5
2C6
100
AcDbEntity
  8
1
  6
CONTINUOUS
 62
           3
100
AcDbLine
 10
796.03
 20
13912.97602581389
 11
706.960408193442
 21
13912.97602581389
  0
LINE
  5
2C5
100
AcDbEntity
  8
1
  6
CONTINUOUS
 62
           3
100
AcDbLine
 10
892.460408193442
 20
13674.991467022401
 11
892.460408193442
 21
13574.991467022401
  0
LINE
  5
2C4
100
AcDbEntity
  8
1
  6
CONTINUOUS
 62
           3
100
AcDbLine
 10
892.460408193442
 20
13574.991467022401
 11
892.460408193442
 21
13457.491467022401
  0
LINE
  5
2C3
100
AcDbEntity
  8
1
  6
DOTTED
 62
           1
100
AcDbLine
 10
892.460408193442
 20
13574.991467022401
 11
899.460408193442
 21
13574.991467022401
  0
LINE
  5
2C2
100
AcDbEntity
  8
1
  6
CONTINUOUS
 62
           3
100
AcDbLine
 10
892.460408193442
 20
13674.991467022401
 11
890.460408193442
 21
13674.991467022401
  0
LINE
  5
2C1
100
AcDbEntity
  8
1
  6
CONTINUOUS
 62
           3
100
AcDbLine
 10
1000.288934451672
 20
13717.491467022401
 11
1000.288934451672
 21
13405.491467022401
  0
LINE
  5
2C0
100
AcDbEntity
  8
1
  6
CONTINUOUS
 62
           3
100
AcDbLine
 10
1000.288934451672
 20
13405.491467022401
 11
1006.76515270615
 21
13405.491467022401
  0
LINE
  5
2BF
100
AcDbEntity
  8
1
  6
CONTINUOUS
 62
           1
100
AcDbLine
 10
974.288934451672
 20
13674.991467022401
 11
974.288934451672
 21
13682.861467022391
  0
LINE
  5
2BE
100
AcDbEntity
  8
1
  6
CONTINUOUS
 62
           1
100
AcDbLine
 10
986.288934451672
 20
13674.991467022401
 11
986.288934451672
 21
13682.861467022391
  0
LINE
  5
2BD
100
AcDbEntity
  8
1
  6
DOT_CENTER
 62
           1
100
AcDbLine
 10
1067.788934451672
 20
13653.51186935953
 11
1067.788934451672
 21
13671.16272631838
  0
LINE
  5
2BC
100
AcDbEntity
  8
1
  6
DOT_CENTER
 62
           1
100
AcDbLine
 10
1071.376378522505
 20
13674.991467022401
 11
1088.484132190301
 21
13674.991467022401
  0
LINE
  5
2BB
100
AcDbEntity
  8
1
  6
DOT_CENTER
 62
           1
100
AcDbLine
 10
1080.288934451672
 20
13666.003245053491
 11
1080.288934451672
 21
13682.386860999881
  0
LINE
  5
2BA
100
AcDbEntity
  8
1
  6
DOT_CENTER
 62
           1
100
AcDbLine
 10
992.788934451672
 20
13578.38324115626
 11
992.788934451672
 21
13595.961372905769
  0
LINE
  5
2B9
100
AcDbEntity
  8
1
  6
DOT_CENTER
 62
           1
100
AcDbLine
 10
980.288934451672
 20
13567.37904485778
 11
980.288934451672
 21
13582.24185544274
  0
LINE
  5
2B8
100
AcDbEntity
  8
1
  6
DOT_CENTER
 62
           1
100
AcDbLine
 10
972.357560168306
 20
13574.991467022401
 11
988.649487155654
 21
13574.991467022401
  0
LINE
  5
2B7
100
AcDbEntity
  8
1
  6
DOT_CENTER
 62
           1
100
AcDbLine
 10
985.291063610017
 20
13587.491467022401
 11
1001.440078957125
 21
13587.491467022401
  0
LINE
  5
2B6
100
AcDbEntity
  8
1
  6
DOT_CENTER
 62
           1
100
AcDbLine
 10
1060.981624644512
 20
13587.491467022401
 11
1074.022764068431
 21
13587.491467022401
  0
LINE
  5
2B5
100
AcDbEntity
  8
1
  6
DOT_CENTER
 62
           1
100
AcDbLine
 10
1063.261346593391
 20
13590.8914670224
 11
1072.630396569301
 21
13590.8914670224
  0
LINE
  5
2B4
100
AcDbEntity
  8
1
  6
DOT_CENTER
 62
           1
100
AcDbLine
 10
1062.998171032271
 20
13584.091467022399
 11
1072.683031681522
 21
13584.091467022399
  0
LINE
  5
2B3
100
AcDbEntity
  8
1
  6
DOT_CENTER
 62
           1
100
AcDbLine
 10
1067.788934451672
 20
13596.31576239551
 11
1067.788934451673
 21
13578.946175361531
  0
LINE
  5
2B2
100
AcDbEntity
  8
1
  6
CONTINUOUS
 62
           3
100
AcDbLine
 10
1065.188934451673
 20
13584.091467022399
 11
1065.188934451672
 21
13590.8914670224
  0
LINE
  5
2B1
100
AcDbEntity
  8
1
  6
CONTINUOUS
 62
           3
100
AcDbLine
 10
1070.388934451672
 20
13590.8914670224
 11
1070.388934451673
 21
13584.091467022399
  0
LINE
  5
2B0
100
AcDbEntity
  8
1
  6
CONTINUOUS
 62
           3
100
AcDbLine
 10
1082.888934451672
 20
13578.3914670224
 11
1082.888934451673
 21
13571.591467022399
  0
LINE
  5
2AF
100
AcDbEntity
  8
1
  6
CONTINUOUS
 62
           3
100
AcDbLine
 10
1077.688934451672
 20
13571.591467022399
 11
1077.688934451672
 21
13578.3914670224
  0
LINE
  5
2AE
100
AcDbEntity
  8
1
  6
DOT_CENTER
 62
           1
100
AcDbLine
 10
1080.288934451672
 20
13583.81576239551
 11
1080.288934451673
 21
13566.446175361531
  0
LINE
  5
2AD
100
AcDbEntity
  8
1
  6
DOT_CENTER
 62
           1
100
AcDbLine
 10
1075.498171032271
 20
13571.591467022399
 11
1085.183031681522
 21
13571.591467022399
  0
LINE
  5
2AC
100
AcDbEntity
  8
1
  6
DOT_CENTER
 62
           1
100
AcDbLine
 10
1075.761346593391
 20
13578.3914670224
 11
1085.130396569301
 21
13578.3914670224
  0
LINE
  5
2AB
100
AcDbEntity
  8
1
  6
DOT_CENTER
 62
           1
100
AcDbLine
 10
1073.481624644512
 20
13574.991467022401
 11
1086.522764068431
 21
13574.991467022401
  0
LINE
  5
2AA
100
AcDbEntity
  8
1
  6
CONTINUOUS
 62
           3
100
AcDbLine
 10
989.388934451672
 20
13665.091467022399
 11
996.188934451672
 21
13665.091467022399
  0
LINE
  5
2A9
100
AcDbEntity
  8
1
  6
CONTINUOUS
 62
           3
100
AcDbLine
 10
996.188934451672
 20
13659.8914670224
 11
989.388934451672
 21
13659.8914670224
  0
LINE
  5
2A8
100
AcDbEntity
  8
1
  6
DOT_CENTER
 62
           1
100
AcDbLine
 10
983.964639078557
 20
13662.491467022401
 11
1001.33422611254
 21
13662.491467022401
  0
LINE
  5
2A7
100
AcDbEntity
  8
1
  6
DOT_CENTER
 62
           1
100
AcDbLine
 10
996.188934451672
 20
13657.700703603001
 11
996.188934451672
 21
13667.38556425225
  0
LINE
  5
2A6
100
AcDbEntity
  8
1
  6
DOT_CENTER
 62
           1
100
AcDbLine
 10
989.388934451672
 20
13657.96387916411
 11
989.388934451672
 21
13667.33292914002
  0
LINE
  5
2A5
100
AcDbEntity
  8
1
  6
DOT_CENTER
 62
           1
100
AcDbLine
 10
992.788934451672
 20
13655.684157215241
 11
992.788934451672
 21
13668.725296639161
  0
LINE
  5
2A4
100
AcDbEntity
  8
1
  6
DOT_CENTER
 62
           1
100
AcDbLine
 10
1062.975439525391
 20
13657.67797209612
 11
1072.196917646444
 21
13666.899450217161
  0
LINE
  5
2A3
100
AcDbEntity
  8
1
  6
DOT_CENTER
 62
           1
100
AcDbLine
 10
1062.18328331863
 20
13661.69414200143
 11
1068.808202089871
 21
13668.31906077267
  0
LINE
  5
2A2
100
AcDbEntity
  8
1
  6
DOT_CENTER
 62
           1
100
AcDbLine
 10
1066.805516206787
 20
13656.69972266544
 11
1073.653746846719
 21
13663.54795330538
  0
LINE
  5
2A1
100
AcDbEntity
  8
1
  6
DOT_CENTER
 62
           1
100
AcDbLine
 10
1061.54921535415
 20
13668.73118611993
 11
1073.831368132289
 21
13656.449033341771
  0
LINE
  5
2A0
100
AcDbEntity
  8
1
  6
CONTINUOUS
 62
           3
100
AcDbLine
 10
1068.354619876622
 20
13658.24882633527
 11
1063.546293764553
 21
13663.05715244734
  0
LINE
  5
29F
100
AcDbEntity
  8
1
  6
CONTINUOUS
 62
           3
100
AcDbLine
 10
1067.223249026723
 20
13666.73410770951
 11
1072.031575138791
 21
13661.92578159744
  0
LINE
  5
29E
100
AcDbEntity
  8
1
  6
CONTINUOUS
 62
           3
100
AcDbLine
 10
1079.723249026723
 20
13679.23410770951
 11
1084.531575138791
 21
13674.42578159744
  0
LINE
  5
29D
100
AcDbEntity
  8
1
  6
CONTINUOUS
 62
           3
100
AcDbLine
 10
1080.854619876622
 20
13670.74882633527
 11
1076.046293764553
 21
13675.55715244734
  0
LINE
  5
29C
100
AcDbEntity
  8
1
  6
DOT_CENTER
 62
           1
100
AcDbLine
 10
1074.04921535415
 20
13681.23118611993
 11
1086.331368132289
 21
13668.949033341771
  0
LINE
  5
29B
100
AcDbEntity
  8
1
  6
DOT_CENTER
 62
           1
100
AcDbLine
 10
1079.305516206787
 20
13669.19972266544
 11
1086.153746846719
 21
13676.04795330538
  0
LINE
  5
29A
100
AcDbEntity
  8
1
  6
DOT_CENTER
 62
           1
100
AcDbLine
 10
1074.68328331863
 20
13674.19414200143
 11
1081.308202089871
 21
13680.81906077267
  0
LINE
  5
299
100
AcDbEntity
  8
1
  6
DOT_CENTER
 62
           1
100
AcDbLine
 10
1075.475439525391
 20
13670.17797209612
 11
1084.696917646444
 21
13679.399450217161
  0
LINE
  5
298
100
AcDbEntity
  8
1
  6
DOT_CENTER
 62
           1
100
AcDbLine
 10
980.288934451672
 20
13668.184157215241
 11
980.288934451672
 21
13681.225296639161
  0
LINE
  5
297
100
AcDbEntity
  8
1
  6
DOT_CENTER
 62
           1
100
AcDbLine
 10
976.888934451672
 20
13670.46387916411
 11
976.888934451672
 21
13679.83292914002
  0
LINE
  5
296
100
AcDbEntity
  8
1
  6
DOT_CENTER
 62
           1
100
AcDbLine
 10
983.688934451672
 20
13670.200703603001
 11
983.688934451672
 21
13679.88556425225
  0
LINE
  5
295
100
AcDbEntity
  8
1
  6
DOT_CENTER
 62
           1
100
AcDbLine
 10
971.464639078557
 20
13674.991467022401
 11
988.83422611254
 21
13674.991467022401
  0
LINE
  5
294
100
AcDbEntity
  8
1
  6
CONTINUOUS
 62
           3
100
AcDbLine
 10
983.688934451672
 20
13672.3914670224
 11
976.888934451672
 21
13672.3914670224
  0
LINE
  5
293
100
AcDbEntity
  8
1
  6
CONTINUOUS
 62
           3
100
AcDbLine
 10
976.888934451672
 20
13677.591467022399
 11
983.688934451672
 21
13677.591467022399
  0
LINE
  5
292
100
AcDbEntity
  8
1
  6
CONTINUOUS
 62
           3
100
AcDbLine
 10
972.03813491355
 20
13669.341307114781
 11
998.539733989795
 21
13630.64162693003
  0
LINE
  5
291
100
AcDbEntity
  8
1
  6
CONTINUOUS
 62
           3
100
AcDbLine
 10
998.539733989794
 20
13619.341307114781
 11
972.03813491355
 21
13580.64162693003
  0
LINE
  5
290
100
AcDbEntity
  8
1
  6
CONTINUOUS
 62
           3
100
AcDbLine
 10
1060.288934451672
 20
13576.56745951771
 11
1074.638774544048
 21
13566.74066748427
  0
LINE
  5
28F
100
AcDbEntity
  8
1
  6
CONTINUOUS
 62
           3
100
AcDbLine
 10
1088.539733989795
 20
13580.64162693003
 11
1062.03813491355
 21
13619.341307114781
  0
LINE
  5
28E
100
AcDbEntity
  8
1
  6
CONTINUOUS
 62
           3
100
AcDbLine
 10
1062.038134913551
 20
13630.64162693003
 11
1088.539733989794
 21
13669.341307114781
  0
LINE
  5
28D
100
AcDbEntity
  8
1
  6
CONTINUOUS
 62
           3
100
AcDbLine
 10
1000.288934451672
 20
13673.41547452707
 11
985.939094359296
 21
13683.24226656051
  0
LINE
  5
28C
100
AcDbEntity
  8
1
  6
CONTINUOUS
 62
           3
100
AcDbLine
 10
1074.638774544048
 20
13683.24226656051
 11
1060.288934451672
 21
13673.41547452707
  0
LINE
  5
28B
100
AcDbEntity
  8
1
  6
CONTINUOUS
 62
           3
100
AcDbLine
 10
985.939094359297
 20
13566.74066748427
 11
1000.288934451672
 21
13576.56745951771
  0
LINE
  5
28A
100
AcDbEntity
  8
1
  6
DOT_CENTER
 62
           1
100
AcDbLine
 10
1030.288934451672
 20
13398.64300266895
 11
1030.288934451672
 21
13730.87389392966
  0
LINE
  5
289
100
AcDbEntity
  8
1
  6
DOT_CENTER
 62
           1
100
AcDbLine
 10
490.65563060439
 20
13923.97602581389
 11
915.513281138961
 21
13923.97602581389
  0
LINE
  5
288
100
AcDbEntity
  8
1
  6
DOT_CENTER
 62
           1
100
AcDbLine
 10
783.453010305834
 20
13923.97602581389
 11
911.144742246519
 21
13923.97602581389
  0
LINE
  5
287
100
AcDbEntity
  8
1
  6
DOT_CENTER
 62
           1
100
AcDbLine
 10
331.304320953132
 20
13624.991467022401
 11
441.278435083681
 21
13624.991467022401
  0
LINE
  5
286
100
AcDbEntity
  8
1
  6
CONTINUOUS
 62
           3
100
AcDbLine
 10
417.0075370422
 20
13673.41547452707
 11
417.0075370422
 21
13717.491467022401
  0
LINE
  5
285
100
AcDbEntity
  8
1
  6
CONTINUOUS
 62
           3
100
AcDbLine
 10
414.0075370422
 20
13671.36107002427
 11
414.0075370422
 21
13717.491467022401
  0
LINE
  5
284
100
AcDbEntity
  8
1
  6
CONTINUOUS
 62
           3
100
AcDbLine
 10
417.0075370422
 20
13576.56745951771
 11
431.357377134575
 21
13566.74066748427
  0
LINE
  5
283
100
AcDbEntity
  8
1
  6
DOTTED
 62
           1
100
AcDbLine
 10
417.0075370422
 20
13576.56745951771
 11
417.0075370422
 21
13673.41547452707
  0
LINE
  5
282
100
AcDbEntity
  8
1
  6
CONTINUOUS
 62
           3
100
AcDbLine
 10
414.0075370422
 20
13578.621864020521
 11
417.0075370422
 21
13576.56745951771
  0
LINE
  5
281
100
AcDbEntity
  8
1
  6
DOTTED
 62
           1
100
AcDbLine
 10
414.0075370422
 20
13578.621864020521
 11
414.0075370422
 21
13671.36107002427
  0
LINE
  5
280
100
AcDbEntity
  8
1
  6
CONTINUOUS
 62
           3
100
AcDbLine
 10
360.0075370422
 20
13578.621864020521
 11
381.357377134575
 21
13593.24226656051
  0
LINE
  5
27F
100
AcDbEntity
  8
1
  6
CONTINUOUS
 62
           3
100
AcDbLine
 10
360.0075370422
 20
13578.621864020521
 11
360.0075370422
 21
13408.967685276881
  0
LINE
  5
27E
100
AcDbEntity
  8
1
  6
CONTINUOUS
 62
           3
100
AcDbLine
 10
357.0075370422
 20
13576.56745951771
 11
357.0075370422
 21
13405.491467022401
  0
LINE
  5
27D
100
AcDbEntity
  8
1
  6
CONTINUOUS
 62
           3
100
AcDbLine
 10
357.0075370422
 20
13576.56745951771
 11
360.0075370422
 21
13578.621864020521
  0
LINE
  5
27C
100
AcDbEntity
  8
1
  6
DOTTED
 62
           1
100
AcDbLine
 10
360.0075370422
 20
13671.36107002427
 11
360.0075370422
 21
13578.621864020521
  0
LINE
  5
27B
100
AcDbEntity
  8
1
  6
DOTTED
 62
           1
100
AcDbLine
 10
357.0075370422
 20
13673.41547452707
 11
357.0075370422
 21
13576.56745951771
  0
LINE
  5
27A
100
AcDbEntity
  8
1
  6
DOT_CENTER
 62
           1
100
AcDbLine
 10
366.765639801146
 20
13679.991467022401
 11
406.524414752772
 21
13679.991467022401
  0
LINE
  5
279
100
AcDbEntity
  8
1
  6
DOT_CENTER
 62
           1
100
AcDbLine
 10
366.765639801146
 20
13652.491467022401
 11
406.524414752772
 21
13652.491467022401
  0
LINE
  5
278
100
AcDbEntity
  8
1
  6
DOT_CENTER
 62
           1
100
AcDbLine
 10
366.765639801146
 20
13597.491467022401
 11
406.524414752772
 21
13597.491467022401
  0
LINE
  5
277
100
AcDbEntity
  8
1
  6
DOT_CENTER
 62
           1
100
AcDbLine
 10
366.765639801146
 20
13569.991467022401
 11
406.524414752772
 21
13569.991467022401
  0
LINE
  5
276
100
AcDbEntity
  8
1
  6
CONTINUOUS
 62
           3
100
AcDbLine
 10
414.0075370422
 20
13717.491467022401
 11
360.0075370422
 21
13717.491467022401
  0
LINE
  5
275
100
AcDbEntity
  8
1
  6
CONTINUOUS
 62
           3
100
AcDbLine
 10
360.0075370422
 20
13717.491467022401
 11
357.0075370422
 21
13717.491467022401
  0
LINE
  5
274
100
AcDbEntity
  8
1
  6
CONTINUOUS
 62
           3
100
AcDbLine
 10
381.357377134575
 20
13656.74066748427
 11
342.657696949823
 21
13683.242266560521
  0
LINE
  5
273
100
AcDbEntity
  8
1
  6
CONTINUOUS
 62
           3
100
AcDbLine
 10
328.756737504078
 20
13669.341307114781
 11
355.258336580321
 21
13630.64162693003
  0
LINE
  5
272
100
AcDbEntity
  8
1
  6
CONTINUOUS
 62
           3
100
AcDbLine
 10
355.258336580322
 20
13619.341307114781
 11
328.756737504078
 21
13580.64162693003
  0
LINE
  5
271
100
AcDbEntity
  8
1
  6
CONTINUOUS
 62
           3
100
AcDbLine
 10
342.657696949824
 20
13566.74066748427
 11
357.0075370422
 21
13576.56745951771
  0
LINE
  5
270
100
AcDbEntity
  8
1
  6
CONTINUOUS
 62
           3
100
AcDbLine
 10
392.657696949825
 20
13593.24226656051
 11
414.0075370422
 21
13578.621864020521
  0
LINE
  5
26F
100
AcDbEntity
  8
1
  6
CONTINUOUS
 62
           3
100
AcDbLine
 10
445.258336580322
 20
13580.64162693003
 11
418.756737504078
 21
13619.341307114781
  0
LINE
  5
26E
100
AcDbEntity
  8
1
  6
CONTINUOUS
 62
           3
100
AcDbLine
 10
418.756737504078
 20
13630.64162693003
 11
445.258336580322
 21
13669.341307114781
  0
LINE
  5
26D
100
AcDbEntity
  8
1
  6
CONTINUOUS
 62
           3
100
AcDbLine
 10
433.6075370422
 20
13677.591467022399
 11
440.4075370422
 21
13677.591467022399
  0
LINE
  5
26C
100
AcDbEntity
  8
1
  6
CONTINUOUS
 62
           3
100
AcDbLine
 10
440.4075370422
 20
13672.3914670224
 11
433.6075370422
 21
13672.3914670224
  0
LINE
  5
26B
100
AcDbEntity
  8
1
  6
DOT_CENTER
 62
           1
100
AcDbLine
 10
428.462245381332
 20
13674.991467022401
 11
445.831832415315
 21
13674.991467022401
  0
LINE
  5
26A
100
AcDbEntity
  8
1
  6
DOT_CENTER
 62
           1
100
AcDbLine
 10
433.6075370422
 20
13679.88556425225
 11
433.6075370422
 21
13670.200703603001
  0
LINE
  5
269
100
AcDbEntity
  8
1
  6
DOT_CENTER
 62
           1
100
AcDbLine
 10
440.4075370422
 20
13679.83292914002
 11
440.4075370422
 21
13670.46387916411
  0
LINE
  5
268
100
AcDbEntity
  8
1
  6
DOT_CENTER
 62
           1
100
AcDbLine
 10
437.0075370422
 20
13681.225296639161
 11
437.0075370422
 21
13668.184157215241
  0
LINE
  5
267
100
AcDbEntity
  8
1
  6
DOT_CENTER
 62
           1
100
AcDbLine
 10
332.599553847428
 20
13679.399450217161
 11
341.821031968481
 21
13670.17797209612
  0
LINE
  5
266
100
AcDbEntity
  8
1
  6
DOT_CENTER
 62
           1
100
AcDbLine
 10
335.988269404001
 20
13680.81906077267
 11
342.613188175242
 21
13674.19414200143
  0
LINE
  5
265
100
AcDbEntity
  8
1
  6
DOT_CENTER
 62
           1
100
AcDbLine
 10
331.142724647153
 20
13676.04795330538
 11
337.990955287085
 21
13669.19972266544
  0
LINE
  5
264
100
AcDbEntity
  8
1
  6
DOT_CENTER
 62
           1
100
AcDbLine
 10
330.965103361583
 20
13668.949033341771
 11
343.247256139722
 21
13681.23118611993
  0
LINE
  5
263
100
AcDbEntity
  8
1
  6
CONTINUOUS
 62
           3
100
AcDbLine
 10
341.250177729319
 20
13675.55715244734
 11
336.44185161725
 21
13670.74882633527
  0
LINE
  5
262
100
AcDbEntity
  8
1
  6
CONTINUOUS
 62
           3
100
AcDbLine
 10
332.764896355081
 20
13674.42578159744
 11
337.573222467149
 21
13679.23410770951
  0
LINE
  5
261
100
AcDbEntity
  8
1
  6
CONTINUOUS
 62
           3
100
AcDbLine
 10
345.264896355081
 20
13661.92578159744
 11
350.073222467149
 21
13666.73410770951
  0
LINE
  5
260
100
AcDbEntity
  8
1
  6
CONTINUOUS
 62
           3
100
AcDbLine
 10
353.750177729319
 20
13663.05715244734
 11
348.94185161725
 21
13658.24882633527
  0
LINE
  5
25F
100
AcDbEntity
  8
1
  6
DOT_CENTER
 62
           1
100
AcDbLine
 10
343.465103361583
 20
13656.449033341771
 11
355.747256139722
 21
13668.73118611993
  0
LINE
  5
25E
100
AcDbEntity
  8
1
  6
DOT_CENTER
 62
           1
100
AcDbLine
 10
343.642724647153
 20
13663.54795330538
 11
350.490955287085
 21
13656.69972266544
  0
LINE
  5
25D
100
AcDbEntity
  8
1
  6
DOT_CENTER
 62
           1
100
AcDbLine
 10
348.488269404001
 20
13668.31906077267
 11
355.113188175242
 21
13661.69414200143
  0
LINE
  5
25C
100
AcDbEntity
  8
1
  6
DOT_CENTER
 62
           1
100
AcDbLine
 10
345.099553847428
 20
13666.899450217161
 11
354.321031968481
 21
13657.67797209612
  0
LINE
  5
25B
100
AcDbEntity
  8
1
  6
DOT_CENTER
 62
           1
100
AcDbLine
 10
424.5075370422
 20
13668.725296639161
 11
424.5075370422
 21
13655.684157215241
  0
LINE
  5
25A
100
AcDbEntity
  8
1
  6
DOT_CENTER
 62
           1
100
AcDbLine
 10
427.9075370422
 20
13667.33292914002
 11
427.9075370422
 21
13657.96387916411
  0
LINE
  5
259
100
AcDbEntity
  8
1
  6
DOT_CENTER
 62
           1
100
AcDbLine
 10
421.1075370422
 20
13667.38556425225
 11
421.1075370422
 21
13657.700703603001
  0
LINE
  5
258
100
AcDbEntity
  8
1
  6
DOT_CENTER
 62
           1
100
AcDbLine
 10
415.962245381332
 20
13662.491467022401
 11
433.331832415315
 21
13662.491467022401
  0
LINE
  5
257
100
AcDbEntity
  8
1
  6
CONTINUOUS
 62
           3
100
AcDbLine
 10
427.9075370422
 20
13659.8914670224
 11
421.1075370422
 21
13659.8914670224
  0
LINE
  5
256
100
AcDbEntity
  8
1
  6
CONTINUOUS
 62
           3
100
AcDbLine
 10
421.1075370422
 20
13665.091467022399
 11
427.9075370422
 21
13665.091467022399
  0
LINE
  5
255
100
AcDbEntity
  8
1
  6
DOT_CENTER
 62
           1
100
AcDbLine
 10
330.773707425441
 20
13574.991467022401
 11
343.81484684936
 21
13574.991467022401
  0
LINE
  5
254
100
AcDbEntity
  8
1
  6
DOT_CENTER
 62
           1
100
AcDbLine
 10
332.166074924571
 20
13578.3914670224
 11
341.535124900481
 21
13578.3914670224
  0
LINE
  5
253
100
AcDbEntity
  8
1
  6
DOT_CENTER
 62
           1
100
AcDbLine
 10
332.11343981235
 20
13571.591467022399
 11
341.798300461601
 21
13571.591467022399
  0
LINE
  5
252
100
AcDbEntity
  8
1
  6
DOT_CENTER
 62
           1
100
AcDbLine
 10
337.007537042199
 20
13566.446175361531
 11
337.0075370422
 21
13583.81576239551
  0
LINE
  5
251
100
AcDbEntity
  8
1
  6
CONTINUOUS
 62
           3
100
AcDbLine
 10
339.6075370422
 20
13578.3914670224
 11
339.6075370422
 21
13571.591467022399
  0
LINE
  5
250
100
AcDbEntity
  8
1
  6
CONTINUOUS
 62
           3
100
AcDbLine
 10
334.407537042199
 20
13571.591467022399
 11
334.4075370422
 21
13578.3914670224
  0
LINE
  5
24F
100
AcDbEntity
  8
1
  6
CONTINUOUS
 62
           3
100
AcDbLine
 10
346.907537042199
 20
13584.091467022399
 11
346.9075370422
 21
13590.8914670224
  0
LINE
  5
24E
100
AcDbEntity
  8
1
  6
CONTINUOUS
 62
           3
100
AcDbLine
 10
352.1075370422
 20
13590.8914670224
 11
352.107537042199
 21
13584.091467022399
  0
LINE
  5
24D
100
AcDbEntity
  8
1
  6
DOT_CENTER
 62
           1
100
AcDbLine
 10
349.507537042199
 20
13578.946175361531
 11
349.5075370422
 21
13596.31576239551
  0
LINE
  5
24C
100
AcDbEntity
  8
1
  6
DOT_CENTER
 62
           1
100
AcDbLine
 10
344.61343981235
 20
13584.091467022399
 11
354.298300461601
 21
13584.091467022399
  0
LINE
  5
24B
100
AcDbEntity
  8
1
  6
DOT_CENTER
 62
           1
100
AcDbLine
 10
344.666074924571
 20
13590.8914670224
 11
354.035124900481
 21
13590.8914670224
  0
LINE
  5
24A
100
AcDbEntity
  8
1
  6
DOT_CENTER
 62
           1
100
AcDbLine
 10
343.273707425441
 20
13587.491467022401
 11
356.31484684936
 21
13587.491467022401
  0
LINE
  5
249
100
AcDbEntity
  8
1
  6
DOT_CENTER
 62
           1
100
AcDbLine
 10
415.856392536747
 20
13587.491467022401
 11
432.005407883855
 21
13587.491467022401
  0
LINE
  5
248
100
AcDbEntity
  8
1
  6
DOT_CENTER
 62
           1
100
AcDbLine
 10
428.646984338218
 20
13574.991467022401
 11
444.938911325566
 21
13574.991467022401
  0
LINE
  5
247
100
AcDbEntity
  8
1
  6
DOT_CENTER
 62
           1
100
AcDbLine
 10
437.0075370422
 20
13582.24185544274
 11
437.0075370422
 21
13567.37904485778
  0
LINE
  5
246
100
AcDbEntity
  8
1
  6
DOT_CENTER
 62
           1
100
AcDbLine
 10
424.5075370422
 20
13595.961372905769
 11
424.5075370422
 21
13578.38324115626
  0
LINE
  5
245
100
AcDbEntity
  8
1
  6
DOT_CENTER
 62
           1
100
AcDbLine
 10
337.0075370422
 20
13682.386860999881
 11
337.0075370422
 21
13666.003245053491
  0
LINE
  5
244
100
AcDbEntity
  8
1
  6
DOT_CENTER
 62
           1
100
AcDbLine
 10
328.812339303571
 20
13674.991467022401
 11
345.920092971367
 21
13674.991467022401
  0
LINE
  5
243
100
AcDbEntity
  8
1
  6
DOT_CENTER
 62
           1
100
AcDbLine
 10
339.221819048526
 20
13662.491467022401
 11
358.501985880486
 21
13662.491467022401
  0
LINE
  5
242
100
AcDbEntity
  8
1
  6
DOT_CENTER
 62
           1
100
AcDbLine
 10
349.5075370422
 20
13671.16272631838
 11
349.5075370422
 21
13653.51186935953
  0
LINE
  5
241
100
AcDbEntity
  8
1
  6
CONTINUOUS
 62
           6
100
AcDbLine
 10
377.5075370422
 20
13636.491467022401
 11
377.5075370422
 21
13635.491467022401
  0
LINE
  5
240
100
AcDbEntity
  8
1
  6
CONTINUOUS
 62
           6
100
AcDbLine
 10
376.0075370422
 20
13636.991467022401
 11
375.0075370422
 21
13636.991467022401
  0
LINE
  5
23F
100
AcDbEntity
  8
1
  6
CONTINUOUS
 62
           6
100
AcDbLine
 10
378.0075370422
 20
13637.991467022401
 11
379.0075370422
 21
13637.991467022401
  0
LINE
  5
23E
100
AcDbEntity
  8
1
  6
CONTINUOUS
 62
           6
100
AcDbLine
 10
376.5075370422
 20
13638.491467022401
 11
376.5075370422
 21
13639.491467022401
  0
LINE
  5
23D
100
AcDbEntity
  8
1
  6
CONTINUOUS
 62
           6
100
AcDbLine
 10
375.0075370422
 20
13636.991467022401
 11
375.0075370422
 21
13637.991467022401
  0
LINE
  5
23C
100
AcDbEntity
  8
1
  6
CONTINUOUS
 62
           6
100
AcDbLine
 10
379.0075370422
 20
13636.991467022401
 11
378.0075370422
 21
13636.991467022401
  0
LINE
  5
23B
100
AcDbEntity
  8
1
  6
CONTINUOUS
 62
           6
100
AcDbLine
 10
379.0075370422
 20
13637.991467022401
 11
379.0075370422
 21
13636.991467022401
  0
LINE
  5
23A
100
AcDbEntity
  8
1
  6
CONTINUOUS
 62
           6
100
AcDbLine
 10
375.0075370422
 20
13637.991467022401
 11
376.0075370422
 21
13637.991467022401
  0
LINE
  5
239
100
AcDbEntity
  8
1
  6
CONTINUOUS
 62
           6
100
AcDbLine
 10
376.5075370422
 20
13635.491467022401
 11
376.5075370422
 21
13636.491467022401
  0
LINE
  5
238
100
AcDbEntity
  8
1
  6
CONTINUOUS
 62
           6
100
AcDbLine
 10
377.5075370422
 20
13635.491467022401
 11
376.5075370422
 21
13635.491467022401
  0
LINE
  5
237
100
AcDbEntity
  8
1
  6
CONTINUOUS
 62
           6
100
AcDbLine
 10
377.5075370422
 20
13639.491467022401
 11
377.5075370422
 21
13638.491467022401
  0
LINE
  5
236
100
AcDbEntity
  8
1
  6
CONTINUOUS
 62
           6
100
AcDbLine
 10
376.5075370422
 20
13639.491467022401
 11
377.5075370422
 21
13639.491467022401
  0
LINE
  5
235
100
AcDbEntity
  8
1
  6
CONTINUOUS
 62
           6
100
AcDbLine
 10
396.5075370422
 20
13639.491467022401
 11
397.5075370422
 21
13639.491467022401
  0
LINE
  5
234
100
AcDbEntity
  8
1
  6
CONTINUOUS
 62
           6
100
AcDbLine
 10
396.5075370422
 20
13638.491467022401
 11
396.5075370422
 21
13639.491467022401
  0
LINE
  5
233
100
AcDbEntity
  8
1
  6
CONTINUOUS
 62
           6
100
AcDbLine
 10
397.5075370422
 20
13635.491467022401
 11
396.5075370422
 21
13635.491467022401
  0
LINE
  5
232
100
AcDbEntity
  8
1
  6
CONTINUOUS
 62
           6
100
AcDbLine
 10
397.5075370422
 20
13636.491467022401
 11
397.5075370422
 21
13635.491467022401
  0
LINE
  5
231
100
AcDbEntity
  8
1
  6
CONTINUOUS
 62
           6
100
AcDbLine
 10
398.0075370422
 20
13637.991467022401
 11
399.0075370422
 21
13637.991467022401
  0
LINE
  5
230
100
AcDbEntity
  8
1
  6
CONTINUOUS
 62
           6
100
AcDbLine
 10
395.0075370422
 20
13636.991467022401
 11
395.0075370422
 21
13637.991467022401
  0
LINE
  5
22F
100
AcDbEntity
  8
1
  6
CONTINUOUS
 62
           6
100
AcDbLine
 10
396.0075370422
 20
13636.991467022401
 11
395.0075370422
 21
13636.991467022401
  0
LINE
  5
22E
100
AcDbEntity
  8
1
  6
CONTINUOUS
 62
           6
100
AcDbLine
 10
399.0075370422
 20
13637.991467022401
 11
399.0075370422
 21
13636.991467022401
  0
LINE
  5
22D
100
AcDbEntity
  8
1
  6
CONTINUOUS
 62
           6
100
AcDbLine
 10
397.5075370422
 20
13639.491467022401
 11
397.5075370422
 21
13638.491467022401
  0
LINE
  5
22C
100
AcDbEntity
  8
1
  6
CONTINUOUS
 62
           6
100
AcDbLine
 10
395.0075370422
 20
13637.991467022401
 11
396.0075370422
 21
13637.991467022401
  0
LINE
  5
22B
100
AcDbEntity
  8
1
  6
CONTINUOUS
 62
           6
100
AcDbLine
 10
399.0075370422
 20
13636.991467022401
 11
398.0075370422
 21
13636.991467022401
  0
LINE
  5
22A
100
AcDbEntity
  8
1
  6
CONTINUOUS
 62
           6
100
AcDbLine
 10
396.5075370422
 20
13635.491467022401
 11
396.5075370422
 21
13636.491467022401
  0
LINE
  5
229
100
AcDbEntity
  8
1
  6
CONTINUOUS
 62
           6
100
AcDbLine
 10
396.5075370422
 20
13613.491467022401
 11
396.5075370422
 21
13614.491467022401
  0
LINE
  5
228
100
AcDbEntity
  8
1
  6
CONTINUOUS
 62
           6
100
AcDbLine
 10
398.0075370422
 20
13612.991467022401
 11
399.0075370422
 21
13612.991467022401
  0
LINE
  5
227
100
AcDbEntity
  8
1
  6
CONTINUOUS
 62
           6
100
AcDbLine
 10
396.0075370422
 20
13611.991467022401
 11
395.0075370422
 21
13611.991467022401
  0
LINE
  5
226
100
AcDbEntity
  8
1
  6
CONTINUOUS
 62
           6
100
AcDbLine
 10
397.5075370422
 20
13611.491467022401
 11
397.5075370422
 21
13610.491467022401
  0
LINE
  5
225
100
AcDbEntity
  8
1
  6
CONTINUOUS
 62
           6
100
AcDbLine
 10
399.0075370422
 20
13612.991467022401
 11
399.0075370422
 21
13611.991467022401
  0
LINE
  5
224
100
AcDbEntity
  8
1
  6
CONTINUOUS
 62
           6
100
AcDbLine
 10
395.0075370422
 20
13612.991467022401
 11
396.0075370422
 21
13612.991467022401
  0
LINE
  5
223
100
AcDbEntity
  8
1
  6
CONTINUOUS
 62
           6
100
AcDbLine
 10
395.0075370422
 20
13611.991467022401
 11
395.0075370422
 21
13612.991467022401
  0
LINE
  5
222
100
AcDbEntity
  8
1
  6
CONTINUOUS
 62
           6
100
AcDbLine
 10
399.0075370422
 20
13611.991467022401
 11
398.0075370422
 21
13611.991467022401
  0
LINE
  5
221
100
AcDbEntity
  8
1
  6
CONTINUOUS
 62
           6
100
AcDbLine
 10
397.5075370422
 20
13614.491467022401
 11
397.5075370422
 21
13613.491467022401
  0
LINE
  5
220
100
AcDbEntity
  8
1
  6
CONTINUOUS
 62
           6
100
AcDbLine
 10
396.5075370422
 20
13614.491467022401
 11
397.5075370422
 21
13614.491467022401
  0
LINE
  5
21F
100
AcDbEntity
  8
1
  6
CONTINUOUS
 62
           6
100
AcDbLine
 10
396.5075370422
 20
13610.491467022401
 11
396.5075370422
 21
13611.491467022401
  0
LINE
  5
21E
100
AcDbEntity
  8
1
  6
CONTINUOUS
 62
           6
100
AcDbLine
 10
397.5075370422
 20
13610.491467022401
 11
396.5075370422
 21
13610.491467022401
  0
LINE
  5
21D
100
AcDbEntity
  8
1
  6
CONTINUOUS
 62
           6
100
AcDbLine
 10
377.5075370422
 20
13610.491467022401
 11
376.5075370422
 21
13610.491467022401
  0
LINE
  5
21C
100
AcDbEntity
  8
1
  6
CONTINUOUS
 62
           6
100
AcDbLine
 10
377.5075370422
 20
13611.491467022401
 11
377.5075370422
 21
13610.491467022401
  0
LINE
  5
21B
100
AcDbEntity
  8
1
  6
CONTINUOUS
 62
           6
100
AcDbLine
 10
376.5075370422
 20
13614.491467022401
 11
377.5075370422
 21
13614.491467022401
  0
LINE
  5
21A
100
AcDbEntity
  8
1
  6
CONTINUOUS
 62
           6
100
AcDbLine
 10
376.5075370422
 20
13613.491467022401
 11
376.5075370422
 21
13614.491467022401
  0
LINE
  5
219
100
AcDbEntity
  8
1
  6
CONTINUOUS
 62
           6
100
AcDbLine
 10
376.0075370422
 20
13611.991467022401
 11
375.0075370422
 21
13611.991467022401
  0
LINE
  5
218
100
AcDbEntity
  8
1
  6
CONTINUOUS
 62
           6
100
AcDbLine
 10
379.0075370422
 20
13612.991467022401
 11
379.0075370422
 21
13611.991467022401
  0
LINE
  5
217
100
AcDbEntity
  8
1
  6
CONTINUOUS
 62
           6
100
AcDbLine
 10
378.0075370422
 20
13612.991467022401
 11
379.0075370422
 21
13612.991467022401
  0
LINE
  5
216
100
AcDbEntity
  8
1
  6
CONTINUOUS
 62
           6
100
AcDbLine
 10
375.0075370422
 20
13611.991467022401
 11
375.0075370422
 21
13612.991467022401
  0
LINE
  5
215
100
AcDbEntity
  8
1
  6
CONTINUOUS
 62
           6
100
AcDbLine
 10
376.5075370422
 20
13610.491467022401
 11
376.5075370422
 21
13611.491467022401
  0
LINE
  5
214
100
AcDbEntity
  8
1
  6
CONTINUOUS
 62
           6
100
AcDbLine
 10
379.0075370422
 20
13611.991467022401
 11
378.0075370422
 21
13611.991467022401
  0
LINE
  5
213
100
AcDbEntity
  8
1
  6
CONTINUOUS
 62
           6
100
AcDbLine
 10
375.0075370422
 20
13612.991467022401
 11
376.0075370422
 21
13612.991467022401
  0
LINE
  5
212
100
AcDbEntity
  8
1
  6
CONTINUOUS
 62
           6
100
AcDbLine
 10
377.5075370422
 20
13614.491467022401
 11
377.5075370422
 21
13613.491467022401
  0
LINE
  5
211
100
AcDbEntity
  8
1
  6
DOT_CENTER
 62
           1
100
AcDbLine
 10
377.0075370422
 20
13644.13323129807
 11
377.0075370422
 21
13605.31189168359
  0
LINE
  5
210
100
AcDbEntity
  8
1
  6
DOT_CENTER
 62
           1
100
AcDbLine
 10
397.0075370422
 20
13644.81430743165
 11
397.0075370422
 21
13604.085954643129
  0
LINE
  5
20F
100
AcDbEntity
  8
1
  6
DOT_CENTER
 62
           1
100
AcDbLine
 10
366.993027948511
 20
13637.491467022401
 11
408.266241643893
 21
13637.491467022401
  0
LINE
  5
20E
100
AcDbEntity
  8
1
  6
DOT_CENTER
 62
           1
100
AcDbLine
 10
366.584382268358
 20
13612.491467022401
 11
407.721380737023
 21
13612.491467022401
  0
LINE
  5
20D
100
AcDbEntity
  8
1
  6
CONTINUOUS
 62
           3
100
AcDbLine
 10
899.460408193442
 20
13898.97602581389
 11
899.460408193442
 21
13911.47602581389
  0
LINE
  5
20C
100
AcDbEntity
  8
1
  6
DOT_CENTER
 62
           1
100
AcDbLine
 10
459.810966032375
 20
13624.991467022401
 11
921.320488526816
 21
13624.991467022401
  0
LINE
  5
20B
100
AcDbEntity
  8
1
  6
CONTINUOUS
 62
           3
100
AcDbLine
 10
958.288934451672
 20
13405.491467022401
 11
1000.288934451672
 21
13405.491467022401
  0
LINE
  5
20A
100
AcDbEntity
  8
1
  6
CONTINUOUS
 62
           3
100
AcDbLine
 10
1102.288934451672
 20
13405.491467022401
 11
1102.288934451672
 21
13402.491467022401
  0
LINE
  5
209
100
AcDbEntity
  8
1
  6
CONTINUOUS
 62
           3
100
AcDbLine
 10
1102.288934451672
 20
13402.491467022401
 11
1060.288934451672
 21
13402.491467022401
  0
LINE
  5
208
100
AcDbEntity
  8
1
  6
CONTINUOUS
 62
           3
100
AcDbLine
 10
958.288934451672
 20
13402.491467022401
 11
958.288934451672
 21
13405.491467022401
  0
LINE
  5
207
100
AcDbEntity
  8
1
  6
CONTINUOUS
 62
           3
100
AcDbLine
 10
1060.288934451672
 20
13405.491467022401
 11
1060.288934451672
 21
13408.491467022401
  0
LINE
  5
206
100
AcDbEntity
  8
1
  6
CONTINUOUS
 62
           3
100
AcDbLine
 10
1060.288934451672
 20
13717.491467022401
 11
1057.288934451672
 21
13717.491467022401
  0
LINE
  5
205
100
AcDbEntity
  8
1
  6
CONTINUOUS
 62
           3
100
AcDbLine
 10
1000.288934451672
 20
13402.491467022401
 11
958.288934451672
 21
13402.491467022401
  0
LINE
  5
204
100
AcDbEntity
  8
1
  6
CONTINUOUS
 62
           3
100
AcDbLine
 10
1060.288934451672
 20
13402.491467022401
 11
1057.288934451672
 21
13402.491467022401
  0
LINE
  5
203
100
AcDbEntity
  8
1
  6
CONTINUOUS
 62
           3
100
AcDbLine
 10
1003.288934451672
 20
13402.491467022401
 11
1000.288934451672
 21
13402.491467022401
  0
LINE
  5
202
100
AcDbEntity
  8
1
  6
CONTINUOUS
 62
           3
100
AcDbLine
 10
1057.288934451672
 20
13402.491467022401
 11
1054.288934451672
 21
13402.491467022401
  0
LINE
  5
201
100
AcDbEntity
  8
1
  6
CONTINUOUS
 62
           3
100
AcDbLine
 10
1057.288934451672
 20
13408.967685276881
 11
1057.288934451672
 21
13402.491467022401
  0
LINE
  5
200
100
AcDbEntity
  8
1
  6
CONTINUOUS
 62
           3
100
AcDbLine
 10
1003.288934451672
 20
13408.967685276881
 11
1003.288934451672
 21
13402.491467022401
  0
LINE
  5
1FF
100
AcDbEntity
  8
1
  6
CONTINUOUS
 62
           3
100
AcDbLine
 10
1054.288934451672
 20
13402.491467022401
 11
1042.788934451672
 21
13402.491467022401
  0
LINE
  5
1FE
100
AcDbEntity
  8
1
  6
CONTINUOUS
 62
           3
100
AcDbLine
 10
1006.288934451672
 20
13402.491467022401
 11
1003.288934451672
 21
13402.491467022401
  0
LINE
  5
1FD
100
AcDbEntity
  8
1
  6
CONTINUOUS
 62
           3
100
AcDbLine
 10
1060.288934451672
 20
13408.491467022401
 11
1060.288934451672
 21
13717.491467022401
  0
LINE
  5
1FC
100
AcDbEntity
  8
1
  6
CONTINUOUS
 62
           3
100
AcDbLine
 10
1060.288934451672
 20
13405.491467022401
 11
1102.288934451672
 21
13405.491467022401
  0
LINE
  5
1FB
100
AcDbEntity
  8
1
  6
CONTINUOUS
 62
           3
100
AcDbLine
 10
1017.788934451672
 20
13402.491467022401
 11
1017.788934451672
 21
13405.491467022401
  0
LINE
  5
1FA
100
AcDbEntity
  8
1
  6
CONTINUOUS
 62
           3
100
AcDbLine
 10
1017.788934451672
 20
13402.491467022401
 11
1006.288934451672
 21
13402.491467022401
  0
LINE
  5
1F9
100
AcDbEntity
  8
1
  6
CONTINUOUS
 62
           3
100
AcDbLine
 10
1017.788934451672
 20
13412.491467022401
 11
1042.788934451672
 21
13412.491467022401
  0
LINE
  5
1F8
100
AcDbEntity
  8
1
  6
CONTINUOUS
 62
           3
100
AcDbLine
 10
1042.788934451672
 20
13412.491467022401
 11
1042.788934451672
 21
13405.491467022401
  0
LINE
  5
1F7
100
AcDbEntity
  8
1
  6
CONTINUOUS
 62
           3
100
AcDbLine
 10
1042.788934451672
 20
13402.491467022401
 11
1017.788934451672
 21
13402.491467022401
  0
LINE
  5
1F6
100
AcDbEntity
  8
1
  6
DOTTED
 62
           1
100
AcDbLine
 10
1042.788934451672
 20
13405.491467022401
 11
1053.812716196262
 21
13405.491467022401
  0
LINE
  5
1F5
100
AcDbEntity
  8
1
  6
CONTINUOUS
 62
           3
100
AcDbLine
 10
1042.788934451672
 20
13405.491467022401
 11
1042.788934451672
 21
13402.491467022401
  0
LINE
  5
1F4
100
AcDbEntity
  8
1
  6
CONTINUOUS
 62
           3
100
AcDbLine
 10
1053.812716196262
 20
13405.491467022401
 11
1060.288934451672
 21
13405.491467022401
  0
LINE
  5
1F3
100
AcDbEntity
  8
1
  6
CONTINUOUS
 62
           3
100
AcDbLine
 10
1017.788934451672
 20
13405.491467022401
 11
1017.788934451672
 21
13412.491467022401
  0
LINE
  5
1F2
100
AcDbEntity
  8
1
  6
DOTTED
 62
           1
100
AcDbLine
 10
1006.76515270615
 20
13405.491467022401
 11
1017.788934451672
 21
13405.491467022401
  0
LINE
  5
1F1
100
AcDbEntity
  8
1
  6
CONTINUOUS
 62
           3
100
AcDbLine
 10
1017.788934451672
 20
13405.491467022401
 11
1042.788934451672
 21
13405.491467022401
  0
LINE
  5
1F0
100
AcDbEntity
  8
1
  6
DOTTED
 62
           1
100
AcDbLine
 10
1003.288934451672
 20
13717.491467022401
 11
1003.288934451672
 21
13408.967685276881
  0
LINE
  5
1EF
100
AcDbEntity
  8
1
  6
DOTTED
 62
           1
100
AcDbLine
 10
1057.288934451672
 20
13408.967685276881
 11
1057.288934451672
 21
13717.491467022401
  0
LINE
  5
1EE
100
AcDbEntity
  8
1
  6
DOT_CENTER
 62
           1
100
AcDbLine
 10
1009.169897693216
 20
13444.491467022401
 11
1051.630591972454
 21
13444.491467022401
  0
LINE
  5
1ED
100
AcDbEntity
  8
1
  6
DOT_CENTER
 62
           1
100
AcDbLine
 10
1010.047037210618
 20
13487.491467022401
 11
1049.805812162244
 21
13487.491467022401
  0
LINE
  5
1EC
100
AcDbEntity
  8
1
  6
DOT_CENTER
 62
           1
100
AcDbLine
 10
1010.047037210618
 20
13514.991467022401
 11
1049.805812162244
 21
13514.991467022401
  0
LINE
  5
1EB
100
AcDbEntity
  8
1
  6
DOT_CENTER
 62
           1
100
AcDbLine
 10
1010.047037210618
 20
13542.491467022401
 11
1049.805812162244
 21
13542.491467022401
  0
LINE
  5
1EA
100
AcDbEntity
  8
1
  6
DOT_CENTER
 62
           1
100
AcDbLine
 10
1010.047037210618
 20
13569.991467022401
 11
1049.805812162244
 21
13569.991467022401
  0
LINE
  5
1E9
100
AcDbEntity
  8
1
  6
DOT_CENTER
 62
           1
100
AcDbLine
 10
1010.047037210618
 20
13679.991467022401
 11
1049.805812162244
 21
13679.991467022401
  0
LINE
  5
1E8
100
AcDbEntity
  8
1
  6
DOT_CENTER
 62
           1
100
AcDbLine
 10
1010.047037210618
 20
13707.491467022401
 11
1049.805812162244
 21
13707.491467022401
  0
LINE
  5
1E7
100
AcDbEntity
  8
1
  6
DOT_CENTER
 62
           1
100
AcDbLine
 10
1015.288934451672
 20
13720.39883524196
 11
1015.288934451672
 21
13478.0409748492
  0
LINE
  5
1E6
100
AcDbEntity
  8
1
  6
DOT_CENTER
 62
           1
100
AcDbLine
 10
972.788934451672
 20
13412.491467022401
 11
972.788934451672
 21
13398.190148553111
  0
LINE
  5
1E5
100
AcDbEntity
  8
1
  6
DOTTED
 62
           1
100
AcDbLine
 10
969.038934451672
 20
13402.491467022401
 11
969.038934451672
 21
13405.491467022401
  0
LINE
  5
1E4
100
AcDbEntity
  8
1
  6
DOTTED
 62
           1
100
AcDbLine
 10
976.538934451672
 20
13402.491467022401
 11
976.538934451672
 21
13405.491467022401
  0
LINE
  5
1E3
100
AcDbEntity
  8
1
  6
DOTTED
 62
           1
100
AcDbLine
 10
1084.038934451672
 20
13405.491467022401
 11
1084.038934451672
 21
13402.491467022401
  0
LINE
  5
1E2
100
AcDbEntity
  8
1
  6
DOTTED
 62
           1
100
AcDbLine
 10
1091.538934451672
 20
13405.491467022401
 11
1091.538934451672
 21
13402.491467022401
  0
LINE
  5
1E1
100
AcDbEntity
  8
1
  6
DOT_CENTER
 62
           1
100
AcDbLine
 10
1087.788934451672
 20
13398.190148553111
 11
1087.788934451672
 21
13412.491467022401
  0
LINE
  5
1E0
100
AcDbEntity
  8
1
  6
DOTTED
 62
           1
100
AcDbLine
 10
1034.038934451672
 20
13405.491467022401
 11
1034.038934451672
 21
13402.491467022401
  0
LINE
  5
1DF
100
AcDbEntity
  8
1
  6
DOTTED
 62
           1
100
AcDbLine
 10
1026.538934451672
 20
13405.491467022401
 11
1026.538934451672
 21
13402.491467022401
  0
LINE
  5
1DE
100
AcDbEntity
  8
1
  6
CONTINUOUS
 62
           3
100
AcDbLine
 10
896.460408193442
 20
13402.491467022401
 11
802.460408193442
 21
13402.491467022401
  0
LINE
  5
1DD
100
AcDbEntity
  8
1
  6
CONTINUOUS
 62
           3
100
AcDbLine
 10
802.460408193442
 20
13402.491467022401
 11
802.460408193442
 21
13405.491467022401
  0
LINE
  5
1DC
100
AcDbEntity
  8
1
  6
CONTINUOUS
 62
           3
100
AcDbLine
 10
892.460408193442
 20
13405.491467022401
 11
892.460408193442
 21
13402.491467022401
  0
LINE
  5
1DB
100
AcDbEntity
  8
1
  6
CONTINUOUS
 62
           3
100
AcDbLine
 10
899.460408193442
 20
13402.491467022401
 11
896.460408193442
 21
13402.491467022401
  0
LINE
  5
1DA
100
AcDbEntity
  8
1
  6
CONTINUOUS
 62
           3
100
AcDbLine
 10
899.460408193442
 20
13717.491467022401
 11
902.460408193442
 21
13717.491467022401
  0
LINE
  5
1D9
100
AcDbEntity
  8
1
  6
CONTINUOUS
 62
           3
100
AcDbLine
 10
899.460408193442
 20
13408.249512525839
 11
899.460408193442
 21
13405.491467022401
  0
LINE
  5
1D8
100
AcDbEntity
  8
1
  6
DOTTED
 62
           1
100
AcDbLine
 10
899.460408193442
 20
13717.491467022401
 11
899.460408193442
 21
13408.249512525839
  0
LINE
  5
1D7
100
AcDbEntity
  8
1
  6
CONTINUOUS
 62
           3
100
AcDbLine
 10
892.460408193442
 20
13712.491467022401
 11
892.460408193442
 21
13674.991467022401
  0
LINE
  5
1D6
100
AcDbEntity
  8
1
  6
CONTINUOUS
 62
           3
100
AcDbLine
 10
860.460408193442
 20
13405.491467022401
 11
902.460408193442
 21
13405.491467022401
  0
LINE
  5
1D5
100
AcDbEntity
  8
1
  6
CONTINUOUS
 62
           3
100
AcDbLine
 10
897.460408193442
 20
13717.491467022401
 11
899.460408193442
 21
13717.491467022401
  0
LINE
  5
1D4
100
AcDbEntity
  8
1
  6
DOT_CENTER
 62
           1
100
AcDbLine
 10
817.460408193442
 20
13395.693700432421
 11
817.460408193442
 21
13419.91056412854
  0
LINE
  5
1D3
100
AcDbEntity
  8
1
  6
CONTINUOUS
 62
           3
100
AcDbLine
 10
860.460408193442
 20
13414.491467022401
 11
892.460408193442
 21
13457.491467022401
  0
LINE
  5
1D2
100
AcDbEntity
  8
1
  6
CONTINUOUS
 62
           3
100
AcDbLine
 10
860.460408193442
 20
13405.491467022401
 11
860.460408193442
 21
13414.491467022401
  0
LINE
  5
1D1
100
AcDbEntity
  8
1
  6
CONTINUOUS
 62
           3
100
AcDbLine
 10
802.460408193442
 20
13405.491467022401
 11
860.460408193442
 21
13405.491467022401
  0
LINE
  5
1D0
100
AcDbEntity
  8
1
  6
DOT_CENTER
 62
           1
100
AcDbLine
 10
872.460408193442
 20
13395.693700432421
 11
872.460408193442
 21
13419.91056412854
  0
LINE
  5
1CF
100
AcDbEntity
  8
1
  6
DOTTED
 62
           1
100
AcDbLine
 10
868.710408193442
 20
13402.491467022401
 11
868.710408193442
 21
13405.491467022401
  0
LINE
  5
1CE
100
AcDbEntity
  8
1
  6
DOTTED
 62
           1
100
AcDbLine
 10
876.210408193442
 20
13402.491467022401
 11
876.210408193442
 21
13405.491467022401
  0
LINE
  5
1CD
100
AcDbEntity
  8
1
  6
DOTTED
 62
           1
100
AcDbLine
 10
821.210408193442
 20
13402.491467022401
 11
821.210408193442
 21
13405.491467022401
  0
LINE
  5
1CC
100
AcDbEntity
  8
1
  6
DOTTED
 62
           1
100
AcDbLine
 10
813.710408193442
 20
13402.491467022401
 11
813.710408193442
 21
13405.491467022401
  0
LINE
  5
1CB
100
AcDbEntity
  8
1
  6
DOTTED
 62
           1
100
AcDbLine
 10
899.460408193442
 20
13429.491467022401
 11
902.460408193442
 21
13429.491467022401
  0
LINE
  5
1CA
100
AcDbEntity
  8
1
  6
DOTTED
 62
           1
100
AcDbLine
 10
899.460408193442
 20
13459.491467022401
 11
902.460408193442
 21
13459.491467022401
  0
LINE
  5
1C9
100
AcDbEntity
  8
1
  6
DOTTED
 62
           1
100
AcDbLine
 10
899.460408193442
 20
13484.991467022401
 11
902.460408193442
 21
13484.991467022401
  0
LINE
  5
1C8
100
AcDbEntity
  8
1
  6
DOTTED
 62
           1
100
AcDbLine
 10
899.460408193442
 20
13489.991467022401
 11
902.460408193442
 21
13489.991467022401
  0
LINE
  5
1C7
100
AcDbEntity
  8
1
  6
DOT_CENTER
 62
           1
100
AcDbLine
 10
895.531922812571
 20
13487.491467022401
 11
908.151922812571
 21
13487.491467022401
  0
LINE
  5
1C6
100
AcDbEntity
  8
1
  6
DOT_CENTER
 62
           1
100
AcDbLine
 10
888.5564974047
 20
13444.491467022401
 11
911.1664974047
 21
13444.491467022401
  0
LINE
  5
1C5
100
AcDbEntity
  8
1
  6
DOT_CENTER
 62
           1
100
AcDbLine
 10
895.531922812571
 20
13514.991467022401
 11
908.151922812571
 21
13514.991467022401
  0
LINE
  5
1C4
100
AcDbEntity
  8
1
  6
DOTTED
 62
           1
100
AcDbLine
 10
899.460408193442
 20
13517.491467022401
 11
902.460408193442
 21
13517.491467022401
  0
LINE
  5
1C3
100
AcDbEntity
  8
1
  6
DOTTED
 62
           1
100
AcDbLine
 10
899.460408193442
 20
13512.491467022401
 11
902.460408193442
 21
13512.491467022401
  0
LINE
  5
1C2
100
AcDbEntity
  8
1
  6
DOT_CENTER
 62
           1
100
AcDbLine
 10
895.531922812571
 20
13542.491467022401
 11
908.151922812571
 21
13542.491467022401
  0
LINE
  5
1C1
100
AcDbEntity
  8
1
  6
DOTTED
 62
           1
100
AcDbLine
 10
899.460408193442
 20
13544.991467022401
 11
902.460408193442
 21
13544.991467022401
  0
LINE
  5
1C0
100
AcDbEntity
  8
1
  6
DOTTED
 62
           1
100
AcDbLine
 10
899.460408193442
 20
13539.991467022401
 11
902.460408193442
 21
13539.991467022401
  0
LINE
  5
1BF
100
AcDbEntity
  8
1
  6
DOT_CENTER
 62
           1
100
AcDbLine
 10
895.531922812571
 20
13569.991467022401
 11
908.151922812571
 21
13569.991467022401
  0
LINE
  5
1BE
100
AcDbEntity
  8
1
  6
DOTTED
 62
           1
100
AcDbLine
 10
899.460408193442
 20
13572.491467022401
 11
902.460408193442
 21
13572.491467022401
  0
LINE
  5
1BD
100
AcDbEntity
  8
1
  6
DOTTED
 62
           1
100
AcDbLine
 10
899.460408193442
 20
13567.491467022401
 11
902.460408193442
 21
13567.491467022401
  0
LINE
  5
1BC
100
AcDbEntity
  8
1
  6
DOT_CENTER
 62
           1
100
AcDbLine
 10
895.531922812571
 20
13597.491467022401
 11
914.165767434884
 21
13597.491467022401
  0
LINE
  5
1BB
100
AcDbEntity
  8
1
  6
DOTTED
 62
           1
100
AcDbLine
 10
899.460408193442
 20
13599.991467022401
 11
902.460408193442
 21
13599.991467022401
  0
LINE
  5
1BA
100
AcDbEntity
  8
1
  6
DOTTED
 62
           1
100
AcDbLine
 10
899.460408193442
 20
13594.991467022401
 11
902.460408193442
 21
13594.991467022401
  0
LINE
  5
1B9
100
AcDbEntity
  8
1
  6
DOTTED
 62
           1
100
AcDbLine
 10
899.460408193442
 20
13627.491467022401
 11
902.460408193442
 21
13627.491467022401
  0
LINE
  5
1B8
100
AcDbEntity
  8
1
  6
DOTTED
 62
           1
100
AcDbLine
 10
899.460408193442
 20
13622.491467022401
 11
902.460408193442
 21
13622.491467022401
  0
LINE
  5
1B7
100
AcDbEntity
  8
1
  6
DOT_CENTER
 62
           1
100
AcDbLine
 10
895.531922812571
 20
13652.491467022401
 11
914.165767434884
 21
13652.491467022401
  0
LINE
  5
1B6
100
AcDbEntity
  8
1
  6
DOTTED
 62
           1
100
AcDbLine
 10
899.460408193442
 20
13654.991467022401
 11
902.460408193442
 21
13654.991467022401
  0
LINE
  5
1B5
100
AcDbEntity
  8
1
  6
DOTTED
 62
           1
100
AcDbLine
 10
899.460408193442
 20
13649.991467022401
 11
902.460408193442
 21
13649.991467022401
  0
LINE
  5
1B4
100
AcDbEntity
  8
1
  6
DOT_CENTER
 62
           1
100
AcDbLine
 10
895.531922812571
 20
13679.991467022401
 11
908.151922812571
 21
13679.991467022401
  0
LINE
  5
1B3
100
AcDbEntity
  8
1
  6
DOTTED
 62
           1
100
AcDbLine
 10
899.460408193442
 20
13682.491467022401
 11
902.460408193442
 21
13682.491467022401
  0
LINE
  5
1B2
100
AcDbEntity
  8
1
  6
DOTTED
 62
           1
100
AcDbLine
 10
899.460408193442
 20
13677.491467022401
 11
902.460408193442
 21
13677.491467022401
  0
LINE
  5
1B1
100
AcDbEntity
  8
1
  6
DOT_CENTER
 62
           1
100
AcDbLine
 10
895.531922812571
 20
13707.491467022401
 11
908.151922812571
 21
13707.491467022401
  0
LINE
  5
1B0
100
AcDbEntity
  8
1
  6
DOTTED
 62
           1
100
AcDbLine
 10
899.460408193442
 20
13709.991467022401
 11
902.460408193442
 21
13709.991467022401
  0
LINE
  5
1AF
100
AcDbEntity
  8
1
  6
DOTTED
 62
           1
100
AcDbLine
 10
899.460408193442
 20
13704.991467022401
 11
902.460408193442
 21
13704.991467022401
  0
LINE
  5
1AE
100
AcDbEntity
  8
1
  6
CONTINUOUS
 62
           3
100
AcDbLine
 10
854.460408193442
 20
13950.97602581389
 11
854.460408193442
 21
13953.97602581389
  0
LINE
  5
1AD
100
AcDbEntity
  8
1
  6
CONTINUOUS
 62
           3
100
AcDbLine
 10
854.460408193442
 20
13893.97602581389
 11
854.460408193442
 21
13896.97602581389
  0
LINE
  5
1AC
100
AcDbEntity
  8
1
  6
CONTINUOUS
 62
           3
100
AcDbLine
 10
892.460408193442
 20
13893.97602581389
 11
854.460408193442
 21
13893.97602581389
  0
LINE
  5
1AB
100
AcDbEntity
  8
1
  6
CONTINUOUS
 62
           3
100
AcDbLine
 10
892.460408193442
 20
13953.97602581389
 11
899.460408193442
 21
13953.97602581389
  0
LINE
  5
1AA
100
AcDbEntity
  8
1
  6
CONTINUOUS
 62
           3
100
AcDbLine
 10
892.460408193442
 20
13990.97602581389
 11
892.460408193442
 21
13953.97602581389
  0
LINE
  5
1A9
100
AcDbEntity
  8
1
  6
CONTINUOUS
 62
           3
100
AcDbLine
 10
892.460408193442
 20
13893.97602581389
 11
892.460408193442
 21
13856.97602581389
  0
LINE
  5
1A8
100
AcDbEntity
  8
1
  6
CONTINUOUS
 62
           3
100
AcDbLine
 10
889.460408193442
 20
13950.97602581389
 11
889.460408193442
 21
13953.97602581389
  0
LINE
  5
1A7
100
AcDbEntity
  8
1
  6
CONTINUOUS
 62
           3
100
AcDbLine
 10
899.460408193442
 20
13896.97602581389
 11
854.460408193442
 21
13896.97602581389
  0
LINE
  5
1A6
100
AcDbEntity
  8
1
  6
CONTINUOUS
 62
           3
100
AcDbLine
 10
899.460408193442
 20
13950.97602581389
 11
899.460408193442
 21
13936.47602581389
  0
LINE
  5
1A5
100
AcDbEntity
  8
1
  6
CONTINUOUS
 62
           3
100
AcDbLine
 10
854.460408193442
 20
13950.97602581389
 11
899.460408193442
 21
13950.97602581389
  0
LINE
  5
1A4
100
AcDbEntity
  8
1
  6
CONTINUOUS
 62
           3
100
AcDbLine
 10
899.460408193442
 20
13893.97602581389
 11
892.460408193442
 21
13893.97602581389
  0
LINE
  5
1A3
100
AcDbEntity
  8
1
  6
CONTINUOUS
 62
           3
100
AcDbLine
 10
902.460408193442
 20
13950.97602581389
 11
902.460408193442
 21
13896.97602581389
  0
LINE
  5
1A2
100
AcDbEntity
  8
1
  6
CONTINUOUS
 62
           3
100
AcDbLine
 10
854.460408193442
 20
13953.97602581389
 11
892.460408193442
 21
13953.97602581389
  0
LINE
  5
1A1
100
AcDbEntity
  8
1
  6
CONTINUOUS
 62
           3
100
AcDbLine
 10
889.460408193442
 20
13893.97602581389
 11
889.460408193442
 21
13896.97602581389
  0
LINE
  5
1A0
100
AcDbEntity
  8
1
  6
DOT_CENTER
 62
           1
100
AcDbLine
 10
808.709340559061
 20
13981.47602581389
 11
880.643936930872
 21
13981.47602581389
  0
LINE
  5
19F
100
AcDbEntity
  8
1
  6
DOT_CENTER
 62
           1
100
AcDbLine
 10
808.709340559061
 20
13866.47602581389
 11
880.643936930872
 21
13866.47602581389
  0
LINE
  5
19E
100
AcDbEntity
  8
1
  6
DOT_CENTER
 62
           1
100
AcDbLine
 10
872.460408193442
 20
13857.057121686459
 11
872.460408193442
 21
13990.555375689361
  0
LINE
  5
19D
100
AcDbEntity
  8
1
  6
DOT_CENTER
 62
           1
100
AcDbLine
 10
817.460408193442
 20
13857.719096499701
 11
817.460408193442
 21
13990.33471741828
  0
LINE
  5
19C
100
AcDbEntity
  8
1
  6
CONTINUOUS
 62
           3
100
AcDbLine
 10
887.460408193442
 20
13851.97602581389
 11
807.460408193442
 21
13851.97602581389
  0
LINE
  5
19B
100
AcDbEntity
  8
1
  6
CONTINUOUS
 62
           3
100
AcDbLine
 10
807.460408193442
 20
13995.97602581389
 11
887.460408193442
 21
13995.97602581389
  0
LINE
  5
19A
100
AcDbEntity
  8
1
  6
DOTTED
 62
           1
100
AcDbLine
 10
892.460408193442
 20
13936.47602581389
 11
892.460408193442
 21
13911.47602581389
  0
LINE
  5
199
100
AcDbEntity
  8
1
  6
DOTTED
 62
           1
100
AcDbLine
 10
899.460408193442
 20
13911.47602581389
 11
892.460408193442
 21
13911.47602581389
  0
LINE
  5
198
100
AcDbEntity
  8
1
  6
DOTTED
 62
           1
100
AcDbLine
 10
899.460408193442
 20
13936.47602581389
 11
892.460408193442
 21
13936.47602581389
  0
LINE
  5
197
100
AcDbEntity
  8
1
  6
CONTINUOUS
 62
           3
100
AcDbLine
 10
802.460408193442
 20
13856.97602581389
 11
802.460408193442
 21
13990.97602581389
  0
LINE
  5
196
100
AcDbEntity
  8
1
  6
DOT_CENTER
 62
           1
100
AcDbLine
 10
966.288934451672
 20
13624.991467022401
 11
1098.029531323708
 21
13624.991467022401
  0
LINE
  5
195
100
AcDbEntity
  8
1
  6
DOTTED
 62
           1
100
AcDbLine
 10
383.2575370422
 20
13405.491467022401
 11
383.2575370422
 21
13402.491467022401
  0
LINE
  5
194
100
AcDbEntity
  8
1
  6
DOTTED
 62
           1
100
AcDbLine
 10
390.7575370422
 20
13405.491467022401
 11
390.7575370422
 21
13402.491467022401
  0
LINE
  5
193
100
AcDbEntity
  8
1
  6
DOT_CENTER
 62
           1
100
AcDbLine
 10
444.507537042199
 20
13398.190148553111
 11
444.507537042199
 21
13412.491467022401
  0
LINE
  5
192
100
AcDbEntity
  8
1
  6
DOTTED
 62
           1
100
AcDbLine
 10
448.257537042199
 20
13405.491467022401
 11
448.257537042199
 21
13402.491467022401
  0
LINE
  5
191
100
AcDbEntity
  8
1
  6
DOTTED
 62
           1
100
AcDbLine
 10
440.757537042199
 20
13405.491467022401
 11
440.757537042199
 21
13402.491467022401
  0
LINE
  5
190
100
AcDbEntity
  8
1
  6
DOTTED
 62
           1
100
AcDbLine
 10
333.2575370422
 20
13402.491467022401
 11
333.2575370422
 21
13405.491467022401
  0
LINE
  5
18F
100
AcDbEntity
  8
1
  6
DOTTED
 62
           1
100
AcDbLine
 10
325.7575370422
 20
13402.491467022401
 11
325.7575370422
 21
13405.491467022401
  0
LINE
  5
18E
100
AcDbEntity
  8
1
  6
DOT_CENTER
 62
           1
100
AcDbLine
 10
329.5075370422
 20
13412.491467022401
 11
329.5075370422
 21
13398.190148553111
  0
LINE
  5
18D
100
AcDbEntity
  8
1
  6
DOT_CENTER
 62
           1
100
AcDbLine
 10
402.0075370422
 20
13478.0409748492
 11
402.0075370422
 21
13720.39883524196
  0
LINE
  5
18C
100
AcDbEntity
  8
1
  6
DOT_CENTER
 62
           1
100
AcDbLine
 10
372.0075370422
 20
13720.39883524196
 11
372.0075370422
 21
13478.0409748492
  0
LINE
  5
18B
100
AcDbEntity
  8
1
  6
DOT_CENTER
 62
           1
100
AcDbLine
 10
366.765639801146
 20
13707.491467022401
 11
406.524414752772
 21
13707.491467022401
  0
LINE
  5
18A
100
AcDbEntity
  8
1
  6
DOT_CENTER
 62
           1
100
AcDbLine
 10
366.765639801146
 20
13542.491467022401
 11
406.524414752772
 21
13542.491467022401
  0
LINE
  5
189
100
AcDbEntity
  8
1
  6
DOT_CENTER
 62
           1
100
AcDbLine
 10
366.765639801146
 20
13514.991467022401
 11
406.524414752772
 21
13514.991467022401
  0
LINE
  5
188
100
AcDbEntity
  8
1
  6
DOT_CENTER
 62
           1
100
AcDbLine
 10
366.765639801146
 20
13487.491467022401
 11
406.524414752772
 21
13487.491467022401
  0
LINE
  5
187
100
AcDbEntity
  8
1
  6
DOT_CENTER
 62
           1
100
AcDbLine
 10
365.888500283744
 20
13444.491467022401
 11
408.349194562982
 21
13444.491467022401
  0
LINE
  5
186
100
AcDbEntity
  8
1
  6
CONTINUOUS
 62
           3
100
AcDbLine
 10
414.0075370422
 20
13408.967685276881
 11
414.0075370422
 21
13578.621864020521
  0
LINE
  5
185
100
AcDbEntity
  8
1
  6
CONTINUOUS
 62
           3
100
AcDbLine
 10
374.5075370422
 20
13405.491467022401
 11
399.5075370422
 21
13405.491467022401
  0
LINE
  5
184
100
AcDbEntity
  8
1
  6
CONTINUOUS
 62
           3
100
AcDbLine
 10
374.5075370422
 20
13405.491467022401
 11
374.5075370422
 21
13412.491467022401
  0
LINE
  5
183
100
AcDbEntity
  8
1
  6
CONTINUOUS
 62
           3
100
AcDbLine
 10
399.5075370422
 20
13405.491467022401
 11
399.5075370422
 21
13402.491467022401
  0
LINE
  5
182
100
AcDbEntity
  8
1
  6
CONTINUOUS
 62
           3
100
AcDbLine
 10
399.5075370422
 20
13402.491467022401
 11
374.5075370422
 21
13402.491467022401
  0
LINE
  5
181
100
AcDbEntity
  8
1
  6
CONTINUOUS
 62
           3
100
AcDbLine
 10
399.5075370422
 20
13412.491467022401
 11
399.5075370422
 21
13405.491467022401
  0
LINE
  5
180
100
AcDbEntity
  8
1
  6
CONTINUOUS
 62
           3
100
AcDbLine
 10
374.5075370422
 20
13412.491467022401
 11
399.5075370422
 21
13412.491467022401
  0
LINE
  5
17F
100
AcDbEntity
  8
1
  6
CONTINUOUS
 62
           3
100
AcDbLine
 10
374.5075370422
 20
13402.491467022401
 11
363.0075370422
 21
13402.491467022401
  0
LINE
  5
17E
100
AcDbEntity
  8
1
  6
CONTINUOUS
 62
           3
100
AcDbLine
 10
374.5075370422
 20
13402.491467022401
 11
374.5075370422
 21
13405.491467022401
  0
LINE
  5
17D
100
AcDbEntity
  8
1
  6
CONTINUOUS
 62
           3
100
AcDbLine
 10
363.0075370422
 20
13402.491467022401
 11
360.0075370422
 21
13402.491467022401
  0
LINE
  5
17C
100
AcDbEntity
  8
1
  6
CONTINUOUS
 62
           3
100
AcDbLine
 10
411.0075370422
 20
13402.491467022401
 11
399.5075370422
 21
13402.491467022401
  0
LINE
  5
17B
100
AcDbEntity
  8
1
  6
CONTINUOUS
 62
           3
100
AcDbLine
 10
360.0075370422
 20
13408.967685276881
 11
360.0075370422
 21
13402.491467022401
  0
LINE
  5
17A
100
AcDbEntity
  8
1
  6
CONTINUOUS
 62
           3
100
AcDbLine
 10
414.0075370422
 20
13408.967685276881
 11
414.0075370422
 21
13402.491467022401
  0
LINE
  5
179
100
AcDbEntity
  8
1
  6
CONTINUOUS
 62
           3
100
AcDbLine
 10
414.0075370422
 20
13402.491467022401
 11
411.0075370422
 21
13402.491467022401
  0
LINE
  5
178
100
AcDbEntity
  8
1
  6
CONTINUOUS
 62
           3
100
AcDbLine
 10
360.0075370422
 20
13402.491467022401
 11
357.0075370422
 21
13402.491467022401
  0
LINE
  5
177
100
AcDbEntity
  8
1
  6
CONTINUOUS
 62
           3
100
AcDbLine
 10
417.0075370422
 20
13402.491467022401
 11
414.0075370422
 21
13402.491467022401
  0
LINE
  5
176
100
AcDbEntity
  8
1
  6
CONTINUOUS
 62
           3
100
AcDbLine
 10
357.0075370422
 20
13402.491467022401
 11
315.0075370422
 21
13402.491467022401
  0
LINE
  5
175
100
AcDbEntity
  8
1
  6
CONTINUOUS
 62
           3
100
AcDbLine
 10
417.0075370422
 20
13717.491467022401
 11
414.0075370422
 21
13717.491467022401
  0
LINE
  5
174
100
AcDbEntity
  8
1
  6
CONTINUOUS
 62
           3
100
AcDbLine
 10
417.0075370422
 20
13405.491467022401
 11
417.0075370422
 21
13576.56745951771
  0
LINE
  5
173
100
AcDbEntity
  8
1
  6
CONTINUOUS
 62
           3
100
AcDbLine
 10
315.0075370422
 20
13402.491467022401
 11
315.0075370422
 21
13405.491467022401
  0
LINE
  5
172
100
AcDbEntity
  8
1
  6
CONTINUOUS
 62
           3
100
AcDbLine
 10
459.0075370422
 20
13402.491467022401
 11
417.0075370422
 21
13402.491467022401
  0
LINE
  5
171
100
AcDbEntity
  8
1
  6
CONTINUOUS
 62
           3
100
AcDbLine
 10
459.0075370422
 20
13405.491467022401
 11
459.0075370422
 21
13402.491467022401
  0
LINE
  5
170
100
AcDbEntity
  8
1
  6
CONTINUOUS
 62
           3
100
AcDbLine
 10
315.0075370422
 20
13405.491467022401
 11
363.483755296678
 21
13405.491467022401
  0
LINE
  5
16F
100
AcDbEntity
  8
1
  6
CONTINUOUS
 62
           3
100
AcDbLine
 10
410.53131878679
 20
13405.491467022401
 11
459.0075370422
 21
13405.491467022401
  0
LINE
  5
16E
100
AcDbEntity
  8
1
  6
CONTINUOUS
 62
           3
100
AcDbLine
 10
363.483755296678
 20
13405.491467022401
 11
410.53131878679
 21
13405.491467022401
  0
LINE
  5
16D
100
AcDbEntity
  8
1
  6
CONTINUOUS
 62
           3
100
AcDbLine
 10
1044.788934451672
 20
13654.491467022401
 11
1045.788934451672
 21
13654.491467022401
  0
LINE
  5
16C
100
AcDbEntity
  8
1
  6
CONTINUOUS
 62
           3
100
AcDbLine
 10
1045.788934451672
 20
13654.491467022401
 11
1045.788934451672
 21
13653.491467022401
  0
LINE
  5
16B
100
AcDbEntity
  8
1
  6
CONTINUOUS
 62
           3
100
AcDbLine
 10
1045.788934451672
 20
13650.491467022401
 11
1044.788934451672
 21
13650.491467022401
  0
LINE
  5
16A
100
AcDbEntity
  8
1
  6
CONTINUOUS
 62
           3
100
AcDbLine
 10
1044.788934451672
 20
13650.491467022401
 11
1044.788934451672
 21
13651.491467022401
  0
LINE
  5
169
100
AcDbEntity
  8
1
  6
CONTINUOUS
 62
           3
100
AcDbLine
 10
1043.288934451672
 20
13652.991467022401
 11
1044.288934451672
 21
13652.991467022401
  0
LINE
  5
168
100
AcDbEntity
  8
1
  6
CONTINUOUS
 62
           3
100
AcDbLine
 10
1047.288934451672
 20
13652.991467022401
 11
1047.288934451672
 21
13651.991467022401
  0
LINE
  5
167
100
AcDbEntity
  8
1
  6
CONTINUOUS
 62
           3
100
AcDbLine
 10
1047.288934451672
 20
13651.991467022401
 11
1046.288934451672
 21
13651.991467022401
  0
LINE
  5
166
100
AcDbEntity
  8
1
  6
CONTINUOUS
 62
           3
100
AcDbLine
 10
1043.288934451672
 20
13651.991467022401
 11
1043.288934451672
 21
13652.991467022401
  0
LINE
  5
165
100
AcDbEntity
  8
1
  6
CONTINUOUS
 62
           3
100
AcDbLine
 10
1044.788934451672
 20
13653.491467022401
 11
1044.788934451672
 21
13654.491467022401
  0
LINE
  5
164
100
AcDbEntity
  8
1
  6
CONTINUOUS
 62
           3
100
AcDbLine
 10
1046.288934451672
 20
13652.991467022401
 11
1047.288934451672
 21
13652.991467022401
  0
LINE
  5
163
100
AcDbEntity
  8
1
  6
CONTINUOUS
 62
           3
100
AcDbLine
 10
1044.288934451672
 20
13651.991467022401
 11
1043.288934451672
 21
13651.991467022401
  0
LINE
  5
162
100
AcDbEntity
  8
1
  6
CONTINUOUS
 62
           3
100
AcDbLine
 10
1045.788934451672
 20
13651.491467022401
 11
1045.788934451672
 21
13650.491467022401
  0
LINE
  5
161
100
AcDbEntity
  8
1
  6
CONTINUOUS
 62
           3
100
AcDbLine
 10
1014.788934451672
 20
13650.491467022401
 11
1014.788934451672
 21
13651.491467022401
  0
LINE
  5
160
100
AcDbEntity
  8
1
  6
CONTINUOUS
 62
           3
100
AcDbLine
 10
1017.288934451672
 20
13651.991467022401
 11
1016.288934451672
 21
13651.991467022401
  0
LINE
  5
15F
100
AcDbEntity
  8
1
  6
CONTINUOUS
 62
           3
100
AcDbLine
 10
1013.288934451672
 20
13652.991467022401
 11
1014.288934451672
 21
13652.991467022401
  0
LINE
  5
15E
100
AcDbEntity
  8
1
  6
CONTINUOUS
 62
           3
100
AcDbLine
 10
1015.788934451672
 20
13654.491467022401
 11
1015.788934451672
 21
13653.491467022401
  0
LINE
  5
15D
100
AcDbEntity
  8
1
  6
CONTINUOUS
 62
           3
100
AcDbLine
 10
1017.288934451672
 20
13652.991467022401
 11
1017.288934451672
 21
13651.991467022401
  0
LINE
  5
15C
100
AcDbEntity
  8
1
  6
CONTINUOUS
 62
           3
100
AcDbLine
 10
1014.288934451672
 20
13651.991467022401
 11
1013.288934451672
 21
13651.991467022401
  0
LINE
  5
15B
100
AcDbEntity
  8
1
  6
CONTINUOUS
 62
           3
100
AcDbLine
 10
1013.288934451672
 20
13651.991467022401
 11
1013.288934451672
 21
13652.991467022401
  0
LINE
  5
15A
100
AcDbEntity
  8
1
  6
CONTINUOUS
 62
           3
100
AcDbLine
 10
1016.288934451672
 20
13652.991467022401
 11
1017.288934451672
 21
13652.991467022401
  0
LINE
  5
159
100
AcDbEntity
  8
1
  6
CONTINUOUS
 62
           3
100
AcDbLine
 10
1015.788934451672
 20
13651.491467022401
 11
1015.788934451672
 21
13650.491467022401
  0
LINE
  5
158
100
AcDbEntity
  8
1
  6
CONTINUOUS
 62
           3
100
AcDbLine
 10
1015.788934451672
 20
13650.491467022401
 11
1014.788934451672
 21
13650.491467022401
  0
LINE
  5
157
100
AcDbEntity
  8
1
  6
CONTINUOUS
 62
           3
100
AcDbLine
 10
1014.788934451672
 20
13653.491467022401
 11
1014.788934451672
 21
13654.491467022401
  0
LINE
  5
156
100
AcDbEntity
  8
1
  6
CONTINUOUS
 62
           3
100
AcDbLine
 10
1014.788934451672
 20
13654.491467022401
 11
1015.788934451672
 21
13654.491467022401
  0
LINE
  5
155
100
AcDbEntity
  8
1
  6
CONTINUOUS
 62
           3
100
AcDbLine
 10
1015.788934451672
 20
13595.491467022401
 11
1014.788934451672
 21
13595.491467022401
  0
LINE
  5
154
100
AcDbEntity
  8
1
  6
CONTINUOUS
 62
           3
100
AcDbLine
 10
1014.788934451672
 20
13595.491467022401
 11
1014.788934451672
 21
13596.491467022401
  0
LINE
  5
153
100
AcDbEntity
  8
1
  6
CONTINUOUS
 62
           3
100
AcDbLine
 10
1014.788934451672
 20
13599.491467022401
 11
1015.788934451672
 21
13599.491467022401
  0
LINE
  5
152
100
AcDbEntity
  8
1
  6
CONTINUOUS
 62
           3
100
AcDbLine
 10
1015.788934451672
 20
13599.491467022401
 11
1015.788934451672
 21
13598.491467022401
  0
LINE
  5
151
100
AcDbEntity
  8
1
  6
CONTINUOUS
 62
           3
100
AcDbLine
 10
1017.288934451672
 20
13596.991467022401
 11
1016.288934451672
 21
13596.991467022401
  0
LINE
  5
150
100
AcDbEntity
  8
1
  6
CONTINUOUS
 62
           3
100
AcDbLine
 10
1013.288934451672
 20
13596.991467022401
 11
1013.288934451672
 21
13597.991467022401
  0
LINE
  5
14F
100
AcDbEntity
  8
1
  6
CONTINUOUS
 62
           3
100
AcDbLine
 10
1013.288934451672
 20
13597.991467022401
 11
1014.288934451672
 21
13597.991467022401
  0
LINE
  5
14E
100
AcDbEntity
  8
1
  6
CONTINUOUS
 62
           3
100
AcDbLine
 10
1017.288934451672
 20
13597.991467022401
 11
1017.288934451672
 21
13596.991467022401
  0
LINE
  5
14D
100
AcDbEntity
  8
1
  6
CONTINUOUS
 62
           3
100
AcDbLine
 10
1015.788934451672
 20
13596.491467022401
 11
1015.788934451672
 21
13595.491467022401
  0
LINE
  5
14C
100
AcDbEntity
  8
1
  6
CONTINUOUS
 62
           3
100
AcDbLine
 10
1014.288934451672
 20
13596.991467022401
 11
1013.288934451672
 21
13596.991467022401
  0
LINE
  5
14B
100
AcDbEntity
  8
1
  6
CONTINUOUS
 62
           3
100
AcDbLine
 10
1016.288934451672
 20
13597.991467022401
 11
1017.288934451672
 21
13597.991467022401
  0
LINE
  5
14A
100
AcDbEntity
  8
1
  6
CONTINUOUS
 62
           3
100
AcDbLine
 10
1014.788934451672
 20
13598.491467022401
 11
1014.788934451672
 21
13599.491467022401
  0
LINE
  5
149
100
AcDbEntity
  8
1
  6
CONTINUOUS
 62
           3
100
AcDbLine
 10
1045.788934451672
 20
13599.491467022401
 11
1045.788934451672
 21
13598.491467022401
  0
LINE
  5
148
100
AcDbEntity
  8
1
  6
CONTINUOUS
 62
           3
100
AcDbLine
 10
1043.288934451672
 20
13597.991467022401
 11
1044.288934451672
 21
13597.991467022401
  0
LINE
  5
147
100
AcDbEntity
  8
1
  6
CONTINUOUS
 62
           3
100
AcDbLine
 10
1047.288934451672
 20
13596.991467022401
 11
1046.288934451672
 21
13596.991467022401
  0
LINE
  5
146
100
AcDbEntity
  8
1
  6
CONTINUOUS
 62
           3
100
AcDbLine
 10
1044.788934451672
 20
13595.491467022401
 11
1044.788934451672
 21
13596.491467022401
  0
LINE
  5
145
100
AcDbEntity
  8
1
  6
CONTINUOUS
 62
           3
100
AcDbLine
 10
1043.288934451672
 20
13596.991467022401
 11
1043.288934451672
 21
13597.991467022401
  0
LINE
  5
144
100
AcDbEntity
  8
1
  6
CONTINUOUS
 62
           3
100
AcDbLine
 10
1046.288934451672
 20
13597.991467022401
 11
1047.288934451672
 21
13597.991467022401
  0
LINE
  5
143
100
AcDbEntity
  8
1
  6
CONTINUOUS
 62
           3
100
AcDbLine
 10
1047.288934451672
 20
13597.991467022401
 11
1047.288934451672
 21
13596.991467022401
  0
LINE
  5
142
100
AcDbEntity
  8
1
  6
CONTINUOUS
 62
           3
100
AcDbLine
 10
1044.288934451672
 20
13596.991467022401
 11
1043.288934451672
 21
13596.991467022401
  0
LINE
  5
141
100
AcDbEntity
  8
1
  6
CONTINUOUS
 62
           3
100
AcDbLine
 10
1044.788934451672
 20
13598.491467022401
 11
1044.788934451672
 21
13599.491467022401
  0
LINE
  5
140
100
AcDbEntity
  8
1
  6
CONTINUOUS
 62
           3
100
AcDbLine
 10
1044.788934451672
 20
13599.491467022401
 11
1045.788934451672
 21
13599.491467022401
  0
LINE
  5
13F
100
AcDbEntity
  8
1
  6
CONTINUOUS
 62
           3
100
AcDbLine
 10
1045.788934451672
 20
13596.491467022401
 11
1045.788934451672
 21
13595.491467022401
  0
LINE
  5
13E
100
AcDbEntity
  8
1
  6
CONTINUOUS
 62
           3
100
AcDbLine
 10
1045.788934451672
 20
13595.491467022401
 11
1044.788934451672
 21
13595.491467022401
  0
LINE
  5
13D
100
AcDbEntity
  8
1
  6
DOT_CENTER
 62
           1
100
AcDbLine
 10
1049.805812162244
 20
13597.491467022401
 11
1010.047037210618
 21
13597.491467022401
  0
LINE
  5
13C
100
AcDbEntity
  8
1
  6
DOT_CENTER
 62
           1
100
AcDbLine
 10
1049.805812162244
 20
13652.491467022401
 11
1010.047037210618
 21
13652.491467022401
  0
LINE
  5
13B
100
AcDbEntity
  8
1
  6
CONTINUOUS
 62
           3
100
AcDbLine
 10
902.460408193442
 20
13717.491467022401
 11
902.460408193442
 21
13405.491467022401
  0
LINE
  5
13A
100
AcDbEntity
  8
1
  6
CONTINUOUS
 62
           3
100
AcDbLine
 10
902.460408193442
 20
13657.491467022401
 11
902.960408193442
 21
13657.491467022401
  0
LINE
  5
139
100
AcDbEntity
  8
1
  6
CONTINUOUS
 62
           3
100
AcDbLine
 10
902.460408193442
 20
13647.491467022401
 11
902.960408193442
 21
13647.491467022401
  0
LINE
  5
138
100
AcDbEntity
  8
1
  6
CONTINUOUS
 62
           1
100
AcDbLine
 10
902.960408193442
 20
13657.491467022401
 11
902.960408193442
 21
13647.491467022401
  0
LINE
  5
137
100
AcDbEntity
  8
1
  6
CONTINUOUS
 62
           1
100
AcDbLine
 10
902.960408193442
 20
13602.491467022401
 11
902.960408193442
 21
13592.491467022401
  0
LINE
  5
136
100
AcDbEntity
  8
1
  6
CONTINUOUS
 62
           3
100
AcDbLine
 10
902.460408193442
 20
13592.491467022401
 11
902.960408193442
 21
13592.491467022401
  0
LINE
  5
135
100
AcDbEntity
  8
1
  6
CONTINUOUS
 62
           3
100
AcDbLine
 10
902.460408193442
 20
13602.491467022401
 11
902.960408193442
 21
13602.491467022401
  0
LINE
  5
134
100
AcDbEntity
  8
1
  6
CONTINUOUS
 62
           3
100
AcDbLine
 10
357.0075370422
 20
13717.491467022401
 11
357.0075370422
 21
13673.41547452707
  0
LINE
  5
133
100
AcDbEntity
  8
1
  6
CONTINUOUS
 62
           3
100
AcDbLine
 10
360.0075370422
 20
13717.491467022401
 11
360.0075370422
 21
13671.36107002427
  0
LINE
  5
132
100
AcDbEntity
  8
1
  6
DOT_CENTER
 62
           1
100
AcDbLine
 10
387.0075370422
 20
13724.516405973191
 11
387.0075370422
 21
13389.129425521591
  0
LINE
  5
131
100
AcDbEntity
  8
1
  6
DOT_CENTER
 62
           1
100
AcDbLine
 10
1045.288934451672
 20
13478.0409748492
 11
1045.288934451672
 21
13720.39883524196
  0
LINE
  5
130
100
AcDbEntity
  8
1
  6
CONTINUOUS
 62
           3
100
AcDbLine
 10
1057.288934451672
 20
13717.491467022401
 11
1000.288934451672
 21
13717.491467022401
  0
LINE
  5
12F
100
AcDbEntity
  8
1
  6
DOT_CENTER
 62
           1
100
AcDbLine
 10
899.460408193442
 20
13936.47602581389
 11
908.330408193442
 21
13936.47602581389
  0
LINE
  5
12E
100
AcDbEntity
  8
1
  6
CONTINUOUS
 62
           3
100
AcDbLine
 10
899.460408193442
 20
13936.47602581389
 11
899.460408193442
 21
13948.97602581389
  0
LINE
  5
12D
100
AcDbEntity
  8
1
  6
CONTINUOUS
 62
           3
100
AcDbLine
 10
899.460408193442
 20
13936.47602581389
 11
899.460408193442
 21
13911.47602581389
  0
LINE
  5
12C
100
AcDbEntity
  8
1
  6
DOT_CENTER
 62
           1
100
AcDbLine
 10
899.460408193442
 20
13911.47602581389
 11
907.420408193442
 21
13911.47602581389
  0
LINE
  5
12B
100
AcDbEntity
  8
1
  6
CONTINUOUS
 62
           3
100
AcDbLine
 10
899.460408193442
 20
13911.47602581389
 11
899.460408193442
 21
13936.47602581389
  0
LINE
  5
12A
100
AcDbEntity
  8
1
  6
CONTINUOUS
 62
           3
100
AcDbLine
 10
899.460408193442
 20
13911.47602581389
 11
899.460408193442
 21
13896.97602581389
  0
LINE
  5
129
100
AcDbEntity
  8
1
  6
CONTINUOUS
 62
           3
100
AcDbLine
 10
595.960408193442
 20
13617.491467022401
 11
595.960408193442
 21
13632.491467022401
  0
LINE
  5
128
100
AcDbEntity
  8
1
  6
CONTINUOUS
 62
           3
100
AcDbLine
 10
619.960408193442
 20
13614.491467022401
 11
598.960408193442
 21
13614.491467022401
  0
LINE
  5
127
100
AcDbEntity
  8
1
  6
CONTINUOUS
 62
           3
100
AcDbLine
 10
622.960408193442
 20
13632.491467022401
 11
622.960408193442
 21
13617.491467022401
  0
LINE
  5
126
100
AcDbEntity
  8
1
  6
CONTINUOUS
 62
           3
100
AcDbLine
 10
598.960408193442
 20
13635.491467022401
 11
619.960408193442
 21
13635.491467022401
  0
LINE
  5
125
100
AcDbEntity
  8
1
  6
CONTINUOUS
 62
           3
100
AcDbLine
 10
630.960408193442
 20
13617.491467022401
 11
630.960408193442
 21
13632.491467022401
  0
LINE
  5
124
100
AcDbEntity
  8
1
  6
CONTINUOUS
 62
           3
100
AcDbLine
 10
654.960408193442
 20
13614.491467022401
 11
633.960408193442
 21
13614.491467022401
  0
LINE
  5
123
100
AcDbEntity
  8
1
  6
CONTINUOUS
 62
           3
100
AcDbLine
 10
657.960408193442
 20
13632.491467022401
 11
657.960408193442
 21
13617.491467022401
  0
LINE
  5
122
100
AcDbEntity
  8
1
  6
CONTINUOUS
 62
           3
100
AcDbLine
 10
633.960408193442
 20
13635.491467022401
 11
654.960408193442
 21
13635.491467022401
  0
LINE
  5
121
100
AcDbEntity
  8
1
  6
DOTTED
 62
           1
100
AcDbLine
 10
602.960408193442
 20
13602.491467022401
 11
592.960408193442
 21
13602.491467022401
  0
LINE
  5
120
100
AcDbEntity
  8
1
  6
CONTINUOUS
 62
           3
100
AcDbLine
 10
592.960408193442
 20
13602.491467022401
 11
592.960408193442
 21
13609.991467022401
  0
LINE
  5
11F
100
AcDbEntity
  8
1
  6
CONTINUOUS
 62
           3
100
AcDbLine
 10
602.960408193442
 20
13602.491467022401
 11
602.960408193442
 21
13579.991467022401
  0
LINE
  5
11E
100
AcDbEntity
  8
1
  6
CONTINUOUS
 62
           3
100
AcDbLine
 10
592.960408193442
 20
13602.491467022401
 11
566.960408193442
 21
13602.491467022401
  0
LINE
  5
11D
100
AcDbEntity
  8
1
  6
CONTINUOUS
 62
           3
100
AcDbLine
 10
698.210408193442
 20
13602.491467022401
 11
602.960408193442
 21
13602.491467022401
  0
LINE
  5
11C
100
AcDbEntity
  8
1
  6
CONTINUOUS
 62
           3
100
AcDbLine
 10
592.960408193442
 20
13609.991467022401
 11
592.960408193442
 21
13613.991467022401
  0
LINE
  5
11B
100
AcDbEntity
  8
1
  6
CONTINUOUS
 62
           3
100
AcDbLine
 10
602.960408193442
 20
13609.991467022401
 11
602.960408193442
 21
13602.491467022401
  0
LINE
  5
11A
100
AcDbEntity
  8
1
  6
DOT_CENTER
 62
           1
100
AcDbLine
 10
571.960408193442
 20
13639.991467022401
 11
571.960408193442
 21
13593.424286174841
  0
LINE
  5
119
100
AcDbEntity
  8
1
  6
CONTINUOUS
 62
           3
100
AcDbLine
 10
539.460408193442
 20
13644.491467022401
 11
511.460408193442
 21
13644.491467022401
  0
LINE
  5
118
100
AcDbEntity
  8
1
  6
CONTINUOUS
 62
           3
100
AcDbLine
 10
539.460408193442
 20
13605.491467022401
 11
511.460408193442
 21
13605.491467022401
  0
LINE
  5
117
100
AcDbEntity
  8
1
  6
DOT_CENTER
 62
           1
100
AcDbLine
 10
539.460408193442
 20
13654.716082795851
 11
539.460408193442
 21
13593.414864178911
  0
LINE
  5
116
100
AcDbEntity
  8
1
  6
CONTINUOUS
 62
           3
100
AcDbLine
 10
548.062733460485
 20
13642.491467022401
 11
556.960408193442
 21
13642.491467022401
  0
LINE
  5
115
100
AcDbEntity
  8
1
  6
CONTINUOUS
 62
           3
100
AcDbLine
 10
558.960408193442
 20
13640.491467022401
 11
558.960408193442
 21
13609.491467022401
  0
LINE
  5
114
100
AcDbEntity
  8
1
  6
CONTINUOUS
 62
           3
100
AcDbLine
 10
556.960408193442
 20
13607.491467022401
 11
548.062733460485
 21
13607.491467022401
  0
LINE
  5
113
100
AcDbEntity
  8
1
  6
CONTINUOUS
 62
           3
100
AcDbLine
 10
560.960408193442
 20
13632.991467022401
 11
582.460408193442
 21
13632.991467022401
  0
LINE
  5
112
100
AcDbEntity
  8
1
  6
CONTINUOUS
 62
           3
100
AcDbLine
 10
582.960408193442
 20
13632.491467022401
 11
582.960408193442
 21
13617.491467022401
  0
LINE
  5
111
100
AcDbEntity
  8
1
  6
CONTINUOUS
 62
           3
100
AcDbLine
 10
717.960408193442
 20
13646.991467022401
 11
717.960408193442
 21
13602.991467022401
  0
LINE
  5
110
100
AcDbEntity
  8
1
  6
CONTINUOUS
 62
           3
100
AcDbLine
 10
717.460408193442
 20
13602.491467022401
 11
715.710408193442
 21
13602.491467022401
  0
LINE
  5
10F
100
AcDbEntity
  8
1
  6
CONTINUOUS
 62
           3
100
AcDbLine
 10
560.960408193442
 20
13602.991467022401
 11
560.960408193442
 21
13614.491467022401
  0
LINE
  5
10E
100
AcDbEntity
  8
1
  6
CONTINUOUS
 62
           3
100
AcDbLine
 10
571.960408193442
 20
13639.991467022401
 11
706.960408193442
 21
13639.991467022401
  0
LINE
  5
10D
100
AcDbEntity
  8
1
  6
CONTINUOUS
 62
           3
100
AcDbLine
 10
706.960408193442
 20
13609.991467022401
 11
602.960408193442
 21
13609.991467022401
  0
LINE
  5
10C
100
AcDbEntity
  8
1
  6
CONTINUOUS
 62
           3
100
AcDbLine
 10
561.460408193442
 20
13634.991467022401
 11
582.960408193442
 21
13634.991467022401
  0
LINE
  5
10B
100
AcDbEntity
  8
1
  6
CONTINUOUS
 62
           3
100
AcDbLine
 10
584.960408193442
 20
13632.991467022401
 11
584.960408193442
 21
13616.991467022401
  0
LINE
  5
10A
100
AcDbEntity
  8
1
  6
CONTINUOUS
 62
           3
100
AcDbLine
 10
560.960408193442
 20
13635.491467022401
 11
560.960408193442
 21
13646.991467022401
  0
LINE
  5
109
100
AcDbEntity
  8
1
  6
DOT_CENTER
 62
           1
100
AcDbLine
 10
571.960408193442
 20
13658.28444961843
 11
571.960408193442
 21
13639.991467022401
  0
LINE
  5
108
100
AcDbEntity
  8
1
  6
CONTINUOUS
 62
           3
100
AcDbLine
 10
668.960408193442
 20
13635.491467022401
 11
689.960408193442
 21
13635.491467022401
  0
LINE
  5
107
100
AcDbEntity
  8
1
  6
CONTINUOUS
 62
           3
100
AcDbLine
 10
692.960408193442
 20
13632.491467022401
 11
692.960408193442
 21
13617.491467022401
  0
LINE
  5
106
100
AcDbEntity
  8
1
  6
CONTINUOUS
 62
           3
100
AcDbLine
 10
689.960408193442
 20
13614.491467022401
 11
668.960408193442
 21
13614.491467022401
  0
LINE
  5
105
100
AcDbEntity
  8
1
  6
CONTINUOUS
 62
           3
100
AcDbLine
 10
665.960408193442
 20
13617.491467022401
 11
665.960408193442
 21
13632.491467022401
  0
LINE
  5
104
100
AcDbEntity
  8
1
  6
CONTINUOUS
 62
           3
100
AcDbLine
 10
563.210408193442
 20
13634.991467022401
 11
563.210408193442
 21
13632.991467022401
  0
LINE
  5
103
100
AcDbEntity
  8
1
  6
CONTINUOUS
 62
           3
100
AcDbLine
 10
580.710408193442
 20
13634.991467022401
 11
580.710408193442
 21
13632.991467022401
  0
LINE
  5
102
100
AcDbEntity
  8
1
  6
CONTINUOUS
 62
           3
100
AcDbLine
 10
563.210408193442
 20
13616.991467022401
 11
563.210408193442
 21
13614.991467022401
  0
LINE
  5
101
100
AcDbEntity
  8
1
  6
CONTINUOUS
 62
           3
100
AcDbLine
 10
582.460408193442
 20
13616.991467022401
 11
560.960408193442
 21
13616.991467022401
  0
LINE
  5
100
100
AcDbEntity
  8
1
  6
CONTINUOUS
 62
           3
100
AcDbLine
 10
582.960408193442
 20
13614.991467022401
 11
561.460408193442
 21
13614.991467022401
  0
LINE
  5
FF
100
AcDbEntity
  8
1
  6
CONTINUOUS
 62
           3
100
AcDbLine
 10
580.710408193442
 20
13616.991467022401
 11
580.710408193442
 21
13614.991467022401
  0
LINE
  5
FE
100
AcDbEntity
  8
1
  6
CONTINUOUS
 62
           3
100
AcDbLine
 10
690.460408193442
 20
13674.991467022401
 11
887.460408193442
 21
13674.991467022401
  0
LINE
  5
FD
100
AcDbEntity
  8
1
  6
CONTINUOUS
 62
           3
100
AcDbLine
 10
887.960408193442
 20
13674.491467022401
 11
887.960408193442
 21
13650.491467022401
  0
LINE
  5
FC
100
AcDbEntity
  8
1
  6
CONTINUOUS
 62
           3
100
AcDbLine
 10
887.460408193442
 20
13574.991467022401
 11
861.960408193442
 21
13574.991467022401
  0
LINE
  5
FB
100
AcDbEntity
  8
1
  6
CONTINUOUS
 62
           3
100
AcDbLine
 10
689.960408193442
 20
13575.491467022401
 11
689.960408193442
 21
13599.991467022401
  0
LINE
  5
FA
100
AcDbEntity
  8
1
  6
CONTINUOUS
 62
           3
100
AcDbLine
 10
863.960408193442
 20
13602.991467022401
 11
863.960408193442
 21
13646.991467022401
  0
LINE
  5
F9
100
AcDbEntity
  8
1
  6
CONTINUOUS
 62
           3
100
AcDbLine
 10
716.960408193442
 20
13599.991467022401
 11
715.710408193442
 21
13599.991467022401
  0
LINE
  5
F8
100
AcDbEntity
  8
1
  6
CONTINUOUS
 62
           3
100
AcDbLine
 10
689.960408193442
 20
13650.491467022401
 11
689.960408193442
 21
13674.491467022401
  0
LINE
  5
F7
100
AcDbEntity
  8
1
  6
CONTINUOUS
 62
           3
100
AcDbLine
 10
715.710408193442
 20
13649.991467022401
 11
849.960408193442
 21
13649.991467022401
  0
LINE
  5
F6
100
AcDbEntity
  8
1
  6
CONTINUOUS
 62
           3
100
AcDbLine
 10
887.460408193442
 20
13599.991467022401
 11
885.710408193442
 21
13599.991467022401
  0
LINE
  5
F5
100
AcDbEntity
  8
1
  6
CONTINUOUS
 62
           3
100
AcDbLine
 10
852.960408193442
 20
13646.991467022401
 11
852.960408193442
 21
13602.991467022401
  0
LINE
  5
F4
100
AcDbEntity
  8
1
  6
CONTINUOUS
 62
           3
100
AcDbLine
 10
887.960408193442
 20
13599.491467022401
 11
887.960408193442
 21
13575.491467022401
  0
LINE
  5
F3
100
AcDbEntity
  8
1
  6
DOTTED
 62
           1
100
AcDbLine
 10
899.460408193442
 20
13674.991467022401
 11
892.460408193442
 21
13674.991467022401
  0
LINE
  5
F2
100
AcDbEntity
  8
1
  6
CONTINUOUS
 62
           3
100
AcDbLine
 10
889.460408193442
 20
13673.991467022401
 11
889.460408193442
 21
13647.991467022401
  0
LINE
  5
F1
100
AcDbEntity
  8
1
  6
CONTINUOUS
 62
           3
100
AcDbLine
 10
889.460408193442
 20
13647.991467022401
 11
885.710408193442
 21
13647.991467022401
  0
LINE
  5
F0
100
AcDbEntity
  8
1
  6
CONTINUOUS
 62
           3
100
AcDbLine
 10
865.960408193442
 20
13647.491467022401
 11
865.960408193442
 21
13602.491467022401
  0
LINE
  5
EF
100
AcDbEntity
  8
1
  6
CONTINUOUS
 62
           3
100
AcDbLine
 10
866.460408193442
 20
13601.991467022401
 11
868.210408193442
 21
13601.991467022401
  0
LINE
  5
EE
100
AcDbEntity
  8
1
  6
CONTINUOUS
 62
           3
100
AcDbLine
 10
889.460408193442
 20
13601.991467022401
 11
889.460408193442
 21
13575.991467022401
  0
LINE
  5
ED
100
AcDbEntity
  8
1
  6
CONTINUOUS
 62
           3
100
AcDbLine
 10
890.460408193442
 20
13574.991467022401
 11
892.460408193442
 21
13574.991467022401
  0
LINE
  5
EC
100
AcDbEntity
  8
1
  6
CONTINUOUS
 62
           3
100
AcDbLine
 10
889.460408193442
 20
13647.991467022401
 11
889.460408193442
 21
13601.991467022401
  0
LINE
  5
EB
100
AcDbEntity
  8
1
  6
CONTINUOUS
 62
           3
100
AcDbLine
 10
706.960408193442
 20
13666.991467022401
 11
876.960408193442
 21
13666.991467022401
  0
LINE
  5
EA
100
AcDbEntity
  8
1
  6
CONTINUOUS
 62
           3
100
AcDbLine
 10
876.960408193442
 20
13654.991467022401
 11
706.960408193442
 21
13654.991467022401
  0
LINE
  5
E9
100
AcDbEntity
  8
1
  6
CONTINUOUS
 62
           3
100
AcDbLine
 10
706.960408193442
 20
13594.991467022401
 11
876.960408193442
 21
13594.991467022401
  0
LINE
  5
E8
100
AcDbEntity
  8
1
  6
CONTINUOUS
 62
           3
100
AcDbLine
 10
876.960408193442
 20
13582.991467022401
 11
861.960408193442
 21
13582.991467022401
  0
LINE
  5
E7
100
AcDbEntity
  8
1
  6
CONTINUOUS
 62
           3
100
AcDbLine
 10
778.460408193442
 20
13663.991467022401
 11
805.460408193442
 21
13663.991467022401
  0
LINE
  5
E6
100
AcDbEntity
  8
1
  6
CONTINUOUS
 62
           3
100
AcDbLine
 10
778.460408193442
 20
13656.991467022401
 11
805.460408193442
 21
13656.991467022401
  0
LINE
  5
E5
100
AcDbEntity
  8
1
  6
CONTINUOUS
 62
           3
100
AcDbLine
 10
828.460408193442
 20
13656.991467022401
 11
855.460408193442
 21
13656.991467022401
  0
LINE
  5
E4
100
AcDbEntity
  8
1
  6
CONTINUOUS
 62
           3
100
AcDbLine
 10
828.460408193442
 20
13663.991467022401
 11
855.460408193442
 21
13663.991467022401
  0
LINE
  5
E3
100
AcDbEntity
  8
1
  6
CONTINUOUS
 62
           3
100
AcDbLine
 10
728.460408193442
 20
13663.991467022401
 11
755.460408193442
 21
13663.991467022401
  0
LINE
  5
E2
100
AcDbEntity
  8
1
  6
CONTINUOUS
 62
           3
100
AcDbLine
 10
728.460408193442
 20
13656.991467022401
 11
755.460408193442
 21
13656.991467022401
  0
LINE
  5
E1
100
AcDbEntity
  8
1
  6
CONTINUOUS
 62
           3
100
AcDbLine
 10
755.460408193442
 20
13592.991467022401
 11
728.460408193442
 21
13592.991467022401
  0
LINE
  5
E0
100
AcDbEntity
  8
1
  6
CONTINUOUS
 62
           3
100
AcDbLine
 10
755.460408193442
 20
13585.991467022401
 11
731.960408193442
 21
13585.991467022401
  0
LINE
  5
DF
100
AcDbEntity
  8
1
  6
DOTTED
 62
           1
100
AcDbLine
 10
855.460408193442
 20
13585.991467022401
 11
851.960408193442
 21
13585.991467022401
  0
LINE
  5
DE
100
AcDbEntity
  8
1
  6
CONTINUOUS
 62
           3
100
AcDbLine
 10
855.460408193442
 20
13592.991467022401
 11
828.460408193442
 21
13592.991467022401
  0
LINE
  5
DD
100
AcDbEntity
  8
1
  6
CONTINUOUS
 62
           3
100
AcDbLine
 10
805.460408193442
 20
13592.991467022401
 11
778.460408193442
 21
13592.991467022401
  0
LINE
  5
DC
100
AcDbEntity
  8
1
  6
CONTINUOUS
 62
           3
100
AcDbLine
 10
805.460408193442
 20
13585.991467022401
 11
778.460408193442
 21
13585.991467022401
  0
LINE
  5
DB
100
AcDbEntity
  8
1
  6
DOT_CENTER
 62
           1
100
AcDbLine
 10
876.960408193442
 20
13684.13534076102
 11
876.960408193442
 21
13565.925340761019
  0
LINE
  5
DA
100
AcDbEntity
  8
1
  6
DOT_CENTER
 62
           1
100
AcDbLine
 10
706.960408193442
 20
13683.863603373469
 11
706.960408193442
 21
13565.38360337347
  0
LINE
  5
D9
100
AcDbEntity
  8
1
  6
CONTINUOUS
 62
           3
100
AcDbLine
 10
561.460408193442
 20
13647.491467022401
 11
698.210408193442
 21
13647.491467022401
  0
LINE
  5
D8
100
AcDbEntity
  8
1
  6
CONTINUOUS
 62
           3
100
AcDbLine
 10
690.460408193442
 20
13649.991467022401
 11
698.210408193442
 21
13649.991467022401
  0
LINE
  5
D7
100
AcDbEntity
  8
1
  6
CONTINUOUS
 62
           3
100
AcDbLine
 10
698.210408193442
 20
13649.991467022401
 11
698.210408193442
 21
13647.491467022401
  0
LINE
  5
D6
100
AcDbEntity
  8
1
  6
CONTINUOUS
 62
           3
100
AcDbLine
 10
698.210408193442
 20
13647.491467022401
 11
715.710408193442
 21
13647.491467022401
  0
LINE
  5
D5
100
AcDbEntity
  8
1
  6
CONTINUOUS
 62
           3
100
AcDbLine
 10
698.210408193442
 20
13649.991467022401
 11
715.710408193442
 21
13649.991467022401
  0
LINE
  5
D4
100
AcDbEntity
  8
1
  6
CONTINUOUS
 62
           3
100
AcDbLine
 10
715.710408193442
 20
13649.991467022401
 11
715.710408193442
 21
13647.491467022401
  0
LINE
  5
D3
100
AcDbEntity
  8
1
  6
CONTINUOUS
 62
           3
100
AcDbLine
 10
715.710408193442
 20
13647.491467022401
 11
717.460408193442
 21
13647.491467022401
  0
LINE
  5
D2
100
AcDbEntity
  8
1
  6
CONTINUOUS
 62
           3
100
AcDbLine
 10
715.710408193442
 20
13649.991467022401
 11
716.960408193442
 21
13649.991467022401
  0
LINE
  5
D1
100
AcDbEntity
  8
1
  6
CONTINUOUS
 62
           3
100
AcDbLine
 10
698.210408193442
 20
13602.491467022401
 11
698.210408193442
 21
13599.991467022401
  0
LINE
  5
D0
100
AcDbEntity
  8
1
  6
CONTINUOUS
 62
           3
100
AcDbLine
 10
698.210408193442
 20
13599.991467022401
 11
689.960408193442
 21
13599.991467022401
  0
LINE
  5
CF
100
AcDbEntity
  8
1
  6
CONTINUOUS
 62
           3
100
AcDbLine
 10
715.710408193442
 20
13602.491467022401
 11
715.710408193442
 21
13599.991467022401
  0
LINE
  5
CE
100
AcDbEntity
  8
1
  6
CONTINUOUS
 62
           3
100
AcDbLine
 10
715.710408193442
 20
13602.491467022401
 11
698.210408193442
 21
13602.491467022401
  0
LINE
  5
CD
100
AcDbEntity
  8
1
  6
CONTINUOUS
 62
           3
100
AcDbLine
 10
715.710408193442
 20
13599.991467022401
 11
698.210408193442
 21
13599.991467022401
  0
LINE
  5
CC
100
AcDbEntity
  8
1
  6
CONTINUOUS
 62
           3
100
AcDbLine
 10
868.210408193442
 20
13649.991467022401
 11
868.210408193442
 21
13647.991467022401
  0
LINE
  5
CB
100
AcDbEntity
  8
1
  6
CONTINUOUS
 62
           3
100
AcDbLine
 10
866.960408193442
 20
13649.991467022401
 11
885.710408193442
 21
13649.991467022401
  0
LINE
  5
CA
100
AcDbEntity
  8
1
  6
CONTINUOUS
 62
           3
100
AcDbLine
 10
868.210408193442
 20
13647.991467022401
 11
866.460408193442
 21
13647.991467022401
  0
LINE
  5
C9
100
AcDbEntity
  8
1
  6
CONTINUOUS
 62
           3
100
AcDbLine
 10
885.710408193442
 20
13649.991467022401
 11
885.710408193442
 21
13647.991467022401
  0
LINE
  5
C8
100
AcDbEntity
  8
1
  6
CONTINUOUS
 62
           3
100
AcDbLine
 10
885.710408193442
 20
13647.991467022401
 11
868.210408193442
 21
13647.991467022401
  0
LINE
  5
C7
100
AcDbEntity
  8
1
  6
CONTINUOUS
 62
           3
100
AcDbLine
 10
885.710408193442
 20
13649.991467022401
 11
887.460408193442
 21
13649.991467022401
  0
LINE
  5
C6
100
AcDbEntity
  8
1
  6
CONTINUOUS
 62
           3
100
AcDbLine
 10
868.210408193442
 20
13601.991467022401
 11
868.210408193442
 21
13599.991467022401
  0
LINE
  5
C5
100
AcDbEntity
  8
1
  6
CONTINUOUS
 62
           3
100
AcDbLine
 10
849.960408193442
 20
13599.991467022401
 11
715.710408193442
 21
13599.991467022401
  0
LINE
  5
C4
100
AcDbEntity
  8
1
  6
CONTINUOUS
 62
           3
100
AcDbLine
 10
868.210408193442
 20
13601.991467022401
 11
885.710408193442
 21
13601.991467022401
  0
LINE
  5
C3
100
AcDbEntity
  8
1
  6
CONTINUOUS
 62
           3
100
AcDbLine
 10
885.710408193442
 20
13601.991467022401
 11
885.710408193442
 21
13599.991467022401
  0
LINE
  5
C2
100
AcDbEntity
  8
1
  6
CONTINUOUS
 62
           3
100
AcDbLine
 10
885.710408193442
 20
13599.991467022401
 11
866.960408193442
 21
13599.991467022401
  0
LINE
  5
C1
100
AcDbEntity
  8
1
  6
CONTINUOUS
 62
           3
100
AcDbLine
 10
885.710408193442
 20
13601.991467022401
 11
889.460408193442
 21
13601.991467022401
  0
LINE
  5
C0
100
AcDbEntity
  8
1
  6
CONTINUOUS
 62
           3
100
AcDbLine
 10
593.460408193442
 20
13614.491467022401
 11
602.460408193442
 21
13614.491467022401
  0
LINE
  5
BF
100
AcDbEntity
  8
1
  6
CONTINUOUS
 62
           3
100
AcDbLine
 10
602.960408193442
 20
13613.991467022401
 11
602.960408193442
 21
13609.991467022401
  0
LINE
  5
BE
100
AcDbEntity
  8
1
  6
CONTINUOUS
 62
           3
100
AcDbLine
 10
602.460408193442
 20
13579.491467022401
 11
593.460408193442
 21
13579.491467022401
  0
LINE
  5
BD
100
AcDbEntity
  8
1
  6
DOTTED
 62
           1
100
AcDbLine
 10
602.960408193442
 20
13581.991467022401
 11
592.960408193442
 21
13581.991467022401
  0
LINE
  5
BC
100
AcDbEntity
  8
1
  6
CONTINUOUS
 62
           3
100
AcDbLine
 10
722.460408193442
 20
13587.991467022401
 11
725.298130533274
 21
13587.991467022401
  0
LINE
  5
BB
100
AcDbEntity
  8
1
  6
CONTINUOUS
 62
           3
100
AcDbLine
 10
731.960408193442
 20
13587.491467022401
 11
731.960408193442
 21
13553.491467022401
  0
LINE
  5
BA
100
AcDbEntity
  8
1
  6
CONTINUOUS
 62
           3
100
AcDbLine
 10
731.460408193442
 20
13552.991467022401
 11
722.460408193442
 21
13552.991467022401
  0
LINE
  5
B9
100
AcDbEntity
  8
1
  6
CONTINUOUS
 62
           3
100
AcDbLine
 10
852.460408193442
 20
13587.991467022401
 11
861.460408193442
 21
13587.991467022401
  0
LINE
  5
B8
100
AcDbEntity
  8
1
  6
CONTINUOUS
 62
           3
100
AcDbLine
 10
861.960408193442
 20
13587.491467022401
 11
861.960408193442
 21
13553.491467022401
  0
LINE
  5
B7
100
AcDbEntity
  8
1
  6
CONTINUOUS
 62
           3
100
AcDbLine
 10
861.460408193442
 20
13552.991467022401
 11
852.460408193442
 21
13552.991467022401
  0
LINE
  5
B6
100
AcDbEntity
  8
1
  6
DOTTED
 62
           1
100
AcDbLine
 10
851.960408193442
 20
13555.491467022401
 11
861.960408193442
 21
13555.491467022401
  0
LINE
  5
B5
100
AcDbEntity
  8
1
  6
CONTINUOUS
 62
           3
100
AcDbLine
 10
851.960408193442
 20
13585.991467022401
 11
828.460408193442
 21
13585.991467022401
  0
LINE
  5
B4
100
AcDbEntity
  8
1
  6
CONTINUOUS
 62
           3
100
AcDbLine
 10
851.960408193442
 20
13553.491467022401
 11
851.960408193442
 21
13587.491467022401
  0
LINE
  5
B3
100
AcDbEntity
  8
1
  6
CONTINUOUS
 62
           3
100
AcDbLine
 10
851.960408193442
 20
13582.991467022401
 11
731.960408193442
 21
13582.991467022401
  0
LINE
  5
B2
100
AcDbEntity
  8
1
  6
CONTINUOUS
 62
           3
100
AcDbLine
 10
851.960408193442
 20
13574.991467022401
 11
731.960408193442
 21
13574.991467022401
  0
LINE
  5
B1
100
AcDbEntity
  8
1
  6
DOTTED
 62
           1
100
AcDbLine
 10
861.960408193442
 20
13582.991467022401
 11
851.960408193442
 21
13582.991467022401
  0
LINE
  5
B0
100
AcDbEntity
  8
1
  6
DOTTED
 62
           1
100
AcDbLine
 10
861.960408193442
 20
13574.991467022401
 11
851.960408193442
 21
13574.991467022401
  0
LINE
  5
AF
100
AcDbEntity
  8
1
  6
CONTINUOUS
 62
           3
100
AcDbLine
 10
725.298130533274
 20
13587.991467022401
 11
731.460408193442
 21
13587.991467022401
  0
LINE
  5
AE
100
AcDbEntity
  8
1
  6
DOTTED
 62
           1
100
AcDbLine
 10
731.960408193442
 20
13585.991467022401
 11
728.460408193442
 21
13585.991467022401
  0
LINE
  5
AD
100
AcDbEntity
  8
1
  6
DOTTED
 62
           1
100
AcDbLine
 10
731.960408193442
 20
13582.991467022401
 11
721.960408193442
 21
13582.991467022401
  0
LINE
  5
AC
100
AcDbEntity
  8
1
  6
CONTINUOUS
 62
           3
100
AcDbLine
 10
721.960408193442
 20
13553.491467022401
 11
721.960408193442
 21
13587.491467022401
  0
LINE
  5
AB
100
AcDbEntity
  8
1
  6
CONTINUOUS
 62
           3
100
AcDbLine
 10
721.960408193442
 20
13582.991467022401
 11
706.960408193442
 21
13582.991467022401
  0
LINE
  5
AA
100
AcDbEntity
  8
1
  6
CONTINUOUS
 62
           3
100
AcDbLine
 10
721.960408193442
 20
13574.991467022401
 11
690.460408193442
 21
13574.991467022401
  0
LINE
  5
A9
100
AcDbEntity
  8
1
  6
DOTTED
 62
           1
100
AcDbLine
 10
731.960408193442
 20
13574.991467022401
 11
721.960408193442
 21
13574.991467022401
  0
LINE
  5
A8
100
AcDbEntity
  8
1
  6
DOTTED
 62
           1
100
AcDbLine
 10
721.960408193442
 20
13555.491467022401
 11
731.960408193442
 21
13555.491467022401
  0
LINE
  5
A7
100
AcDbEntity
  8
1
  6
CONTINUOUS
 62
           3
100
AcDbLine
 10
592.960408193442
 20
13609.991467022401
 11
571.960408193442
 21
13609.991467022401
  0
LINE
  5
A6
100
AcDbEntity
  8
1
  6
CONTINUOUS
 62
           3
100
AcDbLine
 10
591.960408193442
 20
13602.491467022401
 11
561.460408193442
 21
13602.491467022401
  0
LINE
  5
A5
100
AcDbEntity
  8
1
  6
DOTTED
 62
           1
100
AcDbLine
 10
602.960408193442
 20
13609.991467022401
 11
592.960408193442
 21
13609.991467022401
  0
LINE
  5
A4
100
AcDbEntity
  8
1
  6
CONTINUOUS
 62
           3
100
AcDbLine
 10
592.960408193442
 20
13579.991467022401
 11
592.960408193442
 21
13602.491467022401
  0
LINE
  5
A3
100
AcDbEntity
  8
1
  6
CONTINUOUS
 62
           3
100
AcDbLine
 10
899.460408193442
 20
13700.16741402194
 11
901.460408193442
 21
13700.16741402194
  0
LINE
  5
A2
100
AcDbEntity
  8
1
  6
DOT_CENTER
 62
           1
100
AcDbLine
 10
518.22645596188
 20
13587.491467022401
 11
501.68645596188
 21
13587.491467022401
  0
LINE
  5
A1
100
AcDbEntity
  8
1
  6
DOTTED
 62
           1
100
AcDbLine
 10
509.460408193442
 20
13590.091467022399
 11
507.460408193442
 21
13590.091467022399
  0
LINE
  5
A0
100
AcDbEntity
  8
1
  6
DOTTED
 62
           1
100
AcDbLine
 10
509.460408193442
 20
13584.8914670224
 11
507.460408193442
 21
13584.8914670224
  0
LINE
  5
9F
100
AcDbEntity
  8
1
  6
DOTTED
 62
           1
100
AcDbLine
 10
507.460408193442
 20
13665.091467022399
 11
509.460408193442
 21
13665.091467022399
  0
LINE
  5
9E
100
AcDbEntity
  8
1
  6
DOTTED
 62
           1
100
AcDbLine
 10
507.460408193442
 20
13659.8914670224
 11
509.460408193442
 21
13659.8914670224
  0
LINE
  5
9D
100
AcDbEntity
  8
1
  6
DOT_CENTER
 62
           1
100
AcDbLine
 10
501.68645596188
 20
13662.491467022401
 11
518.22645596188
 21
13662.491467022401
  0
LINE
  5
9C
100
AcDbEntity
  8
1
  6
CONTINUOUS
 62
           3
100
AcDbLine
 10
510.460408193442
 20
13607.491467022401
 11
510.460408193442
 21
13642.491467022401
  0
LINE
  5
9B
100
AcDbEntity
  8
1
  6
CONTINUOUS
 62
           3
100
AcDbLine
 10
510.460408193442
 20
13642.491467022401
 11
510.460408193442
 21
13643.491467022401
  0
LINE
  5
9A
100
AcDbEntity
  8
1
  6
CONTINUOUS
 62
           3
100
AcDbLine
 10
510.460408193442
 20
13607.491467022401
 11
509.460408193442
 21
13607.491467022401
  0
LINE
  5
99
100
AcDbEntity
  8
1
  6
CONTINUOUS
 62
           3
100
AcDbLine
 10
510.460408193442
 20
13642.491467022401
 11
509.460408193442
 21
13642.491467022401
  0
LINE
  5
98
100
AcDbEntity
  8
1
  6
CONTINUOUS
 62
           3
100
AcDbLine
 10
507.460408193442
 20
13564.991467022401
 11
507.460408193442
 21
13684.991467022401
  0
LINE
  5
97
100
AcDbEntity
  8
1
  6
CONTINUOUS
 62
           3
100
AcDbLine
 10
509.460408193442
 20
13684.991467022401
 11
509.460408193442
 21
13642.491467022401
  0
LINE
  5
96
100
AcDbEntity
  8
1
  6
CONTINUOUS
 62
           3
100
AcDbLine
 10
509.460408193442
 20
13564.991467022401
 11
507.460408193442
 21
13564.991467022401
  0
LINE
  5
95
100
AcDbEntity
  8
1
  6
CONTINUOUS
 62
           3
100
AcDbLine
 10
507.460408193442
 20
13684.991467022401
 11
509.460408193442
 21
13684.991467022401
  0
LINE
  5
94
100
AcDbEntity
  8
1
  6
CONTINUOUS
 62
           3
100
AcDbLine
 10
509.460408193442
 20
13642.491467022401
 11
509.460408193442
 21
13607.491467022401
  0
LINE
  5
93
100
AcDbEntity
  8
1
  6
CONTINUOUS
 62
           3
100
AcDbLine
 10
509.460408193442
 20
13607.491467022401
 11
509.460408193442
 21
13564.991467022401
  0
LINE
  5
92
100
AcDbEntity
  8
1
  6
DOTTED
 62
           1
100
AcDbLine
 10
509.460408193442
 20
13572.3914670224
 11
507.460408193442
 21
13572.3914670224
  0
LINE
  5
91
100
AcDbEntity
  8
1
  6
DOTTED
 62
           1
100
AcDbLine
 10
509.460408193442
 20
13577.591467022399
 11
507.460408193442
 21
13577.591467022399
  0
LINE
  5
90
100
AcDbEntity
  8
1
  6
DOT_CENTER
 62
           1
100
AcDbLine
 10
518.22645596188
 20
13574.991467022401
 11
501.68645596188
 21
13574.991467022401
  0
LINE
  5
8F
100
AcDbEntity
  8
1
  6
DOT_CENTER
 62
           1
100
AcDbLine
 10
501.68645596188
 20
13674.991467022401
 11
518.22645596188
 21
13674.991467022401
  0
LINE
  5
8E
100
AcDbEntity
  8
1
  6
DOTTED
 62
           1
100
AcDbLine
 10
507.460408193442
 20
13672.3914670224
 11
509.460408193442
 21
13672.3914670224
  0
LINE
  5
8D
100
AcDbEntity
  8
1
  6
DOTTED
 62
           1
100
AcDbLine
 10
507.460408193442
 20
13677.591467022399
 11
509.460408193442
 21
13677.591467022399
  0
LINE
  5
8C
100
AcDbEntity
  8
1
  6
CONTINUOUS
 62
           3
100
AcDbLine
 10
510.460408193442
 20
13606.491467022401
 11
510.460408193442
 21
13607.491467022401
  0
LINE
  5
8B
100
AcDbEntity
  8
1
  6
PHANTOM
 62
           1
100
AcDbLine
 10
814.460408193442
 20
13828.97602581389
 11
812.460408193442
 21
13828.97602581389
  0
LINE
  5
8A
100
AcDbEntity
  8
1
  6
DOT_CENTER
 62
           1
100
AcDbLine
 10
844.460408193442
 20
13947.488508746301
 11
844.460408193442
 21
13832.752581569681
  0
LINE
  5
89
100
AcDbEntity
  8
1
  6
PHANTOM
 62
           1
100
AcDbLine
 10
812.460408193442
 20
13828.97602581389
 11
812.460408193442
 21
13948.97602581389
  0
LINE
  5
88
100
AcDbEntity
  8
1
  6
PHANTOM
 62
           1
100
AcDbLine
 10
812.460408193442
 20
13948.97602581389
 11
814.460408193442
 21
13948.97602581389
  0
LINE
  5
87
100
AcDbEntity
  8
1
  6
PHANTOM
 62
           1
100
AcDbLine
 10
814.460408193442
 20
13948.97602581389
 11
814.460408193442
 21
13828.97602581389
  0
LINE
  5
86
100
AcDbEntity
  8
1
  6
PHANTOM
 62
           1
100
AcDbLine
 10
826.960408193442
 20
13883.97602581389
 11
826.960408193441
 21
13893.97602581389
  0
LINE
  5
85
100
AcDbEntity
  8
1
  6
PHANTOM
 62
           1
100
AcDbLine
 10
829.460408193441
 20
13883.97602581389
 11
826.960408193442
 21
13883.97602581389
  0
LINE
  5
84
100
AcDbEntity
  8
1
  6
PHANTOM
 62
           1
100
AcDbLine
 10
829.460408193441
 20
13883.97602581389
 11
829.460408193442
 21
13882.97602581389
  0
LINE
  5
83
100
AcDbEntity
  8
1
  6
PHANTOM
 62
           1
100
AcDbLine
 10
826.960408193441
 20
13893.97602581389
 11
829.460408193442
 21
13893.97602581389
  0
LINE
  5
82
100
AcDbEntity
  8
1
  6
PHANTOM
 62
           1
100
AcDbLine
 10
815.460408193441
 20
13849.97602581389
 11
815.460408193441
 21
13882.97602581389
  0
LINE
  5
81
100
AcDbEntity
  8
1
  6
PHANTOM
 62
           1
100
AcDbLine
 10
815.460408193441
 20
13894.97602581389
 11
815.460408193441
 21
13927.97602581389
  0
LINE
  5
80
100
AcDbEntity
  8
1
  6
PHANTOM
 62
           1
100
AcDbLine
 10
817.460408193442
 20
13894.97602581389
 11
817.460408193442
 21
13882.97602581389
  0
LINE
  5
7F
100
AcDbEntity
  8
1
  6
PHANTOM
 62
           1
100
AcDbLine
 10
829.460408193442
 20
13894.97602581389
 11
829.460408193442
 21
13893.97602581389
  0
LINE
  5
7E
100
AcDbEntity
  8
1
  6
PHANTOM
 62
           1
100
AcDbLine
 10
887.960408193442
 20
13923.97602581389
 11
887.960408193442
 21
13911.54674002815
  0
LINE
  5
7D
100
AcDbEntity
  8
1
  6
PHANTOM
 62
           1
100
AcDbLine
 10
865.960408193442
 20
13899.93062926745
 11
865.960408193442
 21
13888.97602581389
  0
LINE
  5
7C
100
AcDbEntity
  8
1
  6
PHANTOM
 62
           1
100
AcDbLine
 10
866.960408193441
 20
13877.97602581389
 11
876.960408193442
 21
13877.97602581389
  0
LINE
  5
7B
100
AcDbEntity
  8
1
  6
PHANTOM
 62
           1
100
AcDbLine
 10
866.960408193442
 20
13899.97602581389
 11
876.960408193442
 21
13899.97602581389
  0
LINE
  5
7A
100
AcDbEntity
  8
1
  6
PHANTOM
 62
           1
100
AcDbLine
 10
884.460408193442
 20
13912.97602581389
 11
876.960408193442
 21
13912.97602581389
  0
LINE
  5
79
100
AcDbEntity
  8
1
  6
PHANTOM
 62
           1
100
AcDbLine
 10
889.460408193442
 20
13946.97602581389
 11
889.460408193442
 21
13900.97602581389
  0
LINE
  5
78
100
AcDbEntity
  8
1
  6
PHANTOM
 62
           1
100
AcDbLine
 10
899.460408193442
 20
13948.97602581389
 11
891.460408193442
 21
13948.97602581389
  0
LINE
  5
77
100
AcDbEntity
  8
1
  6
PHANTOM
 62
           1
100
AcDbLine
 10
891.460408193442
 20
13898.97602581389
 11
899.460408193442
 21
13898.97602581389
  0
LINE
  5
76
100
AcDbEntity
  8
1
  6
PHANTOM
 62
           1
100
AcDbLine
 10
884.460408193442
 20
13934.97602581389
 11
876.960408193442
 21
13934.97602581389
  0
LINE
  5
75
100
AcDbEntity
  8
1
  6
PHANTOM
 62
           1
100
AcDbLine
 10
864.960408193441
 20
13892.97602581389
 11
864.960408193441
 21
13884.97602581389
  0
LINE
  5
74
100
AcDbEntity
  8
1
  6
PHANTOM
 62
           1
100
AcDbLine
 10
859.460408193441
 20
13893.97602581389
 11
863.960408193441
 21
13893.97602581389
  0
LINE
  5
73
100
AcDbEntity
  8
1
  6
PHANTOM
 62
           1
100
AcDbLine
 10
865.960408193442
 20
13881.97602581389
 11
865.960408193442
 21
13878.97602581389
  0
LINE
  5
72
100
AcDbEntity
  8
1
  6
PHANTOM
 62
           1
100
AcDbLine
 10
865.960408193442
 20
13898.97602581389
 11
865.960408193441
 21
13895.97602581389
  0
LINE
  5
71
100
AcDbEntity
  8
1
  6
PHANTOM
 62
           1
100
AcDbLine
 10
861.960408193442
 20
13847.97602581389
 11
814.460408193442
 21
13847.97602581389
  0
LINE
  5
70
100
AcDbEntity
  8
1
  6
PHANTOM
 62
           1
100
AcDbLine
 10
863.960408193441
 20
13882.97602581389
 11
863.960408193441
 21
13849.97602581389
  0
LINE
  5
6F
100
AcDbEntity
  8
1
  6
PHANTOM
 62
           1
100
AcDbLine
 10
814.460408193442
 20
13882.97602581389
 11
863.960408193441
 21
13882.97602581389
  0
LINE
  5
6E
100
AcDbEntity
  8
1
  6
PHANTOM
 62
           1
100
AcDbLine
 10
863.960408193442
 20
13927.97602581389
 11
863.960408193441
 21
13894.97602581389
  0
LINE
  5
6D
100
AcDbEntity
  8
1
  6
PHANTOM
 62
           1
100
AcDbLine
 10
814.460408193442
 20
13929.97602581389
 11
861.960408193443
 21
13929.97602581389
  0
LINE
  5
6C
100
AcDbEntity
  8
1
  6
PHANTOM
 62
           1
100
AcDbLine
 10
859.460408193441
 20
13883.97602581389
 11
829.460408193441
 21
13883.97602581389
  0
LINE
  5
6B
100
AcDbEntity
  8
1
  6
PHANTOM
 62
           1
100
AcDbLine
 10
859.460408193441
 20
13894.97602581389
 11
859.460408193441
 21
13893.97602581389
  0
LINE
  5
6A
100
AcDbEntity
  8
1
  6
PHANTOM
 62
           1
100
AcDbLine
 10
829.460408193442
 20
13893.97602581389
 11
859.460408193441
 21
13893.97602581389
  0
LINE
  5
69
100
AcDbEntity
  8
1
  6
PHANTOM
 62
           1
100
AcDbLine
 10
863.960408193441
 20
13894.97602581389
 11
814.460408193441
 21
13894.97602581389
  0
LINE
  5
68
100
AcDbEntity
  8
1
  6
PHANTOM
 62
           1
100
AcDbLine
 10
859.460408193441
 20
13883.97602581389
 11
859.460408193441
 21
13882.97602581389
  0
LINE
  5
67
100
AcDbEntity
  8
1
  6
PHANTOM
 62
           1
100
AcDbLine
 10
863.960408193441
 20
13883.97602581389
 11
859.460408193441
 21
13883.97602581389
  0
LINE
  5
66
100
AcDbEntity
  8
1
  6
PHANTOM
 62
           1
100
AcDbLine
 10
887.929300546329
 20
13923.14934537334
 11
887.929300546329
 21
13923.14934537334
  0
LINE
  5
65
100
AcDbEntity
  8
1
  6
PHANTOM
 62
           1
100
AcDbLine
 10
865.960408193442
 20
13923.97602581389
 11
865.960408193442
 21
13899.93062926745
  0
LINE
  5
64
100
AcDbEntity
  8
1
  6
DOT_CENTER
 62
           1
100
AcDbLine
 10
876.960408193442
 20
13948.461597059921
 11
876.960408193442
 21
13727.73503596161
  0
LINE
  5
63
100
AcDbEntity
  8
1
  6
PHANTOM
 62
           1
100
AcDbLine
 10
887.960408193442
 20
13911.54674002815
 11
887.960408193442
 21
13753.97602581389
  0
LINE
  5
62
100
AcDbEntity
  8
1
  6
DOT_CENTER
 62
           1
100
AcDbLine
 10
859.085296316277
 20
13753.97602581389
 11
896.345296316277
 21
13753.97602581389
  0
LINE
  5
61
100
AcDbEntity
  8
1
  6
PHANTOM
 62
           1
100
AcDbLine
 10
865.960408193442
 20
13888.97602581389
 11
865.960408193442
 21
13753.97602581389
  0
LINE
  5
60
100
AcDbEntity
  8
1
  6
DOT_CENTER
 62
           1
100
AcDbLine
 10
789.91432538125
 20
13888.97602581389
 11
893.121538367524
 21
13888.97602581389
  0
POINT
  5
5F
100
AcDbEntity
  8
0
 62
           7
100
AcDbPoint
 10
976.888934451672
 20
13672.3914670224
  0
POINT
  5
5E
100
AcDbEntity
  8
0
 62
           7
100
AcDbPoint
 10
976.888934451672
 20
13677.591467022399
  0
POINT
  5
5D
100
AcDbEntity
  8
0
 62
           7
100
AcDbPoint
 10
974.288934451672
 20
13682.861467022391
  0
POINT
  5
5C
100
AcDbEntity
  8
0
 62
           7
100
AcDbPoint
 10
986.288934451672
 20
13682.861467022391
  0
POINT
  5
5B
100
AcDbEntity
  8
0
 62
           7
100
AcDbPoint
 10
864.967228202039
 20
13661.27186740349
  0
POINT
  5
5A
100
AcDbEntity
  8
0
 62
           7
100
AcDbPoint
 10
902.460408193442
 20
13896.97602581389
  0
POINT
  5
59
100
AcDbEntity
  8
0
 62
           7
100
AcDbPoint
 10
902.460408193442
 20
13405.491467022401
  0
POINT
  5
58
100
AcDbEntity
  8
0
 62
           7
100
AcDbPoint
 10
349.5075370422
 20
13671.16272631838
  0
POINT
  5
57
100
AcDbEntity
  8
0
 62
           7
100
AcDbPoint
 10
424.5075370422
 20
13668.725296639161
  0
POINT
  5
56
100
AcDbEntity
  8
0
 62
           7
100
AcDbPoint
 10
337.0075370422
 20
13682.386860999881
  0
POINT
  5
55
100
AcDbEntity
  8
0
 62
           7
100
AcDbPoint
 10
437.0075370422
 20
13681.225296639161
  0
POINT
  5
54
100
AcDbEntity
  8
0
 62
           7
100
AcDbPoint
 10
339.221819048526
 20
13662.491467022401
  0
POINT
  5
53
100
AcDbEntity
  8
0
 62
           7
100
AcDbPoint
 10
343.273707425441
 20
13587.491467022401
  0
POINT
  5
52
100
AcDbEntity
  8
0
 62
           7
100
AcDbPoint
 10
328.812339303571
 20
13674.991467022401
  0
POINT
  5
51
100
AcDbEntity
  8
0
 62
           7
100
AcDbPoint
 10
330.773707425441
 20
13574.991467022401
  0
POINT
  5
50
100
AcDbEntity
  8
0
 62
           7
100
AcDbPoint
 10
443.0075370422
 20
13682.861467022391
  0
POINT
  5
4F
100
AcDbEntity
  8
0
 62
           7
100
AcDbPoint
 10
440.4075370422
 20
13677.591467022399
  0
POINT
  5
4E
100
AcDbEntity
  8
0
 62
           7
100
AcDbPoint
 10
440.4075370422
 20
13672.3914670224
  0
POINT
  5
4D
100
AcDbEntity
  8
0
 62
           7
100
AcDbPoint
 10
887.460408193442
 20
13995.97602581389
  0
POINT
  5
4C
100
AcDbEntity
  8
0
 62
           7
100
AcDbPoint
 10
887.460408193442
 20
13851.97602581389
  0
POINT
  5
4B
100
AcDbEntity
  8
0
 62
           7
100
AcDbPoint
 10
802.460408193442
 20
13990.97602581389
  0
POINT
  5
4A
100
AcDbEntity
  8
0
 62
           7
100
AcDbPoint
 10
892.460408193442
 20
13990.97602581389
  0
POINT
  5
49
100
AcDbEntity
  8
0
 62
           7
100
AcDbPoint
 10
892.460408193442
 20
13990.97602581389
  0
POINT
  5
48
100
AcDbEntity
  8
0
 62
           7
100
AcDbPoint
 10
802.460408193442
 20
13990.97602581389
  0
POINT
  5
47
100
AcDbEntity
  8
0
 62
           7
100
AcDbPoint
 10
892.460408193442
 20
13990.97602581389
  0
POINT
  5
46
100
AcDbEntity
  8
0
 62
           7
100
AcDbPoint
 10
902.460408193442
 20
13950.97602581389
  0
POINT
  5
45
100
AcDbEntity
  8
0
 62
           7
100
AcDbPoint
 10
899.460408193442
 20
13953.97602581389
  0
POINT
  5
44
100
AcDbEntity
  8
0
 62
           7
100
AcDbPoint
 10
899.460408193442
 20
13893.97602581389
  0
POINT
  5
43
100
AcDbEntity
  8
0
 62
           7
100
AcDbPoint
 10
372.0075370422
 20
13720.39883524196
  0
POINT
  5
42
100
AcDbEntity
  8
0
 62
           7
100
AcDbPoint
 10
402.0075370422
 20
13720.39883524196
  0
POINT
  5
41
100
AcDbEntity
  8
0
 62
           7
100
AcDbPoint
 10
802.460408193442
 20
13405.491467022401
  0
POINT
  5
40
100
AcDbEntity
  8
0
 62
           7
100
AcDbPoint
 10
802.460408193442
 20
13402.491467022401
  0
POINT
  5
3F
100
AcDbEntity
  8
0
 62
           7
100
AcDbPoint
 10
854.460408193442
 20
13953.97602581389
  0
POINT
  5
3E
100
AcDbEntity
  8
0
 62
           7
100
AcDbPoint
 10
854.460408193442
 20
13950.97602581389
  0
POINT
  5
3D
100
AcDbEntity
  8
0
 62
           7
100
AcDbPoint
 10
958.288934451672
 20
13402.491467022401
  0
POINT
  5
3C
100
AcDbEntity
  8
0
 62
           7
100
AcDbPoint
 10
1009.169897693216
 20
13444.491467022401
  0
POINT
  5
3B
100
AcDbEntity
  8
0
 62
           7
100
AcDbPoint
 10
958.288934451672
 20
13402.491467022401
  0
POINT
  5
3A
100
AcDbEntity
  8
0
 62
           7
100
AcDbPoint
 10
1010.047037210618
 20
13487.491467022401
  0
POINT
  5
39
100
AcDbEntity
  8
0
 62
           7
100
AcDbPoint
 10
1010.047037210618
 20
13487.491467022401
  0
POINT
  5
38
100
AcDbEntity
  8
0
 62
           7
100
AcDbPoint
 10
1010.047037210618
 20
13514.991467022401
  0
POINT
  5
37
100
AcDbEntity
  8
0
 62
           7
100
AcDbPoint
 10
1010.047037210618
 20
13514.991467022401
  0
POINT
  5
36
100
AcDbEntity
  8
0
 62
           7
100
AcDbPoint
 10
1010.047037210618
 20
13542.491467022401
  0
POINT
  5
35
100
AcDbEntity
  8
0
 62
           7
100
AcDbPoint
 10
1010.047037210618
 20
13542.491467022401
  0
POINT
  5
34
100
AcDbEntity
  8
0
 62
           7
100
AcDbPoint
 10
1010.047037210618
 20
13569.991467022401
  0
POINT
  5
33
100
AcDbEntity
  8
0
 62
           7
100
AcDbPoint
 10
1010.047037210618
 20
13569.991467022401
  0
POINT
  5
32
100
AcDbEntity
  8
0
 62
           7
100
AcDbPoint
 10
1010.047037210618
 20
13597.491467022401
  0
POINT
  5
31
100
AcDbEntity
  8
0
 62
           7
100
AcDbPoint
 10
1010.047037210618
 20
13597.491467022401
  0
POINT
  5
30
100
AcDbEntity
  8
0
 62
           7
100
AcDbPoint
 10
966.288934451672
 20
13624.991467022401
  0
POINT
  5
2F
100
AcDbEntity
  8
0
 62
           7
100
AcDbPoint
 10
966.288934451672
 20
13624.991467022401
  0
POINT
  5
2E
100
AcDbEntity
  8
0
 62
           7
100
AcDbPoint
 10
1010.047037210618
 20
13652.491467022401
  0
POINT
  5
2D
100
AcDbEntity
  8
0
 62
           7
100
AcDbPoint
 10
1010.047037210618
 20
13652.491467022401
  0
POINT
  5
2C
100
AcDbEntity
  8
0
 62
           7
100
AcDbPoint
 10
1010.047037210618
 20
13679.991467022401
  0
POINT
  5
2B
100
AcDbEntity
  8
0
 62
           7
100
AcDbPoint
 10
1010.047037210618
 20
13679.991467022401
  0
POINT
  5
2A
100
AcDbEntity
  8
0
 62
           7
100
AcDbPoint
 10
1010.047037210618
 20
13707.491467022401
  0
POINT
  5
29
100
AcDbEntity
  8
0
 62
           7
100
AcDbPoint
 10
958.288934451672
 20
13402.491467022401
  0
POINT
  5
28
100
AcDbEntity
  8
0
 62
           7
100
AcDbPoint
 10
1000.288934451672
 20
13717.491467022401
  0
ENDSEC
  0
SECTION
  2
OBJECTS
  0
DICTIONARY
  5
19
100
AcDbDictionary
  3
ACAD_GROUP
350
1A
  3
ACAD_MLINESTYLE
350
1B
  0
DICTIONARY
  5
1A
102
{ACAD_REACTORS
330
19
102
}
100
AcDbDictionary
  0
DICTIONARY
  5
1B
102
{ACAD_REACTORS
330
19
102
}
100
AcDbDictionary
  3
STANDARD
350
1C
  0
MLINESTYLE
  5
1C
102
{ACAD_REACTORS
330
1B
102
}
100
AcDbMlineStyle
  2
STANDARD
 70
           0
  3

 62
           0
 51
90.0
 52
90.0
 71
           2
 49
0.5
 62
         256
  6
BYLAYER
 49
-0.5
 62
         256
  6
BYLAYER
  0
ENDSEC
  0
EOF
