  0
SECTION
  2
HEADER
  9
$ACADVER
  1
AC1014
  9
$ACADMAINTVER
 70
           0
  9
$DWGCODEPAGE
  3
DOS932
  9
$INSBASE
 10
0.0
 20
0.0
 30
0.0
  9
$EXTMIN
 10
1.000000000000E+20
 20
1.000000000000E+20
 30
1.000000000000E+20
  9
$EXTMAX
 10
-1.000000000000E+20
 20
-1.000000000000E+20
 30
-1.000000000000E+20
  9
$LIMMIN
 10
0.0
 20
0.0
  9
$LIMMAX
 10
0.0
 20
0.0
  9
$ORTHOMODE
 70
           0
  9
$REGENMODE
 70
           1
  9
$FILLMODE
 70
           1
  9
$QTEXTMODE
 70
           0
  9
$MIRRTEXT
 70
           1
  9
$DRAGMODE
 70
           2
  9
$LTSCALE
 40
1.0
  9
$OSMODE
 70
           0
  9
$ATTMODE
 70
           1
  9
$TEXTSIZE
 40
0.2
  9
$TRACEWID
 40
0.05
  9
$TEXTSTYLE
  7
STANDARD
  9
$CLAYER
  8
0
  9
$CELTYPE
  6
CONTINUOUS
  9
$CECOLOR
 62
         256
  9
$CELTSCALE
 40
1.0
  9
$DELOBJ
 70
           1
  9
$DISPSILH
 70
           0
  9
$DIMSCALE
 40
1.0
  9
$DIMASZ
 40
0.18
  9
$DIMEXO
 40
0.0625
  9
$DIMDLI
 40
0.38
  9
$DIMRND
 40
0.0
  9
$DIMDLE
 40
0.0
  9
$DIMEXE
 40
0.18
  9
$DIMTP
 40
0.0
  9
$DIMTM
 40
0.0
  9
$DIMTXT
 40
0.18
  9
$DIMCEN
 40
0.09
  9
$DIMTSZ
 40
0.0
  9
$DIMTOL
 70
           0
  9
$DIMLIM
 70
           0
  9
$DIMTIH
 70
           1
  9
$DIMTOH
 70
           1
  9
$DIMSE1
 70
           0
  9
$DIMSE2
 70
           0
  9
$DIMTAD
 70
           0
  9
$DIMZIN
 70
           0
  9
$DIMBLK
  1

  9
$DIMASO
 70
           1
  9
$DIMSHO
 70
           1
  9
$DIMPOST
  1

  9
$DIMAPOST
  1

  9
$DIMALT
 70
           0
  9
$DIMALTD
 70
           2
  9
$DIMALTF
 40
25.4
  9
$DIMLFAC
 40
1.0
  9
$DIMTOFL
 70
           0
  9
$DIMTVP
 40
0.0
  9
$DIMTIX
 70
           0
  9
$DIMSOXD
 70
           0
  9
$DIMSAH
 70
           0
  9
$DIMBLK1
  1

  9
$DIMBLK2
  1

  9
$DIMSTYLE
  2
STANDARD
  9
$DIMCLRD
 70
           0
  9
$DIMCLRE
 70
           0
  9
$DIMCLRT
 70
           0
  9
$DIMTFAC
 40
1.0
  9
$DIMGAP
 40
0.09
  9
$DIMJUST
 70
           0
  9
$DIMSD1
 70
           0
  9
$DIMSD2
 70
           0
  9
$DIMTOLJ
 70
           1
  9
$DIMTZIN
 70
           0
  9
$DIMALTZ
 70
           0
  9
$DIMALTTZ
 70
           0
  9
$DIMFIT
 70
           3
  9
$DIMUPT
 70
           0
  9
$DIMUNIT
 70
           2
  9
$DIMDEC
 70
           4
  9
$DIMTDEC
 70
           4
  9
$DIMALTU
 70
           2
  9
$DIMALTTD
 70
           2
  9
$DIMTXSTY
  7
STANDARD
  9
$DIMAUNIT
 70
           0
  9
$LUNITS
 70
           2
  9
$LUPREC
 70
           4
  9
$SKETCHINC
 40
0.1
  9
$FILLETRAD
 40
0.0
  9
$AUNITS
 70
           0
  9
$AUPREC
 70
           0
  9
$MENU
  1
acad
  9
$ELEVATION
 40
0.0
  9
$PELEVATION
 40
0.0
  9
$THICKNESS
 40
0.0
  9
$LIMCHECK
 70
           0
  9
$BLIPMODE
 70
           1
  9
$CHAMFERA
 40
0.0
  9
$CHAMFERB
 40
0.0
  9
$CHAMFERC
 40
0.0
  9
$CHAMFERD
 40
0.0
  9
$SKPOLY
 70
           0
  9
$TDCREATE
 40
0.000000000
  9
$TDUPDATE
 40
0.000000000
  9
$TDINDWG
 40
0.0000000000
  9
$TDUSRTIMER
 40
0.0000000000
  9
$USRTIMER
 70
           1
  9
$ANGBASE
 50
0.0
  9
$ANGDIR
 70
           0
  9
$PDMODE
 70
           0
  9
$PDSIZE
 40
0.0
  9
$PLINEWID
 40
0.0
  9
$COORDS
 70
           0
  9
$SPLFRAME
 70
           0
  9
$SPLINETYPE
 70
           6
  9
$SPLINESEGS
 70
           8
  9
$ATTDIA
 70
           0
  9
$ATTREQ
 70
           1
  9
$HANDLING
 70
           1
  9
$HANDSEED
  5
41C
  9
$SURFTAB1
 70
           6
  9
$SURFTAB2
 70
           6
  9
$SURFTYPE
 70
           6
  9
$SURFU
 70
           6
  9
$SURFV
 70
           6
  9
$UCSNAME
  2

  9
$UCSORG
 10
0.0
 20
0.0
 30
0.0
  9
$UCSXDIR
 10
1.0
 20
0.0
 30
0.0
  9
$UCSYDIR
 10
0.0
 20
1.0
 30
0.0
  9
$PUCSNAME
  2

  9
$PUCSORG
 10
0.0
 20
0.0
 30
0.0
  9
$PUCSXDIR
 10
1.0
 20
0.0
 30
0.0
  9
$PUCSYDIR
 10
0.0
 20
1.0
 30
0.0
  9
$USERI1
 70
           0
  9
$USERI2
 70
           0
  9
$USERI3
 70
           0
  9
$USERI4
 70
           0
  9
$USERI5
 70
           0
  9
$USERR1
 40
0.0
  9
$USERR2
 40
0.0
  9
$USERR3
 40
0.0
  9
$USERR4
 40
0.0
  9
$USERR5
 40
0.0
  9
$WORLDVIEW
 70
           1
  9
$SHADEDGE
 70
           3
  9
$SHADEDIF
 70
          70
  9
$TILEMODE
 70
           1
  9
$MAXACTVP
 70
          16
  9
$PINSBASE
 10
0.0
 20
0.0
 30
0.0
  9
$PLIMCHECK
 70
           0
  9
$PEXTMIN
 10
1.000000000000E+20
 20
1.000000000000E+20
 30
1.000000000000E+20
  9
$PEXTMAX
 10
-1.000000000000E+20
 20
-1.000000000000E+20
 30
-1.000000000000E+20
  9
$PLIMMIN
 10
0.0
 20
0.0
  9
$PLIMMAX
 10
12.0
 20
9.0
  9
$UNITMODE
 70
           0
  9
$VISRETAIN
 70
           0
  9
$PLINEGEN
 70
           1
  9
$PSLTSCALE
 70
           0
  9
$TREEDEPTH
 70
        3020
  9
$PICKSTYLE
 70
           1
  9
$CMLSTYLE
  2
STANDARD
  9
$CMLJUST
 70
           0
  9
$CMLSCALE
 40
1.0
  9
$PROXYGRAPHICS
 70
           0
  9
$MEASUREMENT
 70
           1
  0
ENDSEC
  0
SECTION
  2
CLASSES
  0
CLASS
  1
LWPOLYLINE
  2
AcDbPolyline
  3
"AutoCAD"
 90
        0
280
           0
281
           1
  0
CLASS
  1
IMAGE
  2
AcDbRasterImage
  3
ISM
 90
      127
280
           0
281
           1
  0
CLASS
  1
OLE2FRAME
  2
AcDbOle2Frame
  3
""
 90
        0
280
           0
281
           1
  0
CLASS
  1
HATCH
  2
AcDbHatch
  3
"ACAD_SEDONA"
 90
        0
280
           0
281
           1
  0
CLASS
  1
DICTIONARYVAR
  2
AcDbDictionaryVar
  3
"AutoCAD"
 90
        0
280
           0
281
           0
  0
CLASS
  1
RASTERVARIABLES
  2
AcDbRasterVariables
  3
ISM
 90
        0
280
           0
281
           0
  0
CLASS
  1
IMAGEDEF
  2
AcDbRasterImageDef
  3
ISM
 90
        0
280
           0
281
           0
  0
CLASS
  1
IMAGEDEF_REACTOR
  2
AcDbRasterImageDefReactor
  3
ISM
 90
        1
280
           0
281
           0
  0
CLASS
  1
IDBUFFER
  2
AcDbIdBuffer
  3
"Acad"
 90
        0
280
           0
281
           0
  0
CLASS
  1
SPATIAL_FILTER
  2
AcDbSpatialFilter
  3
"Acad"
 90
        0
280
           0
281
           0
  0
CLASS
  1
XRECORD
  2
AcDbXrecord
  3
"<Built In>"
 90
        0
280
           0
281
           0
  0
CLASS
  1
SORTENTSTABLE
  2
AcDbSortentsTable
  3
"AutoCAD"
 90
        0
280
           0
281
           0
  0
CLASS
  1
LAYER_INDEX
  2
AcDbLayerIndex
  3
"Acad"
 90
        0
280
           0
281
           0
  0
CLASS
  1
SPATIAL_INDEX
  2
AcDbSpatialIndex
  3
"Acad"
 90
        0
280
           0
281
           0
  0
CLASS
  1
OBJECT_PTR
  2
CAseDLPNTableRecord
  3
"ASE-LPNTableRecord"
 90
        1
280
           0
281
           0
  0
CLASS
  1
LAYOUT
  2
AcDbLayout
  3
"AutoCAD 2000"
 90
        1
280
           0
281
           0
  0
CLASS
  1
PLOTSETTINGS
  2
AcDbPlotSettings
  3
"AutoCAD 2000"
 90
        1
280
           0
281
           0
  0
CLASS
  1
ACDBDICTIONARYWDFLT
  2
AcDbDictionaryWithDefault
  3
"AutoCAD 2000"
 90
        1
280
           0
281
           0
  0
CLASS
  1
ACDBPLACEHOLDER
  2
AcDbPlaceHolder
  3
"AutoCAD 2000"
 90
        1
280
           0
281
           0
  0
CLASS
  1
VBA_PROJECT
  2
AcDbVbaProject
  3
"acadvba"
 90
        1
280
           0
281
           0
  0
CLASS
  1
WIPEOUT
  2
AcDbWipeout
  3
WipeOut|AutoCAD Express Tool|expresstools@autodesk.com
 90
      127
280
           0
281
           1
  0
CLASS
  1
WIPEOUTVARIABLES
  2
AcDbWipeoutVariables
  3
WipeOut|AutoCAD Express Tool|expresstools@autodesk.com
 90
        0
280
           0
281
           0
  0
CLASS
  1
RTEXT
  2
RText
  3
RText|AutoCAD Express Tool|expresstools@autodesk.com
 90
        0
280
           0
281
           1
  0
CLASS
  1
ARCALIGNEDTEXT
  2
AcDbArcAlignedText
  3
ATEXT|AutoCAD Express Tool|expresstools@autodesk.com
 90
        0
280
           0
281
           1
  0
ENDSEC
  0
SECTION
  2
TABLES
  0
TABLE
  2
VPORT
  5
7
100
AcDbSymbolTable
 70
           1
  0
VPORT
  5
15
100
AcDbSymbolTableRecord
100
AcDbViewportTableRecord
  2
*ACTIVE
 70
           0
 10
0.0
 20
0.0
 11
1.0
 21
1.0
 12
6.591288
 22
4.579184
 13
0.0
 23
0.0
 14
1.0
 24
1.0
 15
0.0
 25
0.0
 16
0.0
 26
0.0
 36
1.0
 17
0.0
 27
0.0
 37
0.0
 40
9.158369
 41
0.688564
 42
50.0
 43
0.0
 44
0.0
 50
0.0
 51
0.0
 71
           0
 72
         100
 73
           1
 74
           1
 75
           0
 76
           0
 77
           0
 78
           0
  0
ENDTAB
  0
TABLE
  2
LTYPE
  5
4
100
AcDbSymbolTable
 70
          10
  0
LTYPE
  5
11
100
AcDbSymbolTableRecord
100
AcDbLinetypeTableRecord
  2
BYBLOCK
 70
          64
  3

 72
          65
 73
           0
 40
0.0
  0
LTYPE
  5
12
100
AcDbSymbolTableRecord
100
AcDbLinetypeTableRecord
  2
BYLAYER
 70
          64
  3

 72
          65
 73
           0
 40
0.0
  0
LTYPE
  5
13
100
AcDbSymbolTableRecord
100
AcDbLinetypeTableRecord
  2
CONTINUOUS
 70
          64
  3
Solid line
 72
          65
 73
           0
 40
0.0
  0
LTYPE
  5
1D
100
AcDbSymbolTableRecord
100
AcDbLinetypeTableRecord
  2
DASHED
 70
          64
  3
Dashed
 72
          65
 73
           2
 40
15.0
 49
12.0
 74
           0
 49
-3.0
 74
           0
  0
LTYPE
  5
1E
100
AcDbSymbolTableRecord
100
AcDbLinetypeTableRecord
  2
DOTTED
 70
          64
  3
Dotted
 72
          65
 73
           2
 40
3.5
 49
0.5
 74
           0
 49
-3.0
 74
           0
  0
LTYPE
  5
1F
100
AcDbSymbolTableRecord
100
AcDbLinetypeTableRecord
  2
DOT_CENTER
 70
          64
  3
Dot_Center
 72
          65
 73
           4
 40
2.0
 49
1.25
 74
           0
 49
-0.25
 74
           0
 49
0.25
 74
           0
 49
-0.25
 74
           0
  0
LTYPE
  5
20
100
AcDbSymbolTableRecord
100
AcDbLinetypeTableRecord
  2
LONG_DASHED
 70
          64
  3
Long_Dashed
 72
          65
 73
           2
 40
2.0
 49
1.5
 74
           0
 49
-0.5
 74
           0
  0
LTYPE
  5
21
100
AcDbSymbolTableRecord
100
AcDbLinetypeTableRecord
  2
DASH_CENTER
 70
          64
  3
Dash_Center
 72
          65
 73
           4
 40
36.0
 49
24.0
 74
           0
 49
-3.0
 74
           0
 49
6.0
 74
           0
 49
-3.0
 74
           0
  0
LTYPE
  5
22
100
AcDbSymbolTableRecord
100
AcDbLinetypeTableRecord
  2
PHANTOM
 70
          64
  3
Phantom
 72
          65
 73
           6
 40
2.5
 49
1.25
 74
           0
 49
-0.25
 74
           0
 49
0.25
 74
           0
 49
-0.25
 74
           0
 49
0.25
 74
           0
 49
-0.25
 74
           0
  0
LTYPE
  5
23
100
AcDbSymbolTableRecord
100
AcDbLinetypeTableRecord
  2
CENTER_DASH_DASH
 70
          64
  3
Center_Dash_Dash
 72
          65
 73
           6
 40
22.0
 49
12.0
 74
           0
 49
-3.0
 74
           0
 49
0.5
 74
           0
 49
-3.0
 74
           0
 49
0.5
 74
           0
 49
-3.0
 74
           0
  0
ENDTAB
  0
TABLE
  2
LAYER
  5
2
100
AcDbSymbolTable
 70
           2
  0
LAYER
  5
14
100
AcDbSymbolTableRecord
100
AcDbLayerTableRecord
  2
0
 70
           0
 62
           7
  6
CONTINUOUS
  0
LAYER
  5
24
100
AcDbSymbolTableRecord
100
AcDbLayerTableRecord
  2
1
 70
           0
 62
           7
  6
CONTINUOUS
  0
ENDTAB
  0
TABLE
  2
STYLE
  5
3
100
AcDbSymbolTable
 70
           3
  0
STYLE
  5
17
100
AcDbSymbolTableRecord
100
AcDbTextStyleTableRecord
  2
STANDARD
 70
           0
 40
0.0
 41
1.0
 50
0.0
 71
           0
 42
0.0
  3
txt
  4

  0
STYLE
  5
417
100
AcDbSymbolTableRecord
100
AcDbTextStyleTableRecord
  2
CONVERTER_1
 70
           0
 40
0.0
 41
0.72
 50
0.0
 71
           0
 42
0.0
  3
MS Gothic
  4

1001
ACAD
1000
MS Gothic
1071
    32785
  0
STYLE
  5
419
100
AcDbSymbolTableRecord
100
AcDbTextStyleTableRecord
  2
CONVERTER_2
 70
           0
 40
0.0
 41
1.125
 50
0.0
 71
           0
 42
0.0
  3
txt
  4

  0
ENDTAB
  0
TABLE
  2
VIEW
  5
5
100
AcDbSymbolTable
 70
           0
  0
ENDTAB
  0
TABLE
  2
UCS
  5
6
100
AcDbSymbolTable
 70
           0
  0
ENDTAB
  0
TABLE
  2
APPID
  5
8
100
AcDbSymbolTable
 70
           1
  0
APPID
  5
16
100
AcDbSymbolTableRecord
100
AcDbRegAppTableRecord
  2
ACAD
 70
           0
  0
ENDTAB
  0
TABLE
  2
DIMSTYLE
  5
9
100
AcDbSymbolTable
 70
           1
  0
DIMSTYLE
105
18
100
AcDbSymbolTableRecord
100
AcDbDimStyleTableRecord
  2
STANDARD
 70
           0
  3

  4

  5

  6

  7

 40
1.0
 41
0.18
 42
0.0625
 43
0.38
 44
0.18
 45
0.0
 46
0.0
 47
0.0
 48
0.0
 71
           0
 72
           0
 73
           1
 74
           1
 75
           0
 76
           0
 77
           0
 78
           0
140
0.18
141
0.09
142
0.0
143
25.4
144
1.0
145
0.0
146
1.0
147
0.09
170
           0
171
           2
172
           0
173
           0
174
           0
175
           0
176
           0
177
           0
178
           0
270
           2
271
           4
272
           4
273
           2
274
           2
275
           0
280
           0
281
           0
282
           0
283
           1
284
           0
285
           0
286
           0
287
           0
288
           0
340
17
  0
ENDTAB
  0
TABLE
  2
BLOCK_RECORD
  5
1
100
AcDbSymbolTable
 70
           0
  0
BLOCK_RECORD
  5
A
100
AcDbSymbolTableRecord
100
AcDbBlockTableRecord
  2
*MODEL_SPACE
  0
BLOCK_RECORD
  5
B
100
AcDbSymbolTableRecord
100
AcDbBlockTableRecord
  2
*PAPER_SPACE
  0
ENDTAB
  0
ENDSEC
  0
SECTION
  2
BLOCKS
  0
BLOCK
  5
D
100
AcDbEntity
  8
0
100
AcDbBlockBegin
  2
*MODEL_SPACE
 70
           0
 10
0.0
 20
0.0
 30
0.0
  3
*MODEL_SPACE
  1

  0
ENDBLK
  5
E
100
AcDbEntity
  8
0
100
AcDbBlockEnd
  0
BLOCK
  5
F
100
AcDbEntity
 67
           1
  8
0
100
AcDbBlockBegin
  2
*PAPER_SPACE
 70
           0
 10
0.0
 20
0.0
 30
0.0
  3
*PAPER_SPACE
  1

  0
ENDBLK
  5
10
100
AcDbEntity
 67
           1
  8
0
100
AcDbBlockEnd
  0
ENDSEC
  0
SECTION
  2
ENTITIES
  0
MTEXT
  5
41A
100
AcDbEntity
  8
1
 62
           1
100
AcDbMText
 10
412.313738626719
 20
13822.70901254976
 30
0.0
 40
7.799804672134
 41
0.0
 71
           5
 72
           1
  1
NTV-3LS
  7
CONVERTER_2
 11
1.0
 21
0.0
 31
0.0
  0
MTEXT
  5
418
100
AcDbEntity
  8
1
 62
           1
100
AcDbMText
 10
412.313738626719
 20
13805.05901254976
 30
0.0
 40
7.799804672134
 41
0.0
 71
           5
 72
           1
  1
Ｎ-ＴＶアーム ３軸・ロングアーム・スタンド型
  7
CONVERTER_1
 11
1.0
 21
0.0
 31
0.0
  0
ARC
  5
416
100
AcDbEntity
  8
1
  6
CONTINUOUS
 62
           3
100
AcDbCircle
 10
910.063892142251
 20
13553.491467022401
 40
0.5
100
AcDbArc
 50
-90.0
 51
0.0
  0
ARC
  5
415
100
AcDbEntity
  8
1
  6
CONTINUOUS
 62
           3
100
AcDbCircle
 10
901.063892142251
 20
13553.491467022401
 40
0.5
100
AcDbArc
 50
180.0
 51
-90.0
  0
ARC
  5
414
100
AcDbEntity
  8
1
  6
CONTINUOUS
 62
           3
100
AcDbCircle
 10
910.063892142251
 20
13587.491467022401
 40
0.5
100
AcDbArc
 50
0.0
 51
90.0
  0
ARC
  5
413
100
AcDbEntity
  8
1
  6
CONTINUOUS
 62
           3
100
AcDbCircle
 10
901.063892142251
 20
13587.491467022401
 40
0.5
100
AcDbArc
 50
90.0
 51
180.0
  0
ARC
  5
412
100
AcDbEntity
  8
1
  6
CONTINUOUS
 62
           3
100
AcDbCircle
 10
898.563892142251
 20
13646.991467022401
 40
3.0
100
AcDbArc
 50
0.0
 51
90.0
  0
ARC
  5
411
100
AcDbEntity
  8
1
  6
CONTINUOUS
 62
           3
100
AcDbCircle
 10
915.563892142251
 20
13646.991467022401
 40
3.0
100
AcDbArc
 50
90.0
 51
180.0
  0
ARC
  5
410
100
AcDbEntity
  8
1
  6
CONTINUOUS
 62
           3
100
AcDbCircle
 10
915.563892142251
 20
13602.991467022401
 40
3.0
100
AcDbArc
 50
180.0
 51
-90.0
  0
ARC
  5
40F
100
AcDbEntity
  8
1
  6
CONTINUOUS
 62
           3
100
AcDbCircle
 10
898.563892142251
 20
13602.991467022401
 40
3.0
100
AcDbArc
 50
-90.0
 51
0.0
  0
ARC
  5
40E
100
AcDbEntity
  8
1
  6
CONTINUOUS
 62
           3
100
AcDbCircle
 10
939.063892142251
 20
13575.991467022401
 40
1.0
100
AcDbArc
 50
180.0
 51
-90.0
  0
ARC
  5
40D
100
AcDbEntity
  8
1
  6
CONTINUOUS
 62
           3
100
AcDbCircle
 10
939.063892142251
 20
13673.991467022401
 40
1.0
100
AcDbArc
 50
90.0
 51
180.0
  0
ARC
  5
40C
100
AcDbEntity
  8
1
  6
CONTINUOUS
 62
           3
100
AcDbCircle
 10
915.063892142251
 20
13602.491467022401
 40
0.5
100
AcDbArc
 50
180.0
 51
-90.0
  0
ARC
  5
40B
100
AcDbEntity
  8
1
  6
CONTINUOUS
 62
           3
100
AcDbCircle
 10
915.063892142251
 20
13647.491467022401
 40
0.5
100
AcDbArc
 50
90.0
 51
180.0
  0
ARC
  5
40A
100
AcDbEntity
  8
1
  6
CONTINUOUS
 62
           3
100
AcDbCircle
 10
936.063892142251
 20
13575.491467022401
 40
0.5
100
AcDbArc
 50
-90.0
 51
0.0
  0
ARC
  5
409
100
AcDbEntity
  8
1
  6
CONTINUOUS
 62
           3
100
AcDbCircle
 10
936.063892142251
 20
13599.491467022401
 40
0.5
100
AcDbArc
 50
0.0
 51
90.0
  0
ARC
  5
408
100
AcDbEntity
  8
1
  6
CONTINUOUS
 62
           3
100
AcDbCircle
 10
936.063892142251
 20
13650.491467022401
 40
0.5
100
AcDbArc
 50
-90.0
 51
0.0
  0
ARC
  5
407
100
AcDbEntity
  8
1
  6
CONTINUOUS
 62
           3
100
AcDbCircle
 10
936.063892142251
 20
13674.491467022401
 40
0.5
100
AcDbArc
 50
0.0
 51
90.0
  0
ARC
  5
406
100
AcDbEntity
  8
1
  6
PHANTOM
 62
           1
100
AcDbCircle
 10
890.011951252848
 20
13933.97602581389
 40
1.0
100
AcDbArc
 50
90.0
 51
180.0
  0
ARC
  5
405
100
AcDbEntity
  8
1
  6
PHANTOM
 62
           1
100
AcDbCircle
 10
885.011951252849
 20
13962.97602581389
 40
2.0
100
AcDbArc
 50
0.0
 51
89.999999999974
  0
ARC
  5
404
100
AcDbEntity
  8
1
  6
PHANTOM
 62
           1
100
AcDbCircle
 10
885.011951252849
 20
13884.97602581389
 40
2.0
100
AcDbArc
 50
-90.0
 51
0.0
  0
ARC
  5
403
100
AcDbEntity
  8
1
  6
PHANTOM
 62
           1
100
AcDbCircle
 10
887.011951252848
 20
13927.97602581389
 40
1.0
100
AcDbArc
 50
0.0
 51
90.0
  0
ARC
  5
402
100
AcDbEntity
  8
1
  6
PHANTOM
 62
           1
100
AcDbCircle
 10
887.011951252848
 20
13919.97602581389
 40
1.0
100
AcDbArc
 50
-90.0
 51
0.0
  0
ARC
  5
401
100
AcDbEntity
  8
1
  6
PHANTOM
 62
           1
100
AcDbCircle
 10
890.011951252849
 20
13913.97602581389
 40
1.0
100
AcDbArc
 50
180.0
 51
-90.000000000052
  0
ARC
  5
400
100
AcDbEntity
  8
1
  6
PHANTOM
 62
           1
100
AcDbCircle
 10
887.011951252848
 20
13930.97602581389
 40
2.0
100
AcDbArc
 50
-90.0
 51
0.0
  0
ARC
  5
3FF
100
AcDbEntity
  8
1
  6
PHANTOM
 62
           1
100
AcDbCircle
 10
887.011951252849
 20
13916.976025813899
 40
2.0
100
AcDbArc
 50
-0.000000000261
 51
90.000000000026
  0
ARC
  5
3FE
100
AcDbEntity
  8
1
  6
PHANTOM
 62
           1
100
AcDbCircle
 10
940.063892142251
 20
13900.97602581389
 40
2.0
100
AcDbArc
 50
180.0
 51
-90.0
  0
ARC
  5
3FD
100
AcDbEntity
  8
1
  6
PHANTOM
 62
           1
100
AcDbCircle
 10
940.063892142251
 20
13946.97602581389
 40
2.0
100
AcDbArc
 50
90.0
 51
180.0
  0
ARC
  5
3FC
100
AcDbEntity
  8
1
  6
PHANTOM
 62
           1
100
AcDbCircle
 10
933.063892142251
 20
13907.97602581389
 40
5.000000000003
100
AcDbArc
 50
58.060445596994
 51
90.0
  0
ARC
  5
3FB
100
AcDbEntity
  8
1
  6
PHANTOM
 62
           1
100
AcDbCircle
 10
933.063892142251
 20
13939.97602581389
 40
5.0
100
AcDbArc
 50
-90.0
 51
0.0
  0
ARC
  5
3FA
100
AcDbEntity
  8
1
  6
PHANTOM
 62
           1
100
AcDbCircle
 10
933.063892142251
 20
13907.97602581389
 40
5.0
100
AcDbArc
 50
0.0
 51
58.060445596994
  0
ARC
  5
3F9
100
AcDbEntity
  8
1
  6
PHANTOM
 62
           1
100
AcDbCircle
 10
841.511951252848
 20
13907.97602581389
 40
4.0
100
AcDbArc
 50
180.0
 51
-138.590377890664
  0
ARC
  5
3F8
100
AcDbEntity
  8
1
  6
PHANTOM
 62
           1
100
AcDbCircle
 10
840.511951252848
 20
13962.97602581389
 40
2.0
100
AcDbArc
 50
90.0
 51
180.0
  0
ARC
  5
3F7
100
AcDbEntity
  8
1
  6
PHANTOM
 62
           1
100
AcDbCircle
 10
840.511951252848
 20
13884.97602581389
 40
2.0
100
AcDbArc
 50
180.0
 51
-90.0
  0
ARC
  5
3F6
100
AcDbEntity
  8
1
  6
PHANTOM
 62
           1
100
AcDbCircle
 10
841.511951252848
 20
13939.97602581389
 40
3.999999999997
100
AcDbArc
 50
138.590377890781
 51
180.0
  0
ARC
  5
3F5
100
AcDbEntity
  8
1
  6
CONTINUOUS
 62
           3
100
AcDbCircle
 10
570.563892142251
 20
13640.491467022401
 40
2.0
100
AcDbArc
 50
0.0
 51
90.0
  0
ARC
  5
3F4
100
AcDbEntity
  8
1
  6
CONTINUOUS
 62
           3
100
AcDbCircle
 10
574.563892142251
 20
13634.991467022401
 40
2.0
100
AcDbArc
 50
180.0
 51
-90.0
  0
ARC
  5
3F3
100
AcDbEntity
  8
1
  6
CONTINUOUS
 62
           3
100
AcDbCircle
 10
574.563892142251
 20
13614.991467022401
 40
2.0
100
AcDbArc
 50
90.0
 51
180.0
  0
ARC
  5
3F2
100
AcDbEntity
  8
1
  6
CONTINUOUS
 62
           3
100
AcDbCircle
 10
570.563892142251
 20
13609.491467022401
 40
2.0
100
AcDbArc
 50
-90.0
 51
0.0
  0
ARC
  5
3F1
100
AcDbEntity
  8
1
  6
CONTINUOUS
 62
           3
100
AcDbCircle
 10
574.563892142251
 20
13630.991467022401
 40
2.0
100
AcDbArc
 50
90.0
 51
180.0
  0
ARC
  5
3F0
100
AcDbEntity
  8
1
  6
CONTINUOUS
 62
           3
100
AcDbCircle
 10
574.563892142251
 20
13618.991467022401
 40
2.0
100
AcDbArc
 50
180.0
 51
-90.0
  0
ARC
  5
3EF
100
AcDbEntity
  8
1
  6
CONTINUOUS
 62
           3
100
AcDbCircle
 10
575.063892142251
 20
13646.991467022401
 40
0.5
100
AcDbArc
 50
90.0
 51
180.0
  0
ARC
  5
3EE
100
AcDbEntity
  8
1
  6
CONTINUOUS
 62
           3
100
AcDbCircle
 10
575.063892142251
 20
13635.491467022401
 40
0.5
100
AcDbArc
 50
180.0
 51
-90.0
  0
ARC
  5
3ED
100
AcDbEntity
  8
1
  6
CONTINUOUS
 62
           3
100
AcDbCircle
 10
575.063892142251
 20
13602.991467022401
 40
0.5
100
AcDbArc
 50
180.0
 51
-90.0
  0
ARC
  5
3EC
100
AcDbEntity
  8
1
  6
CONTINUOUS
 62
           3
100
AcDbCircle
 10
575.063892142251
 20
13614.491467022401
 40
0.5
100
AcDbArc
 50
90.0
 51
180.0
  0
ARC
  5
3EB
100
AcDbEntity
  8
1
  6
CONTINUOUS
 62
           3
100
AcDbCircle
 10
596.063892142251
 20
13632.491467022401
 40
0.5
100
AcDbArc
 50
0.0
 51
90.0
  0
ARC
  5
3EA
100
AcDbEntity
  8
1
  6
CONTINUOUS
 62
           3
100
AcDbCircle
 10
596.063892142251
 20
13617.491467022401
 40
0.5
100
AcDbArc
 50
-90.0
 51
0.0
  0
ARC
  5
3E9
100
AcDbEntity
  8
1
  6
CONTINUOUS
 62
           3
100
AcDbCircle
 10
766.063892142251
 20
13646.991467022401
 40
0.5
100
AcDbArc
 50
0.0
 51
90.0
  0
ARC
  5
3E8
100
AcDbEntity
  8
1
  6
CONTINUOUS
 62
           3
100
AcDbCircle
 10
766.063892142251
 20
13602.991467022401
 40
0.5
100
AcDbArc
 50
-89.999999999974
 51
0.0
  0
ARC
  5
3E7
100
AcDbEntity
  8
1
  6
CONTINUOUS
 62
           3
100
AcDbCircle
 10
596.563892142251
 20
13632.991467022401
 40
2.0
100
AcDbArc
 50
0.0
 51
90.0
  0
ARC
  5
3E6
100
AcDbEntity
  8
1
  6
CONTINUOUS
 62
           3
100
AcDbCircle
 10
596.563892142251
 20
13616.991467022401
 40
2.0
100
AcDbArc
 50
-90.0
 51
0.0
  0
ARC
  5
3E5
100
AcDbEntity
  8
1
  6
CONTINUOUS
 62
           3
100
AcDbCircle
 10
610.563892142251
 20
13632.491467022401
 40
3.0
100
AcDbArc
 50
90.0
 51
180.0
  0
ARC
  5
3E4
100
AcDbEntity
  8
1
  6
CONTINUOUS
 62
           3
100
AcDbCircle
 10
610.563892142251
 20
13617.491467022401
 40
3.0
100
AcDbArc
 50
180.0
 51
-90.0
  0
ARC
  5
3E3
100
AcDbEntity
  8
1
  6
CONTINUOUS
 62
           3
100
AcDbCircle
 10
641.563892142251
 20
13617.491467022401
 40
3.0
100
AcDbArc
 50
-90.0
 51
0.0
  0
ARC
  5
3E2
100
AcDbEntity
  8
1
  6
CONTINUOUS
 62
           3
100
AcDbCircle
 10
641.563892142251
 20
13632.491467022401
 40
3.0
100
AcDbArc
 50
0.0
 51
90.0
  0
ARC
  5
3E1
100
AcDbEntity
  8
1
  6
CONTINUOUS
 62
           3
100
AcDbCircle
 10
657.563892142251
 20
13632.491467022401
 40
3.0
100
AcDbArc
 50
90.0
 51
180.0
  0
ARC
  5
3E0
100
AcDbEntity
  8
1
  6
CONTINUOUS
 62
           3
100
AcDbCircle
 10
657.563892142251
 20
13617.491467022401
 40
3.0
100
AcDbArc
 50
180.0
 51
-90.0
  0
ARC
  5
3DF
100
AcDbEntity
  8
1
  6
CONTINUOUS
 62
           3
100
AcDbCircle
 10
688.563892142251
 20
13617.491467022401
 40
3.0
100
AcDbArc
 50
-90.0
 51
0.0
  0
ARC
  5
3DE
100
AcDbEntity
  8
1
  6
CONTINUOUS
 62
           3
100
AcDbCircle
 10
688.563892142251
 20
13632.491467022401
 40
3.0
100
AcDbArc
 50
0.0
 51
90.0
  0
ARC
  5
3DD
100
AcDbEntity
  8
1
  6
CONTINUOUS
 62
           3
100
AcDbCircle
 10
704.563892142251
 20
13632.491467022401
 40
3.0
100
AcDbArc
 50
90.0
 51
180.0
  0
ARC
  5
3DC
100
AcDbEntity
  8
1
  6
CONTINUOUS
 62
           3
100
AcDbCircle
 10
704.563892142251
 20
13617.491467022401
 40
3.0
100
AcDbArc
 50
180.0
 51
-90.0
  0
ARC
  5
3DB
100
AcDbEntity
  8
1
  6
CONTINUOUS
 62
           3
100
AcDbCircle
 10
735.563892142251
 20
13617.491467022401
 40
3.0
100
AcDbArc
 50
-90.0
 51
0.0
  0
ARC
  5
3DA
100
AcDbEntity
  8
1
  6
CONTINUOUS
 62
           3
100
AcDbCircle
 10
735.563892142251
 20
13632.491467022401
 40
3.0
100
AcDbArc
 50
0.0
 51
90.0
  0
ARC
  5
3D9
100
AcDbEntity
  8
1
  6
CONTINUOUS
 62
           3
100
AcDbCircle
 10
739.063892142251
 20
13575.491467022401
 40
0.5
100
AcDbArc
 50
180.0
 51
-89.999999999974
  0
ARC
  5
3D8
100
AcDbEntity
  8
1
  6
CONTINUOUS
 62
           3
100
AcDbCircle
 10
739.063892142251
 20
13674.491467022401
 40
0.5
100
AcDbArc
 50
90.0
 51
180.0
  0
ARC
  5
3D7
100
AcDbEntity
  8
1
  6
CONTINUOUS
 62
           3
100
AcDbCircle
 10
739.063892142251
 20
13650.491467022401
 40
0.5
100
AcDbArc
 50
180.0
 51
-89.999999999974
  0
ARC
  5
3D6
100
AcDbEntity
  8
1
  6
CONTINUOUS
 62
           3
100
AcDbCircle
 10
606.063892142251
 20
13613.991467022401
 40
0.5
100
AcDbArc
 50
90.0
 51
180.0
  0
ARC
  5
3D5
100
AcDbEntity
  8
1
  6
CONTINUOUS
 62
           3
100
AcDbCircle
 10
615.063892142251
 20
13613.991467022401
 40
0.5
100
AcDbArc
 50
0.0
 51
90.0
  0
ARC
  5
3D4
100
AcDbEntity
  8
1
  6
CONTINUOUS
 62
           3
100
AcDbCircle
 10
606.063892142251
 20
13579.991467022401
 40
0.5
100
AcDbArc
 50
180.0
 51
-90.0
  0
ARC
  5
3D3
100
AcDbEntity
  8
1
  6
CONTINUOUS
 62
           3
100
AcDbCircle
 10
615.063892142251
 20
13579.991467022401
 40
0.5
100
AcDbArc
 50
-90.0
 51
0.0
  0
ARC
  5
3D2
100
AcDbEntity
  8
1
  6
CONTINUOUS
 62
           3
100
AcDbCircle
 10
771.063892142251
 20
13587.491467022401
 40
0.5
100
AcDbArc
 50
89.999999999974
 51
180.0
  0
ARC
  5
3D1
100
AcDbEntity
  8
1
  6
CONTINUOUS
 62
           3
100
AcDbCircle
 10
780.063892142251
 20
13587.491467022401
 40
0.5
100
AcDbArc
 50
0.0
 51
90.0
  0
ARC
  5
3D0
100
AcDbEntity
  8
1
  6
CONTINUOUS
 62
           3
100
AcDbCircle
 10
771.063892142251
 20
13553.491467022401
 40
0.5
100
AcDbArc
 50
180.0
 51
-89.999999999974
  0
ARC
  5
3CF
100
AcDbEntity
  8
1
  6
CONTINUOUS
 62
           3
100
AcDbCircle
 10
780.063892142251
 20
13553.491467022401
 40
0.5
100
AcDbArc
 50
-89.999999999974
 51
0.0
  0
ARC
  5
3CE
100
AcDbEntity
  8
1
  6
CONTINUOUS
 62
           3
100
AcDbCircle
 10
525.063892142251
 20
13606.491467022401
 40
1.0
100
AcDbArc
 50
180.0
 51
-90.0
  0
ARC
  5
3CD
100
AcDbEntity
  8
1
  6
CONTINUOUS
 62
           3
100
AcDbCircle
 10
525.063892142251
 20
13643.491467022401
 40
1.0
100
AcDbArc
 50
90.0
 51
180.0
  0
ARC
  5
3CC
100
AcDbEntity
  8
1
  6
CONTINUOUS
 62
           3
100
AcDbCircle
 10
572.563892142251
 20
13916.97602581389
 40
2.0
100
AcDbArc
 50
0.0
 51
90.0
  0
ARC
  5
3CB
100
AcDbEntity
  8
1
  6
CONTINUOUS
 62
           3
100
AcDbCircle
 10
572.563892142251
 20
13930.97602581389
 40
2.0
100
AcDbArc
 50
-90.0
 51
0.0
  0
ARC
  5
3CA
100
AcDbEntity
  8
1
  6
CONTINUOUS
 62
           3
100
AcDbCircle
 10
575.563892142251
 20
13913.97602581389
 40
1.0
100
AcDbArc
 50
180.0
 51
-90.0
  0
ARC
  5
3C9
100
AcDbEntity
  8
1
  6
CONTINUOUS
 62
           3
100
AcDbCircle
 10
572.563892142251
 20
13919.97602581389
 40
1.0
100
AcDbArc
 50
-90.0
 51
0.0
  0
ARC
  5
3C8
100
AcDbEntity
  8
1
  6
CONTINUOUS
 62
           3
100
AcDbCircle
 10
572.563892142251
 20
13927.97602581389
 40
1.0
100
AcDbArc
 50
0.0
 51
90.0
  0
ARC
  5
3C7
100
AcDbEntity
  8
1
  6
CONTINUOUS
 62
           3
100
AcDbCircle
 10
570.563892142251
 20
13884.97602581389
 40
2.0
100
AcDbArc
 50
-90.0
 51
0.0
  0
ARC
  5
3C6
100
AcDbEntity
  8
1
  6
CONTINUOUS
 62
           3
100
AcDbCircle
 10
570.563892142251
 20
13962.97602581389
 40
2.0
100
AcDbArc
 50
0.0
 51
90.0
  0
ARC
  5
3C5
100
AcDbEntity
  8
1
  6
CONTINUOUS
 62
           3
100
AcDbCircle
 10
527.063892142251
 20
13939.97602581389
 40
3.99999999999
100
AcDbArc
 50
138.590377890898
 51
180.0
  0
ARC
  5
3C4
100
AcDbEntity
  8
1
  6
CONTINUOUS
 62
           3
100
AcDbCircle
 10
526.063892142251
 20
13884.97602581389
 40
2.0
100
AcDbArc
 50
180.0
 51
-90.0
  0
ARC
  5
3C3
100
AcDbEntity
  8
1
  6
CONTINUOUS
 62
           3
100
AcDbCircle
 10
526.063892142251
 20
13962.97602581389
 40
2.0
100
AcDbArc
 50
90.0
 51
180.0
  0
ARC
  5
3C2
100
AcDbEntity
  8
1
  6
CONTINUOUS
 62
           3
100
AcDbCircle
 10
527.063892142251
 20
13907.97602581389
 40
4.0
100
AcDbArc
 50
180.0
 51
-138.590377890664
  0
CIRCLE
  5
3C1
100
AcDbEntity
  8
1
  6
DOTTED
 62
           1
100
AcDbCircle
 10
1063.892418400481
 20
13597.491467022401
 40
2.5
  0
CIRCLE
  5
3C0
100
AcDbEntity
  8
1
  6
DOTTED
 62
           1
100
AcDbCircle
 10
1093.892418400481
 20
13597.491467022401
 40
2.5
  0
CIRCLE
  5
3BF
100
AcDbEntity
  8
1
  6
DOTTED
 62
           1
100
AcDbCircle
 10
1093.892418400481
 20
13652.491467022401
 40
2.5
  0
CIRCLE
  5
3BE
100
AcDbEntity
  8
1
  6
DOTTED
 62
           1
100
AcDbCircle
 10
1063.892418400481
 20
13652.491467022401
 40
2.5
  0
CIRCLE
  5
3BD
100
AcDbEntity
  8
1
  6
CONTINUOUS
 62
           3
100
AcDbCircle
 10
1093.892418400481
 20
13597.491467022401
 40
5.0
  0
CIRCLE
  5
3BC
100
AcDbEntity
  8
1
  6
CONTINUOUS
 62
           3
100
AcDbCircle
 10
1063.892418400481
 20
13597.491467022401
 40
5.0
  0
CIRCLE
  5
3BB
100
AcDbEntity
  8
1
  6
CONTINUOUS
 62
           3
100
AcDbCircle
 10
1063.892418400481
 20
13652.491467022401
 40
5.0
  0
CIRCLE
  5
3BA
100
AcDbEntity
  8
1
  6
CONTINUOUS
 62
           3
100
AcDbCircle
 10
1093.892418400481
 20
13652.491467022401
 40
5.0
  0
CIRCLE
  5
3B9
100
AcDbEntity
  8
1
  6
CONTINUOUS
 62
           3
100
AcDbCircle
 10
387.0075370422
 20
13444.491467022401
 40
15.0
  0
CIRCLE
  5
3B8
100
AcDbEntity
  8
1
  6
CONTINUOUS
 62
           3
100
AcDbCircle
 10
402.0075370422
 20
13487.491467022401
 40
2.5
  0
CIRCLE
  5
3B7
100
AcDbEntity
  8
1
  6
CONTINUOUS
 62
           3
100
AcDbCircle
 10
372.0075370422
 20
13487.491467022401
 40
2.5
  0
CIRCLE
  5
3B6
100
AcDbEntity
  8
1
  6
CONTINUOUS
 62
           3
100
AcDbCircle
 10
372.0075370422
 20
13514.991467022401
 40
2.5
  0
CIRCLE
  5
3B5
100
AcDbEntity
  8
1
  6
CONTINUOUS
 62
           3
100
AcDbCircle
 10
402.0075370422
 20
13514.991467022401
 40
2.5
  0
CIRCLE
  5
3B4
100
AcDbEntity
  8
1
  6
CONTINUOUS
 62
           3
100
AcDbCircle
 10
372.0075370422
 20
13542.491467022401
 40
2.5
  0
CIRCLE
  5
3B3
100
AcDbEntity
  8
1
  6
CONTINUOUS
 62
           3
100
AcDbCircle
 10
402.0075370422
 20
13542.491467022401
 40
2.5
  0
CIRCLE
  5
3B2
100
AcDbEntity
  8
1
  6
CONTINUOUS
 62
           3
100
AcDbCircle
 10
372.0075370422
 20
13707.491467022401
 40
2.5
  0
CIRCLE
  5
3B1
100
AcDbEntity
  8
1
  6
CONTINUOUS
 62
           3
100
AcDbCircle
 10
402.0075370422
 20
13707.491467022401
 40
2.5
  0
CIRCLE
  5
3B0
100
AcDbEntity
  8
1
  6
CONTINUOUS
 62
           3
100
AcDbCircle
 10
866.063892142251
 20
13866.47602581389
 40
3.75
  0
CIRCLE
  5
3AF
100
AcDbEntity
  8
1
  6
CONTINUOUS
 62
           3
100
AcDbCircle
 10
921.063892142251
 20
13866.47602581389
 40
3.75
  0
CIRCLE
  5
3AE
100
AcDbEntity
  8
1
  6
CONTINUOUS
 62
           3
100
AcDbCircle
 10
921.063892142251
 20
13981.47602581389
 40
3.75
  0
CIRCLE
  5
3AD
100
AcDbEntity
  8
1
  6
CONTINUOUS
 62
           3
100
AcDbCircle
 10
866.063892142251
 20
13981.47602581389
 40
3.75
  0
CIRCLE
  5
3AC
100
AcDbEntity
  8
1
  6
CONTINUOUS
 62
           3
100
AcDbCircle
 10
1093.892418400481
 20
13707.491467022401
 40
2.5
  0
CIRCLE
  5
3AB
100
AcDbEntity
  8
1
  6
CONTINUOUS
 62
           3
100
AcDbCircle
 10
1063.892418400481
 20
13707.491467022401
 40
2.5
  0
CIRCLE
  5
3AA
100
AcDbEntity
  8
1
  6
CONTINUOUS
 62
           3
100
AcDbCircle
 10
1093.892418400481
 20
13679.991467022401
 40
2.5
  0
CIRCLE
  5
3A9
100
AcDbEntity
  8
1
  6
CONTINUOUS
 62
           3
100
AcDbCircle
 10
1063.892418400481
 20
13679.991467022401
 40
2.5
  0
CIRCLE
  5
3A8
100
AcDbEntity
  8
1
  6
CONTINUOUS
 62
           3
100
AcDbCircle
 10
1093.892418400481
 20
13624.991467022401
 40
2.5
  0
CIRCLE
  5
3A7
100
AcDbEntity
  8
1
  6
CONTINUOUS
 62
           3
100
AcDbCircle
 10
1063.892418400481
 20
13624.991467022401
 40
2.5
  0
CIRCLE
  5
3A6
100
AcDbEntity
  8
1
  6
CONTINUOUS
 62
           3
100
AcDbCircle
 10
1093.892418400481
 20
13569.991467022401
 40
2.5
  0
CIRCLE
  5
3A5
100
AcDbEntity
  8
1
  6
CONTINUOUS
 62
           3
100
AcDbCircle
 10
1063.892418400481
 20
13569.991467022401
 40
2.5
  0
CIRCLE
  5
3A4
100
AcDbEntity
  8
1
  6
CONTINUOUS
 62
           3
100
AcDbCircle
 10
1093.892418400481
 20
13542.491467022401
 40
2.5
  0
CIRCLE
  5
3A3
100
AcDbEntity
  8
1
  6
CONTINUOUS
 62
           3
100
AcDbCircle
 10
1063.892418400481
 20
13542.491467022401
 40
2.5
  0
CIRCLE
  5
3A2
100
AcDbEntity
  8
1
  6
CONTINUOUS
 62
           3
100
AcDbCircle
 10
1093.892418400481
 20
13514.991467022401
 40
2.5
  0
CIRCLE
  5
3A1
100
AcDbEntity
  8
1
  6
CONTINUOUS
 62
           3
100
AcDbCircle
 10
1063.892418400481
 20
13514.991467022401
 40
2.5
  0
CIRCLE
  5
3A0
100
AcDbEntity
  8
1
  6
CONTINUOUS
 62
           3
100
AcDbCircle
 10
1063.892418400481
 20
13487.491467022401
 40
2.5
  0
CIRCLE
  5
39F
100
AcDbEntity
  8
1
  6
CONTINUOUS
 62
           3
100
AcDbCircle
 10
1093.892418400481
 20
13487.491467022401
 40
2.5
  0
CIRCLE
  5
39E
100
AcDbEntity
  8
1
  6
CONTINUOUS
 62
           3
100
AcDbCircle
 10
1078.892418400481
 20
13444.491467022401
 40
15.0
  0
CIRCLE
  5
39D
100
AcDbEntity
  8
1
  6
CONTINUOUS
 62
           3
100
AcDbCircle
 10
377.0075370422
 20
13612.491467022401
 40
3.5
  0
CIRCLE
  5
39C
100
AcDbEntity
  8
1
  6
CONTINUOUS
 62
           3
100
AcDbCircle
 10
397.0075370422
 20
13612.491467022401
 40
3.5
  0
CIRCLE
  5
39B
100
AcDbEntity
  8
1
  6
CONTINUOUS
 62
           3
100
AcDbCircle
 10
397.0075370422
 20
13637.491467022401
 40
3.5
  0
CIRCLE
  5
39A
100
AcDbEntity
  8
1
  6
CONTINUOUS
 62
           3
100
AcDbCircle
 10
377.0075370422
 20
13637.491467022401
 40
3.5
  0
CIRCLE
  5
399
100
AcDbEntity
  8
1
  6
CONTINUOUS
 62
           3
100
AcDbCircle
 10
424.5075370422
 20
13587.491467022401
 40
2.6
  0
CIRCLE
  5
398
100
AcDbEntity
  8
1
  6
CONTINUOUS
 62
           3
100
AcDbCircle
 10
437.0075370422
 20
13574.991467022401
 40
2.6
  0
CIRCLE
  5
397
100
AcDbEntity
  8
1
  6
CONTINUOUS
 62
           3
100
AcDbCircle
 10
402.0075370422
 20
13569.991467022401
 40
2.5
  0
CIRCLE
  5
396
100
AcDbEntity
  8
1
  6
CONTINUOUS
 62
           3
100
AcDbCircle
 10
372.0075370422
 20
13569.991467022401
 40
2.5
  0
CIRCLE
  5
395
100
AcDbEntity
  8
1
  6
DOTTED
 62
           1
100
AcDbCircle
 10
372.0075370422
 20
13597.491467022401
 40
2.5
  0
CIRCLE
  5
394
100
AcDbEntity
  8
1
  6
DOTTED
 62
           1
100
AcDbCircle
 10
402.0075370422
 20
13597.491467022401
 40
2.5
  0
CIRCLE
  5
393
100
AcDbEntity
  8
1
  6
DOTTED
 62
           1
100
AcDbCircle
 10
402.0075370422
 20
13624.991467022401
 40
2.5
  0
CIRCLE
  5
392
100
AcDbEntity
  8
1
  6
DOTTED
 62
           1
100
AcDbCircle
 10
372.0075370422
 20
13624.991467022401
 40
2.5
  0
CIRCLE
  5
391
100
AcDbEntity
  8
1
  6
DOTTED
 62
           1
100
AcDbCircle
 10
372.0075370422
 20
13652.491467022401
 40
2.5
  0
CIRCLE
  5
390
100
AcDbEntity
  8
1
  6
DOTTED
 62
           1
100
AcDbCircle
 10
402.0075370422
 20
13652.491467022401
 40
2.5
  0
CIRCLE
  5
38F
100
AcDbEntity
  8
1
  6
CONTINUOUS
 62
           3
100
AcDbCircle
 10
402.0075370422
 20
13679.991467022401
 40
2.5
  0
CIRCLE
  5
38E
100
AcDbEntity
  8
1
  6
CONTINUOUS
 62
           3
100
AcDbCircle
 10
372.0075370422
 20
13679.991467022401
 40
2.5
  0
CIRCLE
  5
38D
100
AcDbEntity
  8
1
  6
CONTINUOUS
 62
           3
100
AcDbCircle
 10
1028.892418400481
 20
13574.991467022401
 40
2.6
  0
CIRCLE
  5
38C
100
AcDbEntity
  8
1
  6
CONTINUOUS
 62
           3
100
AcDbCircle
 10
1041.392418400481
 20
13587.491467022401
 40
2.6
  0
CIRCLE
  5
38B
100
AcDbEntity
  8
1
  6
PHANTOM
 62
           1
100
AcDbCircle
 10
900.011951252848
 20
13923.97602581389
 40
8.750000000004
  0
CIRCLE
  5
38A
100
AcDbEntity
  8
1
  6
PHANTOM
 62
           1
100
AcDbCircle
 10
912.78792169755
 20
13754.45678036018
 40
8.750000000004
  0
CIRCLE
  5
389
100
AcDbEntity
  8
1
  6
PHANTOM
 62
           1
100
AcDbCircle
 10
925.563892142251
 20
13923.97602581389
 40
8.75
  0
CIRCLE
  5
388
100
AcDbEntity
  8
1
  6
CONTINUOUS
 62
           3
100
AcDbCircle
 10
755.563892142251
 20
13923.97602581389
 40
8.75
  0
CIRCLE
  5
387
100
AcDbEntity
  8
1
  6
CONTINUOUS
 62
           3
100
AcDbCircle
 10
585.563892142251
 20
13923.97602581389
 40
8.75
  0
ARC
  5
386
100
AcDbEntity
  8
1
  6
DOTTED
 62
           1
100
AcDbCircle
 10
904.063892142251
 20
13589.491467022401
 40
3.5
100
AcDbArc
 50
-90.0
 51
-25.376933525158
  0
ARC
  5
385
100
AcDbEntity
  8
1
  6
CONTINUOUS
 62
           3
100
AcDbCircle
 10
854.063892142251
 20
13589.491467022401
 40
3.5
100
AcDbArc
 50
-90.0
 51
90.0
  0
ARC
  5
384
100
AcDbEntity
  8
1
  6
CONTINUOUS
 62
           3
100
AcDbCircle
 10
877.063892142251
 20
13589.491467022401
 40
3.5
100
AcDbArc
 50
90.0
 51
-90.0
  0
ARC
  5
383
100
AcDbEntity
  8
1
  6
CONTINUOUS
 62
           3
100
AcDbCircle
 10
904.063892142251
 20
13589.491467022401
 40
3.499999999999
100
AcDbArc
 50
-25.376933525158
 51
90.0
  0
ARC
  5
382
100
AcDbEntity
  8
1
  6
CONTINUOUS
 62
           3
100
AcDbCircle
 10
904.063892142251
 20
13660.491467022401
 40
3.5
100
AcDbArc
 50
-90.0
 51
90.0
  0
ARC
  5
381
100
AcDbEntity
  8
1
  6
CONTINUOUS
 62
           3
100
AcDbCircle
 10
877.063892142251
 20
13660.491467022401
 40
3.5
100
AcDbArc
 50
90.0
 51
-90.0
  0
ARC
  5
380
100
AcDbEntity
  8
1
  6
CONTINUOUS
 62
           3
100
AcDbCircle
 10
854.063892142251
 20
13660.491467022401
 40
3.5
100
AcDbArc
 50
-90.0
 51
90.0
  0
ARC
  5
37F
100
AcDbEntity
  8
1
  6
CONTINUOUS
 62
           3
100
AcDbCircle
 10
925.563892142251
 20
13637.210217022401
 40
38.78125
100
AcDbArc
 50
76.960396496686
 51
103.039603503314
  0
ARC
  5
37E
100
AcDbEntity
  8
1
  6
CONTINUOUS
 62
           3
100
AcDbCircle
 10
1092.892418400481
 20
13596.491467022401
 40
0.5
100
AcDbArc
 50
0.0
 51
90.0
  0
ARC
  5
37D
100
AcDbEntity
  8
1
  6
CONTINUOUS
 62
           3
100
AcDbCircle
 10
1094.892418400481
 20
13596.491467022401
 40
0.5
100
AcDbArc
 50
90.0
 51
180.0
  0
ARC
  5
37C
100
AcDbEntity
  8
1
  6
CONTINUOUS
 62
           3
100
AcDbCircle
 10
1094.892418400481
 20
13598.491467022401
 40
0.5
100
AcDbArc
 50
180.0
 51
-90.0
  0
ARC
  5
37B
100
AcDbEntity
  8
1
  6
CONTINUOUS
 62
           3
100
AcDbCircle
 10
1092.892418400481
 20
13598.491467022401
 40
0.5
100
AcDbArc
 50
-90.0
 51
0.0
  0
ARC
  5
37A
100
AcDbEntity
  8
1
  6
CONTINUOUS
 62
           3
100
AcDbCircle
 10
1064.892418400481
 20
13598.491467022401
 40
0.5
100
AcDbArc
 50
180.0
 51
-90.0
  0
ARC
  5
379
100
AcDbEntity
  8
1
  6
CONTINUOUS
 62
           3
100
AcDbCircle
 10
1062.892418400481
 20
13598.491467022401
 40
0.5
100
AcDbArc
 50
-90.0
 51
0.0
  0
ARC
  5
378
100
AcDbEntity
  8
1
  6
CONTINUOUS
 62
           3
100
AcDbCircle
 10
1062.892418400481
 20
13596.491467022401
 40
0.5
100
AcDbArc
 50
0.0
 51
90.0
  0
ARC
  5
377
100
AcDbEntity
  8
1
  6
CONTINUOUS
 62
           3
100
AcDbCircle
 10
1064.892418400481
 20
13596.491467022401
 40
0.5
100
AcDbArc
 50
90.0
 51
180.0
  0
ARC
  5
376
100
AcDbEntity
  8
1
  6
CONTINUOUS
 62
           3
100
AcDbCircle
 10
1064.892418400481
 20
13653.491467022401
 40
0.5
100
AcDbArc
 50
180.0
 51
-90.0
  0
ARC
  5
375
100
AcDbEntity
  8
1
  6
CONTINUOUS
 62
           3
100
AcDbCircle
 10
1062.892418400481
 20
13653.491467022401
 40
0.5
100
AcDbArc
 50
-90.0
 51
0.0
  0
ARC
  5
374
100
AcDbEntity
  8
1
  6
CONTINUOUS
 62
           3
100
AcDbCircle
 10
1062.892418400481
 20
13651.491467022401
 40
0.5
100
AcDbArc
 50
0.0
 51
90.0
  0
ARC
  5
373
100
AcDbEntity
  8
1
  6
CONTINUOUS
 62
           3
100
AcDbCircle
 10
1064.892418400481
 20
13651.491467022401
 40
0.5
100
AcDbArc
 50
90.0
 51
180.0
  0
ARC
  5
372
100
AcDbEntity
  8
1
  6
CONTINUOUS
 62
           3
100
AcDbCircle
 10
1092.892418400481
 20
13651.491467022401
 40
0.5
100
AcDbArc
 50
0.0
 51
90.0
  0
ARC
  5
371
100
AcDbEntity
  8
1
  6
CONTINUOUS
 62
           3
100
AcDbCircle
 10
1094.892418400481
 20
13651.491467022401
 40
0.5
100
AcDbArc
 50
90.0
 51
180.0
  0
ARC
  5
370
100
AcDbEntity
  8
1
  6
CONTINUOUS
 62
           3
100
AcDbCircle
 10
1094.892418400481
 20
13653.491467022401
 40
0.5
100
AcDbArc
 50
180.0
 51
-90.0
  0
ARC
  5
36F
100
AcDbEntity
  8
1
  6
CONTINUOUS
 62
           3
100
AcDbCircle
 10
1092.892418400481
 20
13653.491467022401
 40
0.5
100
AcDbArc
 50
-90.0
 51
0.0
  0
ARC
  5
36E
100
AcDbEntity
  8
1
  6
CONTINUOUS
 62
           3
100
AcDbCircle
 10
948.063892142251
 20
13950.97602581389
 40
3.0
100
AcDbArc
 50
0.0
 51
90.0
  0
ARC
  5
36D
100
AcDbEntity
  8
1
  6
CONTINUOUS
 62
           3
100
AcDbCircle
 10
948.063892142251
 20
13896.97602581389
 40
3.0
100
AcDbArc
 50
-90.0
 51
0.0
  0
ARC
  5
36C
100
AcDbEntity
  8
1
  6
CONTINUOUS
 62
           3
100
AcDbCircle
 10
856.063892142251
 20
13856.97602581389
 40
5.0
100
AcDbArc
 50
180.0
 51
-90.0
  0
ARC
  5
36B
100
AcDbEntity
  8
1
  6
CONTINUOUS
 62
           3
100
AcDbCircle
 10
856.063892142251
 20
13990.97602581389
 40
5.0
100
AcDbArc
 50
90.0
 51
180.0
  0
ARC
  5
36A
100
AcDbEntity
  8
1
  6
CONTINUOUS
 62
           3
100
AcDbCircle
 10
936.063892142251
 20
13990.97602581389
 40
5.0
100
AcDbArc
 50
0.0
 51
90.0
  0
ARC
  5
369
100
AcDbEntity
  8
1
  6
CONTINUOUS
 62
           3
100
AcDbCircle
 10
936.063892142251
 20
13856.97602581389
 40
5.0
100
AcDbArc
 50
-90.0
 51
0.0
  0
ARC
  5
368
100
AcDbEntity
  8
1
  6
CONTINUOUS
 62
           3
100
AcDbCircle
 10
948.063892142251
 20
13405.491467022401
 40
3.0
100
AcDbArc
 50
-90.0
 51
0.0
  0
ARC
  5
367
100
AcDbEntity
  8
1
  6
CONTINUOUS
 62
           3
100
AcDbCircle
 10
946.063892142251
 20
13712.491467022401
 40
5.0
100
AcDbArc
 50
90.0
 51
180.0
  0
ARC
  5
366
100
AcDbEntity
  8
1
  6
CONTINUOUS
 62
           6
100
AcDbCircle
 10
378.0075370422
 20
13611.491467022401
 40
0.5
100
AcDbArc
 50
90.0
 51
180.0
  0
ARC
  5
365
100
AcDbEntity
  8
1
  6
CONTINUOUS
 62
           6
100
AcDbCircle
 10
378.0075370422
 20
13613.491467022401
 40
0.5
100
AcDbArc
 50
180.0
 51
-90.0
  0
ARC
  5
364
100
AcDbEntity
  8
1
  6
CONTINUOUS
 62
           6
100
AcDbCircle
 10
376.0075370422
 20
13613.491467022401
 40
0.5
100
AcDbArc
 50
-90.0
 51
0.0
  0
ARC
  5
363
100
AcDbEntity
  8
1
  6
CONTINUOUS
 62
           6
100
AcDbCircle
 10
376.0075370422
 20
13611.491467022401
 40
0.5
100
AcDbArc
 50
0.0
 51
90.0
  0
ARC
  5
362
100
AcDbEntity
  8
1
  6
CONTINUOUS
 62
           6
100
AcDbCircle
 10
398.0075370422
 20
13611.491467022401
 40
0.5
100
AcDbArc
 50
90.0
 51
180.0
  0
ARC
  5
361
100
AcDbEntity
  8
1
  6
CONTINUOUS
 62
           6
100
AcDbCircle
 10
398.0075370422
 20
13613.491467022401
 40
0.5
100
AcDbArc
 50
180.0
 51
-90.0
  0
ARC
  5
360
100
AcDbEntity
  8
1
  6
CONTINUOUS
 62
           6
100
AcDbCircle
 10
396.0075370422
 20
13613.491467022401
 40
0.5
100
AcDbArc
 50
-90.0
 51
0.0
  0
ARC
  5
35F
100
AcDbEntity
  8
1
  6
CONTINUOUS
 62
           6
100
AcDbCircle
 10
396.0075370422
 20
13611.491467022401
 40
0.5
100
AcDbArc
 50
0.0
 51
90.0
  0
ARC
  5
35E
100
AcDbEntity
  8
1
  6
CONTINUOUS
 62
           6
100
AcDbCircle
 10
396.0075370422
 20
13638.491467022401
 40
0.5
100
AcDbArc
 50
-90.0
 51
0.0
  0
ARC
  5
35D
100
AcDbEntity
  8
1
  6
CONTINUOUS
 62
           6
100
AcDbCircle
 10
396.0075370422
 20
13636.491467022401
 40
0.5
100
AcDbArc
 50
0.0
 51
90.0
  0
ARC
  5
35C
100
AcDbEntity
  8
1
  6
CONTINUOUS
 62
           6
100
AcDbCircle
 10
398.0075370422
 20
13636.491467022401
 40
0.5
100
AcDbArc
 50
90.0
 51
180.0
  0
ARC
  5
35B
100
AcDbEntity
  8
1
  6
CONTINUOUS
 62
           6
100
AcDbCircle
 10
398.0075370422
 20
13638.491467022401
 40
0.5
100
AcDbArc
 50
180.0
 51
-90.0
  0
ARC
  5
35A
100
AcDbEntity
  8
1
  6
CONTINUOUS
 62
           6
100
AcDbCircle
 10
376.0075370422
 20
13638.491467022401
 40
0.5
100
AcDbArc
 50
-90.0
 51
0.0
  0
ARC
  5
359
100
AcDbEntity
  8
1
  6
CONTINUOUS
 62
           6
100
AcDbCircle
 10
376.0075370422
 20
13636.491467022401
 40
0.5
100
AcDbArc
 50
0.0
 51
90.0
  0
ARC
  5
358
100
AcDbEntity
  8
1
  6
CONTINUOUS
 62
           6
100
AcDbCircle
 10
378.0075370422
 20
13636.491467022401
 40
0.5
100
AcDbArc
 50
90.0
 51
180.0
  0
ARC
  5
357
100
AcDbEntity
  8
1
  6
CONTINUOUS
 62
           6
100
AcDbCircle
 10
378.0075370422
 20
13638.491467022401
 40
0.5
100
AcDbArc
 50
180.0
 51
-90.0
  0
ARC
  5
356
100
AcDbEntity
  8
1
  6
CONTINUOUS
 62
           3
100
AcDbCircle
 10
349.507537042199
 20
13590.8914670224
 40
2.6
100
AcDbArc
 50
90.00000000001
 51
180.0
  0
ARC
  5
355
100
AcDbEntity
  8
1
  6
CONTINUOUS
 62
           3
100
AcDbCircle
 10
349.507537042199
 20
13590.8914670224
 40
2.600000000001
100
AcDbArc
 50
0.0
 51
90.00000000001
  0
ARC
  5
354
100
AcDbEntity
  8
1
  6
CONTINUOUS
 62
           3
100
AcDbCircle
 10
349.507537042199
 20
13584.091467022399
 40
2.599999999999
100
AcDbArc
 50
-90.0
 51
0.0
  0
ARC
  5
353
100
AcDbEntity
  8
1
  6
CONTINUOUS
 62
           3
100
AcDbCircle
 10
349.507537042199
 20
13584.091467022399
 40
2.6
100
AcDbArc
 50
180.0
 51
-90.0
  0
ARC
  5
352
100
AcDbEntity
  8
1
  6
CONTINUOUS
 62
           3
100
AcDbCircle
 10
337.007537042199
 20
13571.591467022399
 40
2.6
100
AcDbArc
 50
180.0
 51
-90.0
  0
ARC
  5
351
100
AcDbEntity
  8
1
  6
CONTINUOUS
 62
           3
100
AcDbCircle
 10
337.007537042199
 20
13571.591467022399
 40
2.599999999999
100
AcDbArc
 50
-90.0
 51
0.0
  0
ARC
  5
350
100
AcDbEntity
  8
1
  6
CONTINUOUS
 62
           3
100
AcDbCircle
 10
337.007537042199
 20
13578.3914670224
 40
2.600000000001
100
AcDbArc
 50
0.0
 51
90.00000000001
  0
ARC
  5
34F
100
AcDbEntity
  8
1
  6
CONTINUOUS
 62
           3
100
AcDbCircle
 10
337.007537042199
 20
13578.3914670224
 40
2.6
100
AcDbArc
 50
90.00000000001
 51
180.0
  0
ARC
  5
34E
100
AcDbEntity
  8
1
  6
CONTINUOUS
 62
           3
100
AcDbCircle
 10
421.1075370422
 20
13662.491467022401
 40
2.599999999999
100
AcDbArc
 50
90.0
 51
180.0
  0
ARC
  5
34D
100
AcDbEntity
  8
1
  6
CONTINUOUS
 62
           3
100
AcDbCircle
 10
421.1075370422
 20
13662.491467022401
 40
2.6
100
AcDbArc
 50
180.0
 51
-90.0
  0
ARC
  5
34C
100
AcDbEntity
  8
1
  6
CONTINUOUS
 62
           3
100
AcDbCircle
 10
427.9075370422
 20
13662.491467022401
 40
2.6
100
AcDbArc
 50
-90.0
 51
0.0
  0
ARC
  5
34B
100
AcDbEntity
  8
1
  6
CONTINUOUS
 62
           3
100
AcDbCircle
 10
427.9075370422
 20
13662.491467022401
 40
2.599999999999
100
AcDbArc
 50
0.0
 51
90.0
  0
ARC
  5
34A
100
AcDbEntity
  8
1
  6
CONTINUOUS
 62
           3
100
AcDbCircle
 10
351.911700098234
 20
13664.895630078439
 40
2.59999999999
100
AcDbArc
 50
44.999999999773
 51
135.000000000227
  0
ARC
  5
349
100
AcDbEntity
  8
1
  6
CONTINUOUS
 62
           3
100
AcDbCircle
 10
351.911700098234
 20
13664.895630078439
 40
2.60000000001
100
AcDbArc
 50
-45.000000000223
 51
44.999999999773
  0
ARC
  5
348
100
AcDbEntity
  8
1
  6
CONTINUOUS
 62
           3
100
AcDbCircle
 10
347.103373986166
 20
13660.087303966369
 40
2.60000000001
100
AcDbArc
 50
-134.999999999771
 51
-45.000000000236
  0
ARC
  5
347
100
AcDbEntity
  8
1
  6
CONTINUOUS
 62
           3
100
AcDbCircle
 10
347.103373986166
 20
13660.087303966369
 40
2.59999999999
100
AcDbArc
 50
135.000000000225
 51
-134.999999999771
  0
ARC
  5
346
100
AcDbEntity
  8
1
  6
CONTINUOUS
 62
           3
100
AcDbCircle
 10
334.603373986166
 20
13672.587303966369
 40
2.59999999999
100
AcDbArc
 50
135.000000000225
 51
-134.999999999771
  0
ARC
  5
345
100
AcDbEntity
  8
1
  6
CONTINUOUS
 62
           3
100
AcDbCircle
 10
334.603373986166
 20
13672.587303966369
 40
2.60000000001
100
AcDbArc
 50
-134.999999999771
 51
-45.000000000236
  0
ARC
  5
344
100
AcDbEntity
  8
1
  6
CONTINUOUS
 62
           3
100
AcDbCircle
 10
339.411700098234
 20
13677.395630078439
 40
2.60000000001
100
AcDbArc
 50
-45.000000000223
 51
44.999999999773
  0
ARC
  5
343
100
AcDbEntity
  8
1
  6
CONTINUOUS
 62
           3
100
AcDbCircle
 10
339.411700098234
 20
13677.395630078439
 40
2.59999999999
100
AcDbArc
 50
44.999999999773
 51
135.000000000227
  0
ARC
  5
342
100
AcDbEntity
  8
1
  6
CONTINUOUS
 62
           3
100
AcDbCircle
 10
440.4075370422
 20
13674.991467022401
 40
2.6
100
AcDbArc
 50
-90.0
 51
90.0
  0
ARC
  5
341
100
AcDbEntity
  8
1
  6
CONTINUOUS
 62
           3
100
AcDbCircle
 10
433.6075370422
 20
13674.991467022401
 40
2.6
100
AcDbArc
 50
180.0
 51
-90.0
  0
ARC
  5
340
100
AcDbEntity
  8
1
  6
CONTINUOUS
 62
           3
100
AcDbCircle
 10
433.6075370422
 20
13674.991467022401
 40
2.599999999999
100
AcDbArc
 50
90.0
 51
180.0
  0
ARC
  5
33F
100
AcDbEntity
  8
1
  6
CONTINUOUS
 62
           3
100
AcDbCircle
 10
946.313892142254
 20
13597.491467022401
 40
7.249999999998
100
AcDbArc
 50
-43.60281897272
 51
43.60281897272
  0
ARC
  5
33E
100
AcDbEntity
  8
1
  6
CONTINUOUS
 62
           3
100
AcDbCircle
 10
946.313892142254
 20
13652.491467022401
 40
7.249999999998
100
AcDbArc
 50
-43.60281897272
 51
43.60281897272
  0
ARC
  5
33D
100
AcDbEntity
  8
1
  6
CONTINUOUS
 62
           3
100
AcDbCircle
 10
414.858448320792
 20
13404.64055574381
 40
4.410000000001
100
AcDbArc
 50
101.125016666864
 51
168.874983335533
  0
ARC
  5
33C
100
AcDbEntity
  8
1
  6
CONTINUOUS
 62
           3
100
AcDbCircle
 10
359.156625763608
 20
13404.64055574381
 40
4.409999999999
100
AcDbArc
 50
11.12501666685
 51
78.87498333313
  0
ARC
  5
33B
100
AcDbEntity
  8
1
  6
CONTINUOUS
 62
           3
100
AcDbCircle
 10
949.94804977939
 20
13403.607309385259
 40
5.01
100
AcDbArc
 50
112.091040129159
 51
-167.130980034746
  0
ARC
  5
33A
100
AcDbEntity
  8
1
  6
CONTINUOUS
 62
           3
100
AcDbCircle
 10
949.94804977939
 20
13403.607309385259
 40
5.01000000032
100
AcDbArc
 50
77.13098003484
 51
112.091040129128
  0
ARC
  5
339
100
AcDbEntity
  8
1
  6
CONTINUOUS
 62
           3
100
AcDbCircle
 10
1106.743329679073
 20
13404.64055574381
 40
4.410000000001
100
AcDbArc
 50
101.125016666867
 51
168.874983335532
  0
ARC
  5
338
100
AcDbEntity
  8
1
  6
CONTINUOUS
 62
           3
100
AcDbCircle
 10
1051.041507121889
 20
13404.64055574381
 40
4.410000000916
100
AcDbArc
 50
-29.164696536498
 51
11.125016666893
  0
ARC
  5
337
100
AcDbEntity
  8
1
  6
CONTINUOUS
 62
           3
100
AcDbCircle
 10
1051.041507121889
 20
13404.64055574381
 40
4.41
100
AcDbArc
 50
11.125016666849
 51
78.874983333135
  0
ARC
  5
336
100
AcDbEntity
  8
1
  6
CONTINUOUS
 62
           3
100
AcDbCircle
 10
1106.743329679073
 20
13404.64055574381
 40
4.410000000914
100
AcDbArc
 50
60.835303463511
 51
101.125016666893
  0
ARC
  5
335
100
AcDbEntity
  8
1
  6
CONTINUOUS
 62
           3
100
AcDbCircle
 10
1051.041507121889
 20
13404.64055574381
 40
4.410000000001
100
AcDbArc
 50
78.874983333135
 51
119.164696536497
  0
ARC
  5
334
100
AcDbEntity
  8
1
  6
CONTINUOUS
 62
           3
100
AcDbCircle
 10
1106.743329679073
 20
13404.64055574381
 40
4.410000000914
100
AcDbArc
 50
168.874983335488
 51
-150.835303463503
  0
ARC
  5
333
100
AcDbEntity
  8
1
  6
CONTINUOUS
 62
           3
100
AcDbCircle
 10
427.0075370422
 20
13624.991467022401
 40
10.000000000003
100
AcDbArc
 50
145.59659825616
 51
-145.596598256205
  0
ARC
  5
332
100
AcDbEntity
  8
1
  6
CONTINUOUS
 62
           3
100
AcDbCircle
 10
437.0075370422
 20
13674.991467022401
 40
9.999999999998
100
AcDbArc
 50
-34.403401743797
 51
124.403401743855
  0
ARC
  5
331
100
AcDbEntity
  8
1
  6
CONTINUOUS
 62
           3
100
AcDbCircle
 10
437.0075370422
 20
13574.991467022401
 40
10.000000000008
100
AcDbArc
 50
-124.40340174379
 51
34.403401743802
  0
ARC
  5
330
100
AcDbEntity
  8
1
  6
CONTINUOUS
 62
           3
100
AcDbCircle
 10
387.0075370422
 20
13584.991467022401
 40
9.99999999999
100
AcDbArc
 50
55.59659825614
 51
124.403401743862
  0
ARC
  5
32F
100
AcDbEntity
  8
1
  6
CONTINUOUS
 62
           3
100
AcDbCircle
 10
337.0075370422
 20
13574.991467022401
 40
10.000000000003
100
AcDbArc
 50
145.596598256159
 51
-55.596598256203
  0
ARC
  5
32E
100
AcDbEntity
  8
1
  6
CONTINUOUS
 62
           3
100
AcDbCircle
 10
347.0075370422
 20
13624.991467022401
 40
9.999999999998
100
AcDbArc
 50
-34.403401743797
 51
34.403401743843
  0
ARC
  5
32D
100
AcDbEntity
  8
1
  6
CONTINUOUS
 62
           3
100
AcDbCircle
 10
337.0075370422
 20
13674.991467022401
 40
9.99999999999
100
AcDbArc
 50
55.596598256139
 51
-145.596598256208
  0
ARC
  5
32C
100
AcDbEntity
  8
1
  6
CONTINUOUS
 62
           3
100
AcDbCircle
 10
387.0075370422
 20
13664.991467022401
 40
10.000000000008
100
AcDbArc
 50
-124.403401743791
 51
-55.59659825621
  0
ARC
  5
32B
100
AcDbEntity
  8
1
  6
CONTINUOUS
 62
           3
100
AcDbCircle
 10
1128.892418400481
 20
13674.991467022401
 40
9.999999999999
100
AcDbArc
 50
-34.403401743791
 51
124.403401743857
  0
ARC
  5
32A
100
AcDbEntity
  8
1
  6
CONTINUOUS
 62
           3
100
AcDbCircle
 10
1118.892418400481
 20
13624.991467022401
 40
10.000000000002
100
AcDbArc
 50
145.596598256155
 51
-145.596598256201
  0
ARC
  5
329
100
AcDbEntity
  8
1
  6
CONTINUOUS
 62
           3
100
AcDbCircle
 10
1128.892418400481
 20
13574.991467022401
 40
10.000000000008
100
AcDbArc
 50
-124.403401743796
 51
34.403401743837
  0
ARC
  5
328
100
AcDbEntity
  8
1
  6
CONTINUOUS
 62
           3
100
AcDbCircle
 10
1028.892418400481
 20
13574.991467022401
 40
9.999999999996
100
AcDbArc
 50
145.596598256195
 51
-55.596598256208
  0
ARC
  5
327
100
AcDbEntity
  8
1
  6
CONTINUOUS
 62
           3
100
AcDbCircle
 10
1028.892418400481
 20
13674.991467022401
 40
9.999999999989
100
AcDbArc
 50
55.596598256141
 51
-145.596598256201
  0
ARC
  5
326
100
AcDbEntity
  8
1
  6
CONTINUOUS
 62
           3
100
AcDbCircle
 10
1038.892418400481
 20
13624.991467022401
 40
9.999999999999
100
AcDbArc
 50
-34.403401743791
 51
34.403401743837
  0
ARC
  5
325
100
AcDbEntity
  8
1
  6
CONTINUOUS
 62
           3
100
AcDbCircle
 10
1032.292418400481
 20
13674.991467022401
 40
2.600000000002
100
AcDbArc
 50
0.0
 51
90.0
  0
ARC
  5
324
100
AcDbEntity
  8
1
  6
CONTINUOUS
 62
           3
100
AcDbCircle
 10
1032.292418400481
 20
13674.991467022401
 40
2.6
100
AcDbArc
 50
-90.0
 51
0.0
  0
ARC
  5
323
100
AcDbEntity
  8
1
  6
CONTINUOUS
 62
           3
100
AcDbCircle
 10
1025.492418400481
 20
13674.991467022401
 40
2.599999999999
100
AcDbArc
 50
180.0
 51
-90.0
  0
ARC
  5
322
100
AcDbEntity
  8
1
  6
CONTINUOUS
 62
           3
100
AcDbCircle
 10
1025.492418400481
 20
13674.991467022401
 40
2.599999999999
100
AcDbArc
 50
90.0
 51
180.0
  0
ARC
  5
321
100
AcDbEntity
  8
1
  6
CONTINUOUS
 62
           3
100
AcDbCircle
 10
1126.488255344447
 20
13677.395630078439
 40
2.59999999999
100
AcDbArc
 50
44.999999999773
 51
135.000000000226
  0
ARC
  5
320
100
AcDbEntity
  8
1
  6
CONTINUOUS
 62
           3
100
AcDbCircle
 10
1126.488255344447
 20
13677.395630078439
 40
2.59999999999
100
AcDbArc
 50
135.000000000226
 51
-134.999999999773
  0
ARC
  5
31F
100
AcDbEntity
  8
1
  6
CONTINUOUS
 62
           3
100
AcDbCircle
 10
1131.296581456515
 20
13672.587303966369
 40
2.60000000001
100
AcDbArc
 50
-134.999999999759
 51
-45.000000000227
  0
ARC
  5
31E
100
AcDbEntity
  8
1
  6
CONTINUOUS
 62
           3
100
AcDbCircle
 10
1131.296581456515
 20
13672.587303966369
 40
2.60000000001
100
AcDbArc
 50
-45.000000000227
 51
44.999999999773
  0
ARC
  5
31D
100
AcDbEntity
  8
1
  6
CONTINUOUS
 62
           3
100
AcDbCircle
 10
1118.796581456515
 20
13660.087303966369
 40
2.60000000001
100
AcDbArc
 50
-45.000000000227
 51
44.999999999773
  0
ARC
  5
31C
100
AcDbEntity
  8
1
  6
CONTINUOUS
 62
           3
100
AcDbCircle
 10
1118.796581456515
 20
13660.087303966369
 40
2.60000000001
100
AcDbArc
 50
-134.999999999759
 51
-45.000000000227
  0
ARC
  5
31B
100
AcDbEntity
  8
1
  6
CONTINUOUS
 62
           3
100
AcDbCircle
 10
1113.988255344447
 20
13664.895630078439
 40
2.59999999999
100
AcDbArc
 50
135.000000000226
 51
-134.999999999773
  0
ARC
  5
31A
100
AcDbEntity
  8
1
  6
CONTINUOUS
 62
           3
100
AcDbCircle
 10
1113.988255344447
 20
13664.895630078439
 40
2.59999999999
100
AcDbArc
 50
44.999999999773
 51
135.000000000226
  0
ARC
  5
319
100
AcDbEntity
  8
1
  6
CONTINUOUS
 62
           3
100
AcDbCircle
 10
1037.992418400481
 20
13662.491467022401
 40
2.599999999999
100
AcDbArc
 50
90.0
 51
180.0
  0
ARC
  5
318
100
AcDbEntity
  8
1
  6
CONTINUOUS
 62
           3
100
AcDbCircle
 10
1037.992418400481
 20
13662.491467022401
 40
2.599999999999
100
AcDbArc
 50
180.0
 51
-90.0
  0
ARC
  5
317
100
AcDbEntity
  8
1
  6
CONTINUOUS
 62
           3
100
AcDbCircle
 10
1044.792418400481
 20
13662.491467022401
 40
2.6
100
AcDbArc
 50
-90.0
 51
0.0
  0
ARC
  5
316
100
AcDbEntity
  8
1
  6
CONTINUOUS
 62
           3
100
AcDbCircle
 10
1044.792418400481
 20
13662.491467022401
 40
2.600000000002
100
AcDbArc
 50
0.0
 51
90.0
  0
ARC
  5
315
100
AcDbEntity
  8
1
  6
CONTINUOUS
 62
           3
100
AcDbCircle
 10
1128.892418400482
 20
13578.3914670224
 40
2.599999999999
100
AcDbArc
 50
0.0
 51
89.99999999998
  0
ARC
  5
314
100
AcDbEntity
  8
1
  6
CONTINUOUS
 62
           3
100
AcDbCircle
 10
1128.892418400482
 20
13578.3914670224
 40
2.6
100
AcDbArc
 50
89.99999999998
 51
180.0
  0
ARC
  5
313
100
AcDbEntity
  8
1
  6
CONTINUOUS
 62
           3
100
AcDbCircle
 10
1128.892418400482
 20
13571.591467022399
 40
2.600000000001
100
AcDbArc
 50
180.0
 51
-90.0
  0
ARC
  5
312
100
AcDbEntity
  8
1
  6
CONTINUOUS
 62
           3
100
AcDbCircle
 10
1128.892418400482
 20
13571.591467022399
 40
2.599999999999
100
AcDbArc
 50
-90.0
 51
0.0
  0
ARC
  5
311
100
AcDbEntity
  8
1
  6
CONTINUOUS
 62
           3
100
AcDbCircle
 10
1116.392418400482
 20
13584.091467022399
 40
2.599999999999
100
AcDbArc
 50
-90.0
 51
0.0
  0
ARC
  5
310
100
AcDbEntity
  8
1
  6
CONTINUOUS
 62
           3
100
AcDbCircle
 10
1116.392418400482
 20
13584.091467022399
 40
2.6
100
AcDbArc
 50
180.0
 51
-90.0
  0
ARC
  5
30F
100
AcDbEntity
  8
1
  6
CONTINUOUS
 62
           3
100
AcDbCircle
 10
1116.392418400482
 20
13590.8914670224
 40
2.6
100
AcDbArc
 50
89.99999999998
 51
180.0
  0
ARC
  5
30E
100
AcDbEntity
  8
1
  6
CONTINUOUS
 62
           3
100
AcDbCircle
 10
1116.392418400482
 20
13590.8914670224
 40
2.599999999999
100
AcDbArc
 50
0.0
 51
89.99999999998
  0
ARC
  5
30D
100
AcDbEntity
  8
1
  6
PHANTOM
 62
           1
100
AcDbCircle
 10
900.011951252848
 20
13923.97602581389
 40
11.0
100
AcDbArc
 50
-90.0
 51
4.309999999952
  0
ARC
  5
30C
100
AcDbEntity
  8
1
  6
PHANTOM
 62
           1
100
AcDbCircle
 10
900.011951252848
 20
13923.97602581389
 40
11.0
100
AcDbArc
 50
90.0
 51
-175.689999999991
  0
ARC
  5
30B
100
AcDbEntity
  8
1
  6
PHANTOM
 62
           1
100
AcDbCircle
 10
912.78792169755
 20
13754.45678036018
 40
10.999999999999
100
AcDbArc
 50
175.690000000048
 51
-4.310000000009
  0
ARC
  5
30A
100
AcDbEntity
  8
1
  6
PHANTOM
 62
           1
100
AcDbCircle
 10
925.563892142251
 20
13923.97602581389
 40
11.000000000001
100
AcDbArc
 50
175.689999999944
 51
-90.0
  0
ARC
  5
309
100
AcDbEntity
  8
1
  6
PHANTOM
 62
           1
100
AcDbCircle
 10
900.011951252848
 20
13923.97602581389
 40
10.999999999999
100
AcDbArc
 50
4.309999999952
 51
90.0
  0
ARC
  5
308
100
AcDbEntity
  8
1
  6
PHANTOM
 62
           1
100
AcDbCircle
 10
925.563892142251
 20
13923.97602581389
 40
11.0
100
AcDbArc
 50
90.0
 51
175.689999999944
  0
ARC
  5
307
100
AcDbEntity
  8
1
  6
PHANTOM
 62
           1
100
AcDbCircle
 10
925.563892142251
 20
13923.97602581389
 40
11.0
100
AcDbArc
 50
-4.310000000009
 51
90.0
  0
ARC
  5
306
100
AcDbEntity
  8
1
  6
CONTINUOUS
 62
           3
100
AcDbCircle
 10
553.063892142251
 20
13624.991467022401
 40
19.5
100
AcDbArc
 50
63.823047828333
 51
90.0
  0
ARC
  5
305
100
AcDbEntity
  8
1
  6
CONTINUOUS
 62
           3
100
AcDbCircle
 10
553.063892142251
 20
13624.991467022401
 40
19.5
100
AcDbArc
 50
-63.823047828333
 51
63.823047828333
  0
ARC
  5
304
100
AcDbEntity
  8
1
  6
CONTINUOUS
 62
           3
100
AcDbCircle
 10
553.063892142251
 20
13624.991467022401
 40
19.5
100
AcDbArc
 50
-90.0
 51
-63.823047828333
  0
ARC
  5
303
100
AcDbEntity
  8
1
  6
CONTINUOUS
 62
           3
100
AcDbCircle
 10
585.563892142251
 20
13609.710217022401
 40
38.78125
100
AcDbArc
 50
76.960396496686
 51
103.039603503314
  0
ARC
  5
302
100
AcDbEntity
  8
1
  6
CONTINUOUS
 62
           3
100
AcDbCircle
 10
755.563892142251
 20
13637.210217022401
 40
38.78125
100
AcDbArc
 50
76.960396496686
 51
103.039603503314
  0
ARC
  5
301
100
AcDbEntity
  8
1
  6
CONTINUOUS
 62
           3
100
AcDbCircle
 10
827.063892142251
 20
13660.491467022401
 40
3.5
100
AcDbArc
 50
90.0
 51
-90.0
  0
ARC
  5
300
100
AcDbEntity
  8
1
  6
CONTINUOUS
 62
           3
100
AcDbCircle
 10
777.063892142251
 20
13660.491467022401
 40
3.5
100
AcDbArc
 50
90.000000000004
 51
-90.000000000004
  0
ARC
  5
2FF
100
AcDbEntity
  8
1
  6
CONTINUOUS
 62
           3
100
AcDbCircle
 10
804.063892142251
 20
13660.491467022401
 40
3.5
100
AcDbArc
 50
-90.0
 51
90.0
  0
ARC
  5
2FE
100
AcDbEntity
  8
1
  6
CONTINUOUS
 62
           3
100
AcDbCircle
 10
804.063892142251
 20
13589.491467022401
 40
3.5
100
AcDbArc
 50
-89.999999999996
 51
90.0
  0
ARC
  5
2FD
100
AcDbEntity
  8
1
  6
DOTTED
 62
           1
100
AcDbCircle
 10
777.063892142251
 20
13589.491467022401
 40
3.499999999999
100
AcDbArc
 50
-154.623066474842
 51
-90.0
  0
ARC
  5
2FC
100
AcDbEntity
  8
1
  6
CONTINUOUS
 62
           3
100
AcDbCircle
 10
827.063892142251
 20
13589.491467022401
 40
3.5
100
AcDbArc
 50
90.0
 51
-90.0
  0
ARC
  5
2FB
100
AcDbEntity
  8
1
  6
CONTINUOUS
 62
           3
100
AcDbCircle
 10
777.063892142251
 20
13589.491467022401
 40
3.5
100
AcDbArc
 50
90.0
 51
-154.623066474842
  0
ARC
  5
2FA
100
AcDbEntity
  8
1
  6
CONTINUOUS
 62
           3
100
AcDbCircle
 10
755.563892142251
 20
13923.97602581389
 40
11.0
100
AcDbArc
 50
90.0
 51
-90.0
  0
ARC
  5
2F9
100
AcDbEntity
  8
1
  6
DOTTED
 62
           1
100
AcDbCircle
 10
755.563892142251
 20
13923.97602581389
 40
11.0
100
AcDbArc
 50
-90.0
 51
90.0
  0
ARC
  5
2F8
100
AcDbEntity
  8
1
  6
CONTINUOUS
 62
           3
100
AcDbCircle
 10
585.563892142251
 20
13923.97602581389
 40
11.0
100
AcDbArc
 50
90.0
 51
-90.0
  0
ARC
  5
2F7
100
AcDbEntity
  8
1
  6
DOTTED
 62
           1
100
AcDbCircle
 10
585.563892142251
 20
13923.97602581389
 40
11.0
100
AcDbArc
 50
-90.0
 51
90.0
  0
LINE
  5
2F6
100
AcDbEntity
  8
1
  6
PHANTOM
 62
           1
100
AcDbLine
 10
936.532784495138
 20
13923.14934537334
 11
936.532784495138
 21
13923.14934537334
  0
LINE
  5
2F5
100
AcDbEntity
  8
1
  6
CONTINUOUS
 62
           3
100
AcDbLine
 10
948.063892142251
 20
13700.16741402194
 11
950.063892142251
 21
13700.16741402194
  0
LINE
  5
2F4
100
AcDbEntity
  8
1
  6
DOTTED
 62
           1
100
AcDbLine
 10
910.563892142251
 20
13574.991467022401
 11
900.563892142251
 21
13574.991467022401
  0
LINE
  5
2F3
100
AcDbEntity
  8
1
  6
DOTTED
 62
           1
100
AcDbLine
 10
910.563892142251
 20
13582.991467022401
 11
900.563892142251
 21
13582.991467022401
  0
LINE
  5
2F2
100
AcDbEntity
  8
1
  6
CONTINUOUS
 62
           3
100
AcDbLine
 10
900.563892142251
 20
13574.991467022401
 11
780.563892142251
 21
13574.991467022401
  0
LINE
  5
2F1
100
AcDbEntity
  8
1
  6
CONTINUOUS
 62
           3
100
AcDbLine
 10
900.563892142251
 20
13582.991467022401
 11
780.563892142251
 21
13582.991467022401
  0
LINE
  5
2F0
100
AcDbEntity
  8
1
  6
CONTINUOUS
 62
           3
100
AcDbLine
 10
900.563892142251
 20
13553.491467022401
 11
900.563892142251
 21
13587.491467022401
  0
LINE
  5
2EF
100
AcDbEntity
  8
1
  6
CONTINUOUS
 62
           3
100
AcDbLine
 10
900.563892142251
 20
13585.991467022401
 11
877.063892142251
 21
13585.991467022401
  0
LINE
  5
2EE
100
AcDbEntity
  8
1
  6
DOTTED
 62
           1
100
AcDbLine
 10
900.563892142251
 20
13555.491467022401
 11
910.563892142251
 21
13555.491467022401
  0
LINE
  5
2ED
100
AcDbEntity
  8
1
  6
CONTINUOUS
 62
           3
100
AcDbLine
 10
910.063892142251
 20
13552.991467022401
 11
901.063892142251
 21
13552.991467022401
  0
LINE
  5
2EC
100
AcDbEntity
  8
1
  6
CONTINUOUS
 62
           3
100
AcDbLine
 10
910.563892142251
 20
13587.491467022401
 11
910.563892142251
 21
13553.491467022401
  0
LINE
  5
2EB
100
AcDbEntity
  8
1
  6
CONTINUOUS
 62
           3
100
AcDbLine
 10
901.063892142251
 20
13587.991467022401
 11
910.063892142251
 21
13587.991467022401
  0
LINE
  5
2EA
100
AcDbEntity
  8
1
  6
CONTINUOUS
 62
           3
100
AcDbLine
 10
934.313892142251
 20
13601.991467022401
 11
938.063892142251
 21
13601.991467022401
  0
LINE
  5
2E9
100
AcDbEntity
  8
1
  6
CONTINUOUS
 62
           3
100
AcDbLine
 10
934.313892142251
 20
13599.991467022401
 11
915.563892142251
 21
13599.991467022401
  0
LINE
  5
2E8
100
AcDbEntity
  8
1
  6
CONTINUOUS
 62
           3
100
AcDbLine
 10
934.313892142251
 20
13601.991467022401
 11
934.313892142251
 21
13599.991467022401
  0
LINE
  5
2E7
100
AcDbEntity
  8
1
  6
CONTINUOUS
 62
           3
100
AcDbLine
 10
916.813892142251
 20
13601.991467022401
 11
934.313892142251
 21
13601.991467022401
  0
LINE
  5
2E6
100
AcDbEntity
  8
1
  6
CONTINUOUS
 62
           3
100
AcDbLine
 10
898.563892142251
 20
13599.991467022401
 11
764.313892142251
 21
13599.991467022401
  0
LINE
  5
2E5
100
AcDbEntity
  8
1
  6
CONTINUOUS
 62
           3
100
AcDbLine
 10
916.813892142251
 20
13601.991467022401
 11
916.813892142251
 21
13599.991467022401
  0
LINE
  5
2E4
100
AcDbEntity
  8
1
  6
CONTINUOUS
 62
           3
100
AcDbLine
 10
934.313892142251
 20
13649.991467022401
 11
936.063892142251
 21
13649.991467022401
  0
LINE
  5
2E3
100
AcDbEntity
  8
1
  6
CONTINUOUS
 62
           3
100
AcDbLine
 10
934.313892142251
 20
13647.991467022401
 11
916.813892142251
 21
13647.991467022401
  0
LINE
  5
2E2
100
AcDbEntity
  8
1
  6
CONTINUOUS
 62
           3
100
AcDbLine
 10
934.313892142251
 20
13649.991467022401
 11
934.313892142251
 21
13647.991467022401
  0
LINE
  5
2E1
100
AcDbEntity
  8
1
  6
CONTINUOUS
 62
           3
100
AcDbLine
 10
916.813892142251
 20
13647.991467022401
 11
915.063892142251
 21
13647.991467022401
  0
LINE
  5
2E0
100
AcDbEntity
  8
1
  6
CONTINUOUS
 62
           3
100
AcDbLine
 10
915.563892142251
 20
13649.991467022401
 11
934.313892142251
 21
13649.991467022401
  0
LINE
  5
2DF
100
AcDbEntity
  8
1
  6
CONTINUOUS
 62
           3
100
AcDbLine
 10
916.813892142251
 20
13649.991467022401
 11
916.813892142251
 21
13647.991467022401
  0
LINE
  5
2DE
100
AcDbEntity
  8
1
  6
DOT_CENTER
 62
           1
100
AcDbLine
 10
925.563892142251
 20
13684.13534076102
 11
925.563892142251
 21
13565.925340761019
  0
LINE
  5
2DD
100
AcDbEntity
  8
1
  6
CONTINUOUS
 62
           3
100
AcDbLine
 10
854.063892142251
 20
13585.991467022401
 11
827.063892142251
 21
13585.991467022401
  0
LINE
  5
2DC
100
AcDbEntity
  8
1
  6
CONTINUOUS
 62
           3
100
AcDbLine
 10
854.063892142251
 20
13592.991467022401
 11
827.063892142251
 21
13592.991467022401
  0
LINE
  5
2DB
100
AcDbEntity
  8
1
  6
CONTINUOUS
 62
           3
100
AcDbLine
 10
904.063892142251
 20
13592.991467022401
 11
877.063892142251
 21
13592.991467022401
  0
LINE
  5
2DA
100
AcDbEntity
  8
1
  6
DOTTED
 62
           1
100
AcDbLine
 10
904.063892142251
 20
13585.991467022401
 11
900.563892142251
 21
13585.991467022401
  0
LINE
  5
2D9
100
AcDbEntity
  8
1
  6
CONTINUOUS
 62
           3
100
AcDbLine
 10
877.063892142251
 20
13663.991467022401
 11
904.063892142251
 21
13663.991467022401
  0
LINE
  5
2D8
100
AcDbEntity
  8
1
  6
CONTINUOUS
 62
           3
100
AcDbLine
 10
877.063892142251
 20
13656.991467022401
 11
904.063892142251
 21
13656.991467022401
  0
LINE
  5
2D7
100
AcDbEntity
  8
1
  6
CONTINUOUS
 62
           3
100
AcDbLine
 10
827.063892142251
 20
13656.991467022401
 11
854.063892142251
 21
13656.991467022401
  0
LINE
  5
2D6
100
AcDbEntity
  8
1
  6
CONTINUOUS
 62
           3
100
AcDbLine
 10
827.063892142251
 20
13663.991467022401
 11
854.063892142251
 21
13663.991467022401
  0
LINE
  5
2D5
100
AcDbEntity
  8
1
  6
CONTINUOUS
 62
           3
100
AcDbLine
 10
925.563892142251
 20
13582.991467022401
 11
910.563892142251
 21
13582.991467022401
  0
LINE
  5
2D4
100
AcDbEntity
  8
1
  6
CONTINUOUS
 62
           3
100
AcDbLine
 10
755.563892142251
 20
13594.991467022401
 11
925.563892142251
 21
13594.991467022401
  0
LINE
  5
2D3
100
AcDbEntity
  8
1
  6
CONTINUOUS
 62
           3
100
AcDbLine
 10
925.563892142251
 20
13654.991467022401
 11
755.563892142251
 21
13654.991467022401
  0
LINE
  5
2D2
100
AcDbEntity
  8
1
  6
CONTINUOUS
 62
           3
100
AcDbLine
 10
755.563892142251
 20
13666.991467022401
 11
925.563892142251
 21
13666.991467022401
  0
LINE
  5
2D1
100
AcDbEntity
  8
1
  6
CONTINUOUS
 62
           3
100
AcDbLine
 10
938.063892142251
 20
13647.991467022401
 11
938.063892142251
 21
13601.991467022401
  0
LINE
  5
2D0
100
AcDbEntity
  8
1
  6
CONTINUOUS
 62
           3
100
AcDbLine
 10
939.063892142251
 20
13574.991467022401
 11
941.063892142251
 21
13574.991467022401
  0
LINE
  5
2CF
100
AcDbEntity
  8
1
  6
CONTINUOUS
 62
           3
100
AcDbLine
 10
938.063892142251
 20
13601.991467022401
 11
938.063892142251
 21
13575.991467022401
  0
LINE
  5
2CE
100
AcDbEntity
  8
1
  6
CONTINUOUS
 62
           3
100
AcDbLine
 10
915.063892142251
 20
13601.991467022401
 11
916.813892142251
 21
13601.991467022401
  0
LINE
  5
2CD
100
AcDbEntity
  8
1
  6
CONTINUOUS
 62
           3
100
AcDbLine
 10
914.563892142251
 20
13647.491467022401
 11
914.563892142251
 21
13602.491467022401
  0
LINE
  5
2CC
100
AcDbEntity
  8
1
  6
CONTINUOUS
 62
           3
100
AcDbLine
 10
938.063892142251
 20
13647.991467022401
 11
934.313892142251
 21
13647.991467022401
  0
LINE
  5
2CB
100
AcDbEntity
  8
1
  6
CONTINUOUS
 62
           3
100
AcDbLine
 10
938.063892142251
 20
13673.991467022401
 11
938.063892142251
 21
13647.991467022401
  0
LINE
  5
2CA
100
AcDbEntity
  8
1
  6
DOTTED
 62
           1
100
AcDbLine
 10
948.063892142251
 20
13674.991467022401
 11
941.063892142251
 21
13674.991467022401
  0
LINE
  5
2C9
100
AcDbEntity
  8
1
  6
CONTINUOUS
 62
           3
100
AcDbLine
 10
936.563892142251
 20
13599.491467022401
 11
936.563892142251
 21
13575.491467022401
  0
LINE
  5
2C8
100
AcDbEntity
  8
1
  6
CONTINUOUS
 62
           3
100
AcDbLine
 10
901.563892142251
 20
13646.991467022401
 11
901.563892142251
 21
13602.991467022401
  0
LINE
  5
2C7
100
AcDbEntity
  8
1
  6
CONTINUOUS
 62
           3
100
AcDbLine
 10
936.063892142251
 20
13599.991467022401
 11
934.313892142251
 21
13599.991467022401
  0
LINE
  5
2C6
100
AcDbEntity
  8
1
  6
CONTINUOUS
 62
           3
100
AcDbLine
 10
764.313892142251
 20
13649.991467022401
 11
898.563892142251
 21
13649.991467022401
  0
LINE
  5
2C5
100
AcDbEntity
  8
1
  6
CONTINUOUS
 62
           3
100
AcDbLine
 10
912.563892142251
 20
13602.991467022401
 11
912.563892142251
 21
13646.991467022401
  0
LINE
  5
2C4
100
AcDbEntity
  8
1
  6
CONTINUOUS
 62
           3
100
AcDbLine
 10
936.063892142251
 20
13574.991467022401
 11
910.563892142251
 21
13574.991467022401
  0
LINE
  5
2C3
100
AcDbEntity
  8
1
  6
CONTINUOUS
 62
           3
100
AcDbLine
 10
936.563892142251
 20
13674.491467022401
 11
936.563892142251
 21
13650.491467022401
  0
LINE
  5
2C2
100
AcDbEntity
  8
1
  6
CONTINUOUS
 62
           3
100
AcDbLine
 10
739.063892142251
 20
13674.991467022401
 11
936.063892142251
 21
13674.991467022401
  0
LINE
  5
2C1
100
AcDbEntity
  8
1
  6
CONTINUOUS
 62
           3
100
AcDbLine
 10
948.063892142251
 20
13911.47602581389
 11
948.063892142251
 21
13896.97602581389
  0
LINE
  5
2C0
100
AcDbEntity
  8
1
  6
CONTINUOUS
 62
           3
100
AcDbLine
 10
948.063892142251
 20
13911.47602581389
 11
948.063892142251
 21
13936.47602581389
  0
LINE
  5
2BF
100
AcDbEntity
  8
1
  6
DOT_CENTER
 62
           1
100
AcDbLine
 10
948.063892142251
 20
13911.47602581389
 11
956.023892142251
 21
13911.47602581389
  0
LINE
  5
2BE
100
AcDbEntity
  8
1
  6
CONTINUOUS
 62
           3
100
AcDbLine
 10
948.063892142251
 20
13936.47602581389
 11
948.063892142251
 21
13911.47602581389
  0
LINE
  5
2BD
100
AcDbEntity
  8
1
  6
CONTINUOUS
 62
           3
100
AcDbLine
 10
948.063892142251
 20
13936.47602581389
 11
948.063892142251
 21
13948.97602581389
  0
LINE
  5
2BC
100
AcDbEntity
  8
1
  6
DOT_CENTER
 62
           1
100
AcDbLine
 10
948.063892142251
 20
13936.47602581389
 11
956.933892142251
 21
13936.47602581389
  0
LINE
  5
2BB
100
AcDbEntity
  8
1
  6
CONTINUOUS
 62
           3
100
AcDbLine
 10
1105.892418400481
 20
13717.491467022401
 11
1048.892418400481
 21
13717.491467022401
  0
LINE
  5
2BA
100
AcDbEntity
  8
1
  6
DOT_CENTER
 62
           1
100
AcDbLine
 10
1093.892418400481
 20
13478.0409748492
 11
1093.892418400481
 21
13720.39883524196
  0
LINE
  5
2B9
100
AcDbEntity
  8
1
  6
DOT_CENTER
 62
           1
100
AcDbLine
 10
387.0075370422
 20
13724.516405973191
 11
387.0075370422
 21
13389.129425521591
  0
LINE
  5
2B8
100
AcDbEntity
  8
1
  6
CONTINUOUS
 62
           3
100
AcDbLine
 10
360.0075370422
 20
13717.491467022401
 11
360.0075370422
 21
13671.36107002427
  0
LINE
  5
2B7
100
AcDbEntity
  8
1
  6
CONTINUOUS
 62
           3
100
AcDbLine
 10
357.0075370422
 20
13717.491467022401
 11
357.0075370422
 21
13673.41547452707
  0
LINE
  5
2B6
100
AcDbEntity
  8
1
  6
CONTINUOUS
 62
           3
100
AcDbLine
 10
951.063892142251
 20
13602.491467022401
 11
951.563892142251
 21
13602.491467022401
  0
LINE
  5
2B5
100
AcDbEntity
  8
1
  6
CONTINUOUS
 62
           3
100
AcDbLine
 10
951.063892142251
 20
13592.491467022401
 11
951.563892142251
 21
13592.491467022401
  0
LINE
  5
2B4
100
AcDbEntity
  8
1
  6
CONTINUOUS
 62
           1
100
AcDbLine
 10
951.563892142251
 20
13602.491467022401
 11
951.563892142251
 21
13592.491467022401
  0
LINE
  5
2B3
100
AcDbEntity
  8
1
  6
CONTINUOUS
 62
           1
100
AcDbLine
 10
951.563892142251
 20
13657.491467022401
 11
951.563892142251
 21
13647.491467022401
  0
LINE
  5
2B2
100
AcDbEntity
  8
1
  6
CONTINUOUS
 62
           3
100
AcDbLine
 10
951.063892142251
 20
13647.491467022401
 11
951.563892142251
 21
13647.491467022401
  0
LINE
  5
2B1
100
AcDbEntity
  8
1
  6
CONTINUOUS
 62
           3
100
AcDbLine
 10
951.063892142251
 20
13657.491467022401
 11
951.563892142251
 21
13657.491467022401
  0
LINE
  5
2B0
100
AcDbEntity
  8
1
  6
CONTINUOUS
 62
           3
100
AcDbLine
 10
951.063892142251
 20
13717.491467022401
 11
951.063892142251
 21
13405.491467022401
  0
LINE
  5
2AF
100
AcDbEntity
  8
1
  6
DOT_CENTER
 62
           1
100
AcDbLine
 10
1098.409296111053
 20
13652.491467022401
 11
1058.650521159427
 21
13652.491467022401
  0
LINE
  5
2AE
100
AcDbEntity
  8
1
  6
DOT_CENTER
 62
           1
100
AcDbLine
 10
1098.409296111053
 20
13597.491467022401
 11
1058.650521159427
 21
13597.491467022401
  0
LINE
  5
2AD
100
AcDbEntity
  8
1
  6
CONTINUOUS
 62
           3
100
AcDbLine
 10
1094.392418400481
 20
13595.491467022401
 11
1093.392418400481
 21
13595.491467022401
  0
LINE
  5
2AC
100
AcDbEntity
  8
1
  6
CONTINUOUS
 62
           3
100
AcDbLine
 10
1094.392418400481
 20
13596.491467022401
 11
1094.392418400481
 21
13595.491467022401
  0
LINE
  5
2AB
100
AcDbEntity
  8
1
  6
CONTINUOUS
 62
           3
100
AcDbLine
 10
1093.392418400481
 20
13599.491467022401
 11
1094.392418400481
 21
13599.491467022401
  0
LINE
  5
2AA
100
AcDbEntity
  8
1
  6
CONTINUOUS
 62
           3
100
AcDbLine
 10
1093.392418400481
 20
13598.491467022401
 11
1093.392418400481
 21
13599.491467022401
  0
LINE
  5
2A9
100
AcDbEntity
  8
1
  6
CONTINUOUS
 62
           3
100
AcDbLine
 10
1092.892418400481
 20
13596.991467022401
 11
1091.892418400481
 21
13596.991467022401
  0
LINE
  5
2A8
100
AcDbEntity
  8
1
  6
CONTINUOUS
 62
           3
100
AcDbLine
 10
1095.892418400481
 20
13597.991467022401
 11
1095.892418400481
 21
13596.991467022401
  0
LINE
  5
2A7
100
AcDbEntity
  8
1
  6
CONTINUOUS
 62
           3
100
AcDbLine
 10
1094.892418400481
 20
13597.991467022401
 11
1095.892418400481
 21
13597.991467022401
  0
LINE
  5
2A6
100
AcDbEntity
  8
1
  6
CONTINUOUS
 62
           3
100
AcDbLine
 10
1091.892418400481
 20
13596.991467022401
 11
1091.892418400481
 21
13597.991467022401
  0
LINE
  5
2A5
100
AcDbEntity
  8
1
  6
CONTINUOUS
 62
           3
100
AcDbLine
 10
1093.392418400481
 20
13595.491467022401
 11
1093.392418400481
 21
13596.491467022401
  0
LINE
  5
2A4
100
AcDbEntity
  8
1
  6
CONTINUOUS
 62
           3
100
AcDbLine
 10
1095.892418400481
 20
13596.991467022401
 11
1094.892418400481
 21
13596.991467022401
  0
LINE
  5
2A3
100
AcDbEntity
  8
1
  6
CONTINUOUS
 62
           3
100
AcDbLine
 10
1091.892418400481
 20
13597.991467022401
 11
1092.892418400481
 21
13597.991467022401
  0
LINE
  5
2A2
100
AcDbEntity
  8
1
  6
CONTINUOUS
 62
           3
100
AcDbLine
 10
1094.392418400481
 20
13599.491467022401
 11
1094.392418400481
 21
13598.491467022401
  0
LINE
  5
2A1
100
AcDbEntity
  8
1
  6
CONTINUOUS
 62
           3
100
AcDbLine
 10
1063.392418400481
 20
13598.491467022401
 11
1063.392418400481
 21
13599.491467022401
  0
LINE
  5
2A0
100
AcDbEntity
  8
1
  6
CONTINUOUS
 62
           3
100
AcDbLine
 10
1064.892418400481
 20
13597.991467022401
 11
1065.892418400481
 21
13597.991467022401
  0
LINE
  5
29F
100
AcDbEntity
  8
1
  6
CONTINUOUS
 62
           3
100
AcDbLine
 10
1062.892418400481
 20
13596.991467022401
 11
1061.892418400481
 21
13596.991467022401
  0
LINE
  5
29E
100
AcDbEntity
  8
1
  6
CONTINUOUS
 62
           3
100
AcDbLine
 10
1064.392418400481
 20
13596.491467022401
 11
1064.392418400481
 21
13595.491467022401
  0
LINE
  5
29D
100
AcDbEntity
  8
1
  6
CONTINUOUS
 62
           3
100
AcDbLine
 10
1065.892418400481
 20
13597.991467022401
 11
1065.892418400481
 21
13596.991467022401
  0
LINE
  5
29C
100
AcDbEntity
  8
1
  6
CONTINUOUS
 62
           3
100
AcDbLine
 10
1061.892418400481
 20
13597.991467022401
 11
1062.892418400481
 21
13597.991467022401
  0
LINE
  5
29B
100
AcDbEntity
  8
1
  6
CONTINUOUS
 62
           3
100
AcDbLine
 10
1061.892418400481
 20
13596.991467022401
 11
1061.892418400481
 21
13597.991467022401
  0
LINE
  5
29A
100
AcDbEntity
  8
1
  6
CONTINUOUS
 62
           3
100
AcDbLine
 10
1065.892418400481
 20
13596.991467022401
 11
1064.892418400481
 21
13596.991467022401
  0
LINE
  5
299
100
AcDbEntity
  8
1
  6
CONTINUOUS
 62
           3
100
AcDbLine
 10
1064.392418400481
 20
13599.491467022401
 11
1064.392418400481
 21
13598.491467022401
  0
LINE
  5
298
100
AcDbEntity
  8
1
  6
CONTINUOUS
 62
           3
100
AcDbLine
 10
1063.392418400481
 20
13599.491467022401
 11
1064.392418400481
 21
13599.491467022401
  0
LINE
  5
297
100
AcDbEntity
  8
1
  6
CONTINUOUS
 62
           3
100
AcDbLine
 10
1063.392418400481
 20
13595.491467022401
 11
1063.392418400481
 21
13596.491467022401
  0
LINE
  5
296
100
AcDbEntity
  8
1
  6
CONTINUOUS
 62
           3
100
AcDbLine
 10
1064.392418400481
 20
13595.491467022401
 11
1063.392418400481
 21
13595.491467022401
  0
LINE
  5
295
100
AcDbEntity
  8
1
  6
CONTINUOUS
 62
           3
100
AcDbLine
 10
1063.392418400481
 20
13654.491467022401
 11
1064.392418400481
 21
13654.491467022401
  0
LINE
  5
294
100
AcDbEntity
  8
1
  6
CONTINUOUS
 62
           3
100
AcDbLine
 10
1063.392418400481
 20
13653.491467022401
 11
1063.392418400481
 21
13654.491467022401
  0
LINE
  5
293
100
AcDbEntity
  8
1
  6
CONTINUOUS
 62
           3
100
AcDbLine
 10
1064.392418400481
 20
13650.491467022401
 11
1063.392418400481
 21
13650.491467022401
  0
LINE
  5
292
100
AcDbEntity
  8
1
  6
CONTINUOUS
 62
           3
100
AcDbLine
 10
1064.392418400481
 20
13651.491467022401
 11
1064.392418400481
 21
13650.491467022401
  0
LINE
  5
291
100
AcDbEntity
  8
1
  6
CONTINUOUS
 62
           3
100
AcDbLine
 10
1064.892418400481
 20
13652.991467022401
 11
1065.892418400481
 21
13652.991467022401
  0
LINE
  5
290
100
AcDbEntity
  8
1
  6
CONTINUOUS
 62
           3
100
AcDbLine
 10
1061.892418400481
 20
13651.991467022401
 11
1061.892418400481
 21
13652.991467022401
  0
LINE
  5
28F
100
AcDbEntity
  8
1
  6
CONTINUOUS
 62
           3
100
AcDbLine
 10
1062.892418400481
 20
13651.991467022401
 11
1061.892418400481
 21
13651.991467022401
  0
LINE
  5
28E
100
AcDbEntity
  8
1
  6
CONTINUOUS
 62
           3
100
AcDbLine
 10
1065.892418400481
 20
13652.991467022401
 11
1065.892418400481
 21
13651.991467022401
  0
LINE
  5
28D
100
AcDbEntity
  8
1
  6
CONTINUOUS
 62
           3
100
AcDbLine
 10
1064.392418400481
 20
13654.491467022401
 11
1064.392418400481
 21
13653.491467022401
  0
LINE
  5
28C
100
AcDbEntity
  8
1
  6
CONTINUOUS
 62
           3
100
AcDbLine
 10
1061.892418400481
 20
13652.991467022401
 11
1062.892418400481
 21
13652.991467022401
  0
LINE
  5
28B
100
AcDbEntity
  8
1
  6
CONTINUOUS
 62
           3
100
AcDbLine
 10
1065.892418400481
 20
13651.991467022401
 11
1064.892418400481
 21
13651.991467022401
  0
LINE
  5
28A
100
AcDbEntity
  8
1
  6
CONTINUOUS
 62
           3
100
AcDbLine
 10
1063.392418400481
 20
13650.491467022401
 11
1063.392418400481
 21
13651.491467022401
  0
LINE
  5
289
100
AcDbEntity
  8
1
  6
CONTINUOUS
 62
           3
100
AcDbLine
 10
1094.392418400481
 20
13651.491467022401
 11
1094.392418400481
 21
13650.491467022401
  0
LINE
  5
288
100
AcDbEntity
  8
1
  6
CONTINUOUS
 62
           3
100
AcDbLine
 10
1092.892418400481
 20
13651.991467022401
 11
1091.892418400481
 21
13651.991467022401
  0
LINE
  5
287
100
AcDbEntity
  8
1
  6
CONTINUOUS
 62
           3
100
AcDbLine
 10
1094.892418400481
 20
13652.991467022401
 11
1095.892418400481
 21
13652.991467022401
  0
LINE
  5
286
100
AcDbEntity
  8
1
  6
CONTINUOUS
 62
           3
100
AcDbLine
 10
1093.392418400481
 20
13653.491467022401
 11
1093.392418400481
 21
13654.491467022401
  0
LINE
  5
285
100
AcDbEntity
  8
1
  6
CONTINUOUS
 62
           3
100
AcDbLine
 10
1091.892418400481
 20
13651.991467022401
 11
1091.892418400481
 21
13652.991467022401
  0
LINE
  5
284
100
AcDbEntity
  8
1
  6
CONTINUOUS
 62
           3
100
AcDbLine
 10
1095.892418400481
 20
13651.991467022401
 11
1094.892418400481
 21
13651.991467022401
  0
LINE
  5
283
100
AcDbEntity
  8
1
  6
CONTINUOUS
 62
           3
100
AcDbLine
 10
1095.892418400481
 20
13652.991467022401
 11
1095.892418400481
 21
13651.991467022401
  0
LINE
  5
282
100
AcDbEntity
  8
1
  6
CONTINUOUS
 62
           3
100
AcDbLine
 10
1091.892418400481
 20
13652.991467022401
 11
1092.892418400481
 21
13652.991467022401
  0
LINE
  5
281
100
AcDbEntity
  8
1
  6
CONTINUOUS
 62
           3
100
AcDbLine
 10
1093.392418400481
 20
13650.491467022401
 11
1093.392418400481
 21
13651.491467022401
  0
LINE
  5
280
100
AcDbEntity
  8
1
  6
CONTINUOUS
 62
           3
100
AcDbLine
 10
1094.392418400481
 20
13650.491467022401
 11
1093.392418400481
 21
13650.491467022401
  0
LINE
  5
27F
100
AcDbEntity
  8
1
  6
CONTINUOUS
 62
           3
100
AcDbLine
 10
1094.392418400481
 20
13654.491467022401
 11
1094.392418400481
 21
13653.491467022401
  0
LINE
  5
27E
100
AcDbEntity
  8
1
  6
CONTINUOUS
 62
           3
100
AcDbLine
 10
1093.392418400481
 20
13654.491467022401
 11
1094.392418400481
 21
13654.491467022401
  0
LINE
  5
27D
100
AcDbEntity
  8
1
  6
CONTINUOUS
 62
           3
100
AcDbLine
 10
363.483755296678
 20
13405.491467022401
 11
410.53131878679
 21
13405.491467022401
  0
LINE
  5
27C
100
AcDbEntity
  8
1
  6
CONTINUOUS
 62
           3
100
AcDbLine
 10
410.53131878679
 20
13405.491467022401
 11
459.0075370422
 21
13405.491467022401
  0
LINE
  5
27B
100
AcDbEntity
  8
1
  6
CONTINUOUS
 62
           3
100
AcDbLine
 10
315.0075370422
 20
13405.491467022401
 11
363.483755296678
 21
13405.491467022401
  0
LINE
  5
27A
100
AcDbEntity
  8
1
  6
CONTINUOUS
 62
           3
100
AcDbLine
 10
459.0075370422
 20
13405.491467022401
 11
459.0075370422
 21
13402.491467022401
  0
LINE
  5
279
100
AcDbEntity
  8
1
  6
CONTINUOUS
 62
           3
100
AcDbLine
 10
459.0075370422
 20
13402.491467022401
 11
417.0075370422
 21
13402.491467022401
  0
LINE
  5
278
100
AcDbEntity
  8
1
  6
CONTINUOUS
 62
           3
100
AcDbLine
 10
315.0075370422
 20
13402.491467022401
 11
315.0075370422
 21
13405.491467022401
  0
LINE
  5
277
100
AcDbEntity
  8
1
  6
CONTINUOUS
 62
           3
100
AcDbLine
 10
417.0075370422
 20
13405.491467022401
 11
417.0075370422
 21
13576.56745951771
  0
LINE
  5
276
100
AcDbEntity
  8
1
  6
CONTINUOUS
 62
           3
100
AcDbLine
 10
417.0075370422
 20
13717.491467022401
 11
414.0075370422
 21
13717.491467022401
  0
LINE
  5
275
100
AcDbEntity
  8
1
  6
CONTINUOUS
 62
           3
100
AcDbLine
 10
357.0075370422
 20
13402.491467022401
 11
315.0075370422
 21
13402.491467022401
  0
LINE
  5
274
100
AcDbEntity
  8
1
  6
CONTINUOUS
 62
           3
100
AcDbLine
 10
417.0075370422
 20
13402.491467022401
 11
414.0075370422
 21
13402.491467022401
  0
LINE
  5
273
100
AcDbEntity
  8
1
  6
CONTINUOUS
 62
           3
100
AcDbLine
 10
360.0075370422
 20
13402.491467022401
 11
357.0075370422
 21
13402.491467022401
  0
LINE
  5
272
100
AcDbEntity
  8
1
  6
CONTINUOUS
 62
           3
100
AcDbLine
 10
414.0075370422
 20
13402.491467022401
 11
411.0075370422
 21
13402.491467022401
  0
LINE
  5
271
100
AcDbEntity
  8
1
  6
CONTINUOUS
 62
           3
100
AcDbLine
 10
414.0075370422
 20
13408.967685276881
 11
414.0075370422
 21
13402.491467022401
  0
LINE
  5
270
100
AcDbEntity
  8
1
  6
CONTINUOUS
 62
           3
100
AcDbLine
 10
360.0075370422
 20
13408.967685276881
 11
360.0075370422
 21
13402.491467022401
  0
LINE
  5
26F
100
AcDbEntity
  8
1
  6
CONTINUOUS
 62
           3
100
AcDbLine
 10
411.0075370422
 20
13402.491467022401
 11
399.5075370422
 21
13402.491467022401
  0
LINE
  5
26E
100
AcDbEntity
  8
1
  6
CONTINUOUS
 62
           3
100
AcDbLine
 10
363.0075370422
 20
13402.491467022401
 11
360.0075370422
 21
13402.491467022401
  0
LINE
  5
26D
100
AcDbEntity
  8
1
  6
CONTINUOUS
 62
           3
100
AcDbLine
 10
374.5075370422
 20
13402.491467022401
 11
374.5075370422
 21
13405.491467022401
  0
LINE
  5
26C
100
AcDbEntity
  8
1
  6
CONTINUOUS
 62
           3
100
AcDbLine
 10
374.5075370422
 20
13402.491467022401
 11
363.0075370422
 21
13402.491467022401
  0
LINE
  5
26B
100
AcDbEntity
  8
1
  6
CONTINUOUS
 62
           3
100
AcDbLine
 10
374.5075370422
 20
13412.491467022401
 11
399.5075370422
 21
13412.491467022401
  0
LINE
  5
26A
100
AcDbEntity
  8
1
  6
CONTINUOUS
 62
           3
100
AcDbLine
 10
399.5075370422
 20
13412.491467022401
 11
399.5075370422
 21
13405.491467022401
  0
LINE
  5
269
100
AcDbEntity
  8
1
  6
CONTINUOUS
 62
           3
100
AcDbLine
 10
399.5075370422
 20
13402.491467022401
 11
374.5075370422
 21
13402.491467022401
  0
LINE
  5
268
100
AcDbEntity
  8
1
  6
CONTINUOUS
 62
           3
100
AcDbLine
 10
399.5075370422
 20
13405.491467022401
 11
399.5075370422
 21
13402.491467022401
  0
LINE
  5
267
100
AcDbEntity
  8
1
  6
CONTINUOUS
 62
           3
100
AcDbLine
 10
374.5075370422
 20
13405.491467022401
 11
374.5075370422
 21
13412.491467022401
  0
LINE
  5
266
100
AcDbEntity
  8
1
  6
CONTINUOUS
 62
           3
100
AcDbLine
 10
374.5075370422
 20
13405.491467022401
 11
399.5075370422
 21
13405.491467022401
  0
LINE
  5
265
100
AcDbEntity
  8
1
  6
CONTINUOUS
 62
           3
100
AcDbLine
 10
414.0075370422
 20
13408.967685276881
 11
414.0075370422
 21
13578.621864020521
  0
LINE
  5
264
100
AcDbEntity
  8
1
  6
DOT_CENTER
 62
           1
100
AcDbLine
 10
365.888500283744
 20
13444.491467022401
 11
408.349194562982
 21
13444.491467022401
  0
LINE
  5
263
100
AcDbEntity
  8
1
  6
DOT_CENTER
 62
           1
100
AcDbLine
 10
366.765639801146
 20
13487.491467022401
 11
406.524414752772
 21
13487.491467022401
  0
LINE
  5
262
100
AcDbEntity
  8
1
  6
DOT_CENTER
 62
           1
100
AcDbLine
 10
366.765639801146
 20
13514.991467022401
 11
406.524414752772
 21
13514.991467022401
  0
LINE
  5
261
100
AcDbEntity
  8
1
  6
DOT_CENTER
 62
           1
100
AcDbLine
 10
366.765639801146
 20
13542.491467022401
 11
406.524414752772
 21
13542.491467022401
  0
LINE
  5
260
100
AcDbEntity
  8
1
  6
DOT_CENTER
 62
           1
100
AcDbLine
 10
366.765639801146
 20
13707.491467022401
 11
406.524414752772
 21
13707.491467022401
  0
LINE
  5
25F
100
AcDbEntity
  8
1
  6
DOT_CENTER
 62
           1
100
AcDbLine
 10
372.0075370422
 20
13720.39883524196
 11
372.0075370422
 21
13478.0409748492
  0
LINE
  5
25E
100
AcDbEntity
  8
1
  6
DOT_CENTER
 62
           1
100
AcDbLine
 10
402.0075370422
 20
13478.0409748492
 11
402.0075370422
 21
13720.39883524196
  0
LINE
  5
25D
100
AcDbEntity
  8
1
  6
DOT_CENTER
 62
           1
100
AcDbLine
 10
329.5075370422
 20
13412.491467022401
 11
329.5075370422
 21
13398.190148553111
  0
LINE
  5
25C
100
AcDbEntity
  8
1
  6
DOTTED
 62
           1
100
AcDbLine
 10
325.7575370422
 20
13402.491467022401
 11
325.7575370422
 21
13405.491467022401
  0
LINE
  5
25B
100
AcDbEntity
  8
1
  6
DOTTED
 62
           1
100
AcDbLine
 10
333.2575370422
 20
13402.491467022401
 11
333.2575370422
 21
13405.491467022401
  0
LINE
  5
25A
100
AcDbEntity
  8
1
  6
DOTTED
 62
           1
100
AcDbLine
 10
440.757537042199
 20
13405.491467022401
 11
440.757537042199
 21
13402.491467022401
  0
LINE
  5
259
100
AcDbEntity
  8
1
  6
DOTTED
 62
           1
100
AcDbLine
 10
448.257537042199
 20
13405.491467022401
 11
448.257537042199
 21
13402.491467022401
  0
LINE
  5
258
100
AcDbEntity
  8
1
  6
DOT_CENTER
 62
           1
100
AcDbLine
 10
444.507537042199
 20
13398.190148553111
 11
444.507537042199
 21
13412.491467022401
  0
LINE
  5
257
100
AcDbEntity
  8
1
  6
DOTTED
 62
           1
100
AcDbLine
 10
390.7575370422
 20
13405.491467022401
 11
390.7575370422
 21
13402.491467022401
  0
LINE
  5
256
100
AcDbEntity
  8
1
  6
DOTTED
 62
           1
100
AcDbLine
 10
383.2575370422
 20
13405.491467022401
 11
383.2575370422
 21
13402.491467022401
  0
LINE
  5
255
100
AcDbEntity
  8
1
  6
DOT_CENTER
 62
           1
100
AcDbLine
 10
1014.892418400481
 20
13624.991467022401
 11
1146.633015272517
 21
13624.991467022401
  0
LINE
  5
254
100
AcDbEntity
  8
1
  6
CONTINUOUS
 62
           3
100
AcDbLine
 10
851.063892142251
 20
13856.97602581389
 11
851.063892142251
 21
13990.97602581389
  0
LINE
  5
253
100
AcDbEntity
  8
1
  6
DOTTED
 62
           1
100
AcDbLine
 10
948.063892142251
 20
13936.47602581389
 11
941.063892142251
 21
13936.47602581389
  0
LINE
  5
252
100
AcDbEntity
  8
1
  6
DOTTED
 62
           1
100
AcDbLine
 10
948.063892142251
 20
13911.47602581389
 11
941.063892142251
 21
13911.47602581389
  0
LINE
  5
251
100
AcDbEntity
  8
1
  6
DOTTED
 62
           1
100
AcDbLine
 10
941.063892142251
 20
13936.47602581389
 11
941.063892142251
 21
13911.47602581389
  0
LINE
  5
250
100
AcDbEntity
  8
1
  6
CONTINUOUS
 62
           3
100
AcDbLine
 10
856.063892142251
 20
13995.97602581389
 11
936.063892142251
 21
13995.97602581389
  0
LINE
  5
24F
100
AcDbEntity
  8
1
  6
CONTINUOUS
 62
           3
100
AcDbLine
 10
936.063892142251
 20
13851.97602581389
 11
856.063892142251
 21
13851.97602581389
  0
LINE
  5
24E
100
AcDbEntity
  8
1
  6
DOT_CENTER
 62
           1
100
AcDbLine
 10
866.063892142251
 20
13857.719096499701
 11
866.063892142251
 21
13990.33471741828
  0
LINE
  5
24D
100
AcDbEntity
  8
1
  6
DOT_CENTER
 62
           1
100
AcDbLine
 10
921.063892142251
 20
13857.057121686459
 11
921.063892142251
 21
13990.555375689361
  0
LINE
  5
24C
100
AcDbEntity
  8
1
  6
DOT_CENTER
 62
           1
100
AcDbLine
 10
857.31282450787
 20
13866.47602581389
 11
929.247420879681
 21
13866.47602581389
  0
LINE
  5
24B
100
AcDbEntity
  8
1
  6
DOT_CENTER
 62
           1
100
AcDbLine
 10
857.31282450787
 20
13981.47602581389
 11
929.247420879681
 21
13981.47602581389
  0
LINE
  5
24A
100
AcDbEntity
  8
1
  6
CONTINUOUS
 62
           3
100
AcDbLine
 10
938.063892142251
 20
13893.97602581389
 11
938.063892142251
 21
13896.97602581389
  0
LINE
  5
249
100
AcDbEntity
  8
1
  6
CONTINUOUS
 62
           3
100
AcDbLine
 10
903.063892142251
 20
13953.97602581389
 11
941.063892142251
 21
13953.97602581389
  0
LINE
  5
248
100
AcDbEntity
  8
1
  6
CONTINUOUS
 62
           3
100
AcDbLine
 10
951.063892142251
 20
13950.97602581389
 11
951.063892142251
 21
13896.97602581389
  0
LINE
  5
247
100
AcDbEntity
  8
1
  6
CONTINUOUS
 62
           3
100
AcDbLine
 10
948.063892142251
 20
13893.97602581389
 11
941.063892142251
 21
13893.97602581389
  0
LINE
  5
246
100
AcDbEntity
  8
1
  6
CONTINUOUS
 62
           3
100
AcDbLine
 10
903.063892142251
 20
13950.97602581389
 11
948.063892142251
 21
13950.97602581389
  0
LINE
  5
245
100
AcDbEntity
  8
1
  6
CONTINUOUS
 62
           3
100
AcDbLine
 10
948.063892142251
 20
13950.97602581389
 11
948.063892142251
 21
13936.47602581389
  0
LINE
  5
244
100
AcDbEntity
  8
1
  6
CONTINUOUS
 62
           3
100
AcDbLine
 10
948.063892142251
 20
13896.97602581389
 11
903.063892142251
 21
13896.97602581389
  0
LINE
  5
243
100
AcDbEntity
  8
1
  6
CONTINUOUS
 62
           3
100
AcDbLine
 10
938.063892142251
 20
13950.97602581389
 11
938.063892142251
 21
13953.97602581389
  0
LINE
  5
242
100
AcDbEntity
  8
1
  6
CONTINUOUS
 62
           3
100
AcDbLine
 10
941.063892142251
 20
13893.97602581389
 11
941.063892142251
 21
13856.97602581389
  0
LINE
  5
241
100
AcDbEntity
  8
1
  6
CONTINUOUS
 62
           3
100
AcDbLine
 10
941.063892142251
 20
13990.97602581389
 11
941.063892142251
 21
13953.97602581389
  0
LINE
  5
240
100
AcDbEntity
  8
1
  6
CONTINUOUS
 62
           3
100
AcDbLine
 10
941.063892142251
 20
13953.97602581389
 11
948.063892142251
 21
13953.97602581389
  0
LINE
  5
23F
100
AcDbEntity
  8
1
  6
CONTINUOUS
 62
           3
100
AcDbLine
 10
941.063892142251
 20
13893.97602581389
 11
903.063892142251
 21
13893.97602581389
  0
LINE
  5
23E
100
AcDbEntity
  8
1
  6
CONTINUOUS
 62
           3
100
AcDbLine
 10
903.063892142251
 20
13893.97602581389
 11
903.063892142251
 21
13896.97602581389
  0
LINE
  5
23D
100
AcDbEntity
  8
1
  6
CONTINUOUS
 62
           3
100
AcDbLine
 10
903.063892142251
 20
13950.97602581389
 11
903.063892142251
 21
13953.97602581389
  0
LINE
  5
23C
100
AcDbEntity
  8
1
  6
DOTTED
 62
           1
100
AcDbLine
 10
948.063892142251
 20
13704.991467022401
 11
951.063892142251
 21
13704.991467022401
  0
LINE
  5
23B
100
AcDbEntity
  8
1
  6
DOTTED
 62
           1
100
AcDbLine
 10
948.063892142251
 20
13709.991467022401
 11
951.063892142251
 21
13709.991467022401
  0
LINE
  5
23A
100
AcDbEntity
  8
1
  6
DOT_CENTER
 62
           1
100
AcDbLine
 10
944.13540676138
 20
13707.491467022401
 11
956.75540676138
 21
13707.491467022401
  0
LINE
  5
239
100
AcDbEntity
  8
1
  6
DOTTED
 62
           1
100
AcDbLine
 10
948.063892142251
 20
13677.491467022401
 11
951.063892142251
 21
13677.491467022401
  0
LINE
  5
238
100
AcDbEntity
  8
1
  6
DOTTED
 62
           1
100
AcDbLine
 10
948.063892142251
 20
13682.491467022401
 11
951.063892142251
 21
13682.491467022401
  0
LINE
  5
237
100
AcDbEntity
  8
1
  6
DOT_CENTER
 62
           1
100
AcDbLine
 10
944.13540676138
 20
13679.991467022401
 11
956.75540676138
 21
13679.991467022401
  0
LINE
  5
236
100
AcDbEntity
  8
1
  6
DOTTED
 62
           1
100
AcDbLine
 10
948.063892142251
 20
13649.991467022401
 11
951.063892142251
 21
13649.991467022401
  0
LINE
  5
235
100
AcDbEntity
  8
1
  6
DOTTED
 62
           1
100
AcDbLine
 10
948.063892142251
 20
13654.991467022401
 11
951.063892142251
 21
13654.991467022401
  0
LINE
  5
234
100
AcDbEntity
  8
1
  6
DOT_CENTER
 62
           1
100
AcDbLine
 10
944.13540676138
 20
13652.491467022401
 11
962.769251383693
 21
13652.491467022401
  0
LINE
  5
233
100
AcDbEntity
  8
1
  6
DOTTED
 62
           1
100
AcDbLine
 10
948.063892142251
 20
13622.491467022401
 11
951.063892142251
 21
13622.491467022401
  0
LINE
  5
232
100
AcDbEntity
  8
1
  6
DOTTED
 62
           1
100
AcDbLine
 10
948.063892142251
 20
13627.491467022401
 11
951.063892142251
 21
13627.491467022401
  0
LINE
  5
231
100
AcDbEntity
  8
1
  6
DOTTED
 62
           1
100
AcDbLine
 10
948.063892142251
 20
13594.991467022401
 11
951.063892142251
 21
13594.991467022401
  0
LINE
  5
230
100
AcDbEntity
  8
1
  6
DOTTED
 62
           1
100
AcDbLine
 10
948.063892142251
 20
13599.991467022401
 11
951.063892142251
 21
13599.991467022401
  0
LINE
  5
22F
100
AcDbEntity
  8
1
  6
DOT_CENTER
 62
           1
100
AcDbLine
 10
944.13540676138
 20
13597.491467022401
 11
962.769251383693
 21
13597.491467022401
  0
LINE
  5
22E
100
AcDbEntity
  8
1
  6
DOTTED
 62
           1
100
AcDbLine
 10
948.063892142251
 20
13567.491467022401
 11
951.063892142251
 21
13567.491467022401
  0
LINE
  5
22D
100
AcDbEntity
  8
1
  6
DOTTED
 62
           1
100
AcDbLine
 10
948.063892142251
 20
13572.491467022401
 11
951.063892142251
 21
13572.491467022401
  0
LINE
  5
22C
100
AcDbEntity
  8
1
  6
DOT_CENTER
 62
           1
100
AcDbLine
 10
944.13540676138
 20
13569.991467022401
 11
956.75540676138
 21
13569.991467022401
  0
LINE
  5
22B
100
AcDbEntity
  8
1
  6
DOTTED
 62
           1
100
AcDbLine
 10
948.063892142251
 20
13539.991467022401
 11
951.063892142251
 21
13539.991467022401
  0
LINE
  5
22A
100
AcDbEntity
  8
1
  6
DOTTED
 62
           1
100
AcDbLine
 10
948.063892142251
 20
13544.991467022401
 11
951.063892142251
 21
13544.991467022401
  0
LINE
  5
229
100
AcDbEntity
  8
1
  6
DOT_CENTER
 62
           1
100
AcDbLine
 10
944.13540676138
 20
13542.491467022401
 11
956.75540676138
 21
13542.491467022401
  0
LINE
  5
228
100
AcDbEntity
  8
1
  6
DOTTED
 62
           1
100
AcDbLine
 10
948.063892142251
 20
13512.491467022401
 11
951.063892142251
 21
13512.491467022401
  0
LINE
  5
227
100
AcDbEntity
  8
1
  6
DOTTED
 62
           1
100
AcDbLine
 10
948.063892142251
 20
13517.491467022401
 11
951.063892142251
 21
13517.491467022401
  0
LINE
  5
226
100
AcDbEntity
  8
1
  6
DOT_CENTER
 62
           1
100
AcDbLine
 10
944.13540676138
 20
13514.991467022401
 11
956.75540676138
 21
13514.991467022401
  0
LINE
  5
225
100
AcDbEntity
  8
1
  6
DOT_CENTER
 62
           1
100
AcDbLine
 10
937.159981353509
 20
13444.491467022401
 11
959.769981353509
 21
13444.491467022401
  0
LINE
  5
224
100
AcDbEntity
  8
1
  6
DOT_CENTER
 62
           1
100
AcDbLine
 10
944.13540676138
 20
13487.491467022401
 11
956.75540676138
 21
13487.491467022401
  0
LINE
  5
223
100
AcDbEntity
  8
1
  6
DOTTED
 62
           1
100
AcDbLine
 10
948.063892142251
 20
13489.991467022401
 11
951.063892142251
 21
13489.991467022401
  0
LINE
  5
222
100
AcDbEntity
  8
1
  6
DOTTED
 62
           1
100
AcDbLine
 10
948.063892142251
 20
13484.991467022401
 11
951.063892142251
 21
13484.991467022401
  0
LINE
  5
221
100
AcDbEntity
  8
1
  6
DOTTED
 62
           1
100
AcDbLine
 10
948.063892142251
 20
13459.491467022401
 11
951.063892142251
 21
13459.491467022401
  0
LINE
  5
220
100
AcDbEntity
  8
1
  6
DOTTED
 62
           1
100
AcDbLine
 10
948.063892142251
 20
13429.491467022401
 11
951.063892142251
 21
13429.491467022401
  0
LINE
  5
21F
100
AcDbEntity
  8
1
  6
DOTTED
 62
           1
100
AcDbLine
 10
862.313892142251
 20
13402.491467022401
 11
862.313892142251
 21
13405.491467022401
  0
LINE
  5
21E
100
AcDbEntity
  8
1
  6
DOTTED
 62
           1
100
AcDbLine
 10
869.813892142251
 20
13402.491467022401
 11
869.813892142251
 21
13405.491467022401
  0
LINE
  5
21D
100
AcDbEntity
  8
1
  6
DOTTED
 62
           1
100
AcDbLine
 10
924.813892142251
 20
13402.491467022401
 11
924.813892142251
 21
13405.491467022401
  0
LINE
  5
21C
100
AcDbEntity
  8
1
  6
DOTTED
 62
           1
100
AcDbLine
 10
917.313892142251
 20
13402.491467022401
 11
917.313892142251
 21
13405.491467022401
  0
LINE
  5
21B
100
AcDbEntity
  8
1
  6
DOT_CENTER
 62
           1
100
AcDbLine
 10
921.063892142251
 20
13395.693700432421
 11
921.063892142251
 21
13419.91056412854
  0
LINE
  5
21A
100
AcDbEntity
  8
1
  6
CONTINUOUS
 62
           3
100
AcDbLine
 10
851.063892142251
 20
13405.491467022401
 11
909.063892142251
 21
13405.491467022401
  0
LINE
  5
219
100
AcDbEntity
  8
1
  6
CONTINUOUS
 62
           3
100
AcDbLine
 10
909.063892142251
 20
13405.491467022401
 11
909.063892142251
 21
13414.491467022401
  0
LINE
  5
218
100
AcDbEntity
  8
1
  6
CONTINUOUS
 62
           3
100
AcDbLine
 10
909.063892142251
 20
13414.491467022401
 11
941.063892142251
 21
13457.491467022401
  0
LINE
  5
217
100
AcDbEntity
  8
1
  6
DOT_CENTER
 62
           1
100
AcDbLine
 10
866.063892142251
 20
13395.693700432421
 11
866.063892142251
 21
13419.91056412854
  0
LINE
  5
216
100
AcDbEntity
  8
1
  6
CONTINUOUS
 62
           3
100
AcDbLine
 10
946.063892142251
 20
13717.491467022401
 11
948.063892142251
 21
13717.491467022401
  0
LINE
  5
215
100
AcDbEntity
  8
1
  6
CONTINUOUS
 62
           3
100
AcDbLine
 10
909.063892142251
 20
13405.491467022401
 11
951.063892142251
 21
13405.491467022401
  0
LINE
  5
214
100
AcDbEntity
  8
1
  6
CONTINUOUS
 62
           3
100
AcDbLine
 10
941.063892142251
 20
13712.491467022401
 11
941.063892142251
 21
13674.991467022401
  0
LINE
  5
213
100
AcDbEntity
  8
1
  6
DOTTED
 62
           1
100
AcDbLine
 10
948.063892142251
 20
13717.491467022401
 11
948.063892142251
 21
13408.249512525839
  0
LINE
  5
212
100
AcDbEntity
  8
1
  6
CONTINUOUS
 62
           3
100
AcDbLine
 10
948.063892142251
 20
13408.249512525839
 11
948.063892142251
 21
13405.491467022401
  0
LINE
  5
211
100
AcDbEntity
  8
1
  6
CONTINUOUS
 62
           3
100
AcDbLine
 10
948.063892142251
 20
13717.491467022401
 11
951.063892142251
 21
13717.491467022401
  0
LINE
  5
210
100
AcDbEntity
  8
1
  6
CONTINUOUS
 62
           3
100
AcDbLine
 10
948.063892142251
 20
13402.491467022401
 11
945.063892142251
 21
13402.491467022401
  0
LINE
  5
20F
100
AcDbEntity
  8
1
  6
CONTINUOUS
 62
           3
100
AcDbLine
 10
941.063892142251
 20
13405.491467022401
 11
941.063892142251
 21
13402.491467022401
  0
LINE
  5
20E
100
AcDbEntity
  8
1
  6
CONTINUOUS
 62
           3
100
AcDbLine
 10
851.063892142251
 20
13402.491467022401
 11
851.063892142251
 21
13405.491467022401
  0
LINE
  5
20D
100
AcDbEntity
  8
1
  6
CONTINUOUS
 62
           3
100
AcDbLine
 10
945.063892142251
 20
13402.491467022401
 11
851.063892142251
 21
13402.491467022401
  0
LINE
  5
20C
100
AcDbEntity
  8
1
  6
DOTTED
 62
           1
100
AcDbLine
 10
1075.142418400481
 20
13405.491467022401
 11
1075.142418400481
 21
13402.491467022401
  0
LINE
  5
20B
100
AcDbEntity
  8
1
  6
DOTTED
 62
           1
100
AcDbLine
 10
1082.642418400481
 20
13405.491467022401
 11
1082.642418400481
 21
13402.491467022401
  0
LINE
  5
20A
100
AcDbEntity
  8
1
  6
DOT_CENTER
 62
           1
100
AcDbLine
 10
1136.392418400481
 20
13398.190148553111
 11
1136.392418400481
 21
13412.491467022401
  0
LINE
  5
209
100
AcDbEntity
  8
1
  6
DOTTED
 62
           1
100
AcDbLine
 10
1140.142418400481
 20
13405.491467022401
 11
1140.142418400481
 21
13402.491467022401
  0
LINE
  5
208
100
AcDbEntity
  8
1
  6
DOTTED
 62
           1
100
AcDbLine
 10
1132.642418400481
 20
13405.491467022401
 11
1132.642418400481
 21
13402.491467022401
  0
LINE
  5
207
100
AcDbEntity
  8
1
  6
DOTTED
 62
           1
100
AcDbLine
 10
1025.142418400481
 20
13402.491467022401
 11
1025.142418400481
 21
13405.491467022401
  0
LINE
  5
206
100
AcDbEntity
  8
1
  6
DOTTED
 62
           1
100
AcDbLine
 10
1017.642418400481
 20
13402.491467022401
 11
1017.642418400481
 21
13405.491467022401
  0
LINE
  5
205
100
AcDbEntity
  8
1
  6
DOT_CENTER
 62
           1
100
AcDbLine
 10
1021.392418400481
 20
13412.491467022401
 11
1021.392418400481
 21
13398.190148553111
  0
LINE
  5
204
100
AcDbEntity
  8
1
  6
DOT_CENTER
 62
           1
100
AcDbLine
 10
1063.892418400481
 20
13720.39883524196
 11
1063.892418400481
 21
13478.0409748492
  0
LINE
  5
203
100
AcDbEntity
  8
1
  6
DOT_CENTER
 62
           1
100
AcDbLine
 10
1058.650521159427
 20
13707.491467022401
 11
1098.409296111053
 21
13707.491467022401
  0
LINE
  5
202
100
AcDbEntity
  8
1
  6
DOT_CENTER
 62
           1
100
AcDbLine
 10
1058.650521159427
 20
13679.991467022401
 11
1098.409296111053
 21
13679.991467022401
  0
LINE
  5
201
100
AcDbEntity
  8
1
  6
DOT_CENTER
 62
           1
100
AcDbLine
 10
1058.650521159427
 20
13569.991467022401
 11
1098.409296111053
 21
13569.991467022401
  0
LINE
  5
200
100
AcDbEntity
  8
1
  6
DOT_CENTER
 62
           1
100
AcDbLine
 10
1058.650521159427
 20
13542.491467022401
 11
1098.409296111053
 21
13542.491467022401
  0
LINE
  5
1FF
100
AcDbEntity
  8
1
  6
DOT_CENTER
 62
           1
100
AcDbLine
 10
1058.650521159427
 20
13514.991467022401
 11
1098.409296111053
 21
13514.991467022401
  0
LINE
  5
1FE
100
AcDbEntity
  8
1
  6
DOT_CENTER
 62
           1
100
AcDbLine
 10
1058.650521159427
 20
13487.491467022401
 11
1098.409296111053
 21
13487.491467022401
  0
LINE
  5
1FD
100
AcDbEntity
  8
1
  6
DOT_CENTER
 62
           1
100
AcDbLine
 10
1057.773381642025
 20
13444.491467022401
 11
1100.234075921263
 21
13444.491467022401
  0
LINE
  5
1FC
100
AcDbEntity
  8
1
  6
DOTTED
 62
           1
100
AcDbLine
 10
1105.892418400481
 20
13408.967685276881
 11
1105.892418400481
 21
13717.491467022401
  0
LINE
  5
1FB
100
AcDbEntity
  8
1
  6
DOTTED
 62
           1
100
AcDbLine
 10
1051.892418400481
 20
13717.491467022401
 11
1051.892418400481
 21
13408.967685276881
  0
LINE
  5
1FA
100
AcDbEntity
  8
1
  6
CONTINUOUS
 62
           3
100
AcDbLine
 10
1066.392418400481
 20
13405.491467022401
 11
1091.392418400481
 21
13405.491467022401
  0
LINE
  5
1F9
100
AcDbEntity
  8
1
  6
DOTTED
 62
           1
100
AcDbLine
 10
1055.368636654959
 20
13405.491467022401
 11
1066.392418400481
 21
13405.491467022401
  0
LINE
  5
1F8
100
AcDbEntity
  8
1
  6
CONTINUOUS
 62
           3
100
AcDbLine
 10
1066.392418400481
 20
13405.491467022401
 11
1066.392418400481
 21
13412.491467022401
  0
LINE
  5
1F7
100
AcDbEntity
  8
1
  6
CONTINUOUS
 62
           3
100
AcDbLine
 10
1102.416200145071
 20
13405.491467022401
 11
1108.892418400481
 21
13405.491467022401
  0
LINE
  5
1F6
100
AcDbEntity
  8
1
  6
CONTINUOUS
 62
           3
100
AcDbLine
 10
1091.392418400481
 20
13405.491467022401
 11
1091.392418400481
 21
13402.491467022401
  0
LINE
  5
1F5
100
AcDbEntity
  8
1
  6
DOTTED
 62
           1
100
AcDbLine
 10
1091.392418400481
 20
13405.491467022401
 11
1102.416200145071
 21
13405.491467022401
  0
LINE
  5
1F4
100
AcDbEntity
  8
1
  6
CONTINUOUS
 62
           3
100
AcDbLine
 10
1091.392418400481
 20
13402.491467022401
 11
1066.392418400481
 21
13402.491467022401
  0
LINE
  5
1F3
100
AcDbEntity
  8
1
  6
CONTINUOUS
 62
           3
100
AcDbLine
 10
1091.392418400481
 20
13412.491467022401
 11
1091.392418400481
 21
13405.491467022401
  0
LINE
  5
1F2
100
AcDbEntity
  8
1
  6
CONTINUOUS
 62
           3
100
AcDbLine
 10
1066.392418400481
 20
13412.491467022401
 11
1091.392418400481
 21
13412.491467022401
  0
LINE
  5
1F1
100
AcDbEntity
  8
1
  6
CONTINUOUS
 62
           3
100
AcDbLine
 10
1066.392418400481
 20
13402.491467022401
 11
1054.892418400481
 21
13402.491467022401
  0
LINE
  5
1F0
100
AcDbEntity
  8
1
  6
CONTINUOUS
 62
           3
100
AcDbLine
 10
1066.392418400481
 20
13402.491467022401
 11
1066.392418400481
 21
13405.491467022401
  0
LINE
  5
1EF
100
AcDbEntity
  8
1
  6
CONTINUOUS
 62
           3
100
AcDbLine
 10
1108.892418400481
 20
13405.491467022401
 11
1150.892418400481
 21
13405.491467022401
  0
LINE
  5
1EE
100
AcDbEntity
  8
1
  6
CONTINUOUS
 62
           3
100
AcDbLine
 10
1108.892418400481
 20
13408.491467022401
 11
1108.892418400481
 21
13717.491467022401
  0
LINE
  5
1ED
100
AcDbEntity
  8
1
  6
CONTINUOUS
 62
           3
100
AcDbLine
 10
1054.892418400481
 20
13402.491467022401
 11
1051.892418400481
 21
13402.491467022401
  0
LINE
  5
1EC
100
AcDbEntity
  8
1
  6
CONTINUOUS
 62
           3
100
AcDbLine
 10
1102.892418400481
 20
13402.491467022401
 11
1091.392418400481
 21
13402.491467022401
  0
LINE
  5
1EB
100
AcDbEntity
  8
1
  6
CONTINUOUS
 62
           3
100
AcDbLine
 10
1051.892418400481
 20
13408.967685276881
 11
1051.892418400481
 21
13402.491467022401
  0
LINE
  5
1EA
100
AcDbEntity
  8
1
  6
CONTINUOUS
 62
           3
100
AcDbLine
 10
1105.892418400481
 20
13408.967685276881
 11
1105.892418400481
 21
13402.491467022401
  0
LINE
  5
1E9
100
AcDbEntity
  8
1
  6
CONTINUOUS
 62
           3
100
AcDbLine
 10
1105.892418400481
 20
13402.491467022401
 11
1102.892418400481
 21
13402.491467022401
  0
LINE
  5
1E8
100
AcDbEntity
  8
1
  6
CONTINUOUS
 62
           3
100
AcDbLine
 10
1051.892418400481
 20
13402.491467022401
 11
1048.892418400481
 21
13402.491467022401
  0
LINE
  5
1E7
100
AcDbEntity
  8
1
  6
CONTINUOUS
 62
           3
100
AcDbLine
 10
1108.892418400481
 20
13402.491467022401
 11
1105.892418400481
 21
13402.491467022401
  0
LINE
  5
1E6
100
AcDbEntity
  8
1
  6
CONTINUOUS
 62
           3
100
AcDbLine
 10
1048.892418400481
 20
13402.491467022401
 11
1006.892418400481
 21
13402.491467022401
  0
LINE
  5
1E5
100
AcDbEntity
  8
1
  6
CONTINUOUS
 62
           3
100
AcDbLine
 10
1108.892418400481
 20
13717.491467022401
 11
1105.892418400481
 21
13717.491467022401
  0
LINE
  5
1E4
100
AcDbEntity
  8
1
  6
CONTINUOUS
 62
           3
100
AcDbLine
 10
1108.892418400481
 20
13405.491467022401
 11
1108.892418400481
 21
13408.491467022401
  0
LINE
  5
1E3
100
AcDbEntity
  8
1
  6
CONTINUOUS
 62
           3
100
AcDbLine
 10
1006.892418400481
 20
13402.491467022401
 11
1006.892418400481
 21
13405.491467022401
  0
LINE
  5
1E2
100
AcDbEntity
  8
1
  6
CONTINUOUS
 62
           3
100
AcDbLine
 10
1150.892418400481
 20
13402.491467022401
 11
1108.892418400481
 21
13402.491467022401
  0
LINE
  5
1E1
100
AcDbEntity
  8
1
  6
CONTINUOUS
 62
           3
100
AcDbLine
 10
1150.892418400481
 20
13405.491467022401
 11
1150.892418400481
 21
13402.491467022401
  0
LINE
  5
1E0
100
AcDbEntity
  8
1
  6
CONTINUOUS
 62
           3
100
AcDbLine
 10
1006.892418400481
 20
13405.491467022401
 11
1048.892418400481
 21
13405.491467022401
  0
LINE
  5
1DF
100
AcDbEntity
  8
1
  6
DOT_CENTER
 62
           1
100
AcDbLine
 10
499.196746915672
 20
13624.991467022401
 11
969.923972475625
 21
13624.991467022401
  0
LINE
  5
1DE
100
AcDbEntity
  8
1
  6
CONTINUOUS
 62
           3
100
AcDbLine
 10
948.063892142251
 20
13898.97602581389
 11
948.063892142251
 21
13911.47602581389
  0
LINE
  5
1DD
100
AcDbEntity
  8
1
  6
DOT_CENTER
 62
           1
100
AcDbLine
 10
366.584382268358
 20
13612.491467022401
 11
407.721380737023
 21
13612.491467022401
  0
LINE
  5
1DC
100
AcDbEntity
  8
1
  6
DOT_CENTER
 62
           1
100
AcDbLine
 10
366.993027948511
 20
13637.491467022401
 11
408.266241643893
 21
13637.491467022401
  0
LINE
  5
1DB
100
AcDbEntity
  8
1
  6
DOT_CENTER
 62
           1
100
AcDbLine
 10
397.0075370422
 20
13644.81430743165
 11
397.0075370422
 21
13604.085954643129
  0
LINE
  5
1DA
100
AcDbEntity
  8
1
  6
DOT_CENTER
 62
           1
100
AcDbLine
 10
377.0075370422
 20
13644.13323129807
 11
377.0075370422
 21
13605.31189168359
  0
LINE
  5
1D9
100
AcDbEntity
  8
1
  6
CONTINUOUS
 62
           6
100
AcDbLine
 10
377.5075370422
 20
13614.491467022401
 11
377.5075370422
 21
13613.491467022401
  0
LINE
  5
1D8
100
AcDbEntity
  8
1
  6
CONTINUOUS
 62
           6
100
AcDbLine
 10
375.0075370422
 20
13612.991467022401
 11
376.0075370422
 21
13612.991467022401
  0
LINE
  5
1D7
100
AcDbEntity
  8
1
  6
CONTINUOUS
 62
           6
100
AcDbLine
 10
379.0075370422
 20
13611.991467022401
 11
378.0075370422
 21
13611.991467022401
  0
LINE
  5
1D6
100
AcDbEntity
  8
1
  6
CONTINUOUS
 62
           6
100
AcDbLine
 10
376.5075370422
 20
13610.491467022401
 11
376.5075370422
 21
13611.491467022401
  0
LINE
  5
1D5
100
AcDbEntity
  8
1
  6
CONTINUOUS
 62
           6
100
AcDbLine
 10
375.0075370422
 20
13611.991467022401
 11
375.0075370422
 21
13612.991467022401
  0
LINE
  5
1D4
100
AcDbEntity
  8
1
  6
CONTINUOUS
 62
           6
100
AcDbLine
 10
378.0075370422
 20
13612.991467022401
 11
379.0075370422
 21
13612.991467022401
  0
LINE
  5
1D3
100
AcDbEntity
  8
1
  6
CONTINUOUS
 62
           6
100
AcDbLine
 10
379.0075370422
 20
13612.991467022401
 11
379.0075370422
 21
13611.991467022401
  0
LINE
  5
1D2
100
AcDbEntity
  8
1
  6
CONTINUOUS
 62
           6
100
AcDbLine
 10
376.0075370422
 20
13611.991467022401
 11
375.0075370422
 21
13611.991467022401
  0
LINE
  5
1D1
100
AcDbEntity
  8
1
  6
CONTINUOUS
 62
           6
100
AcDbLine
 10
376.5075370422
 20
13613.491467022401
 11
376.5075370422
 21
13614.491467022401
  0
LINE
  5
1D0
100
AcDbEntity
  8
1
  6
CONTINUOUS
 62
           6
100
AcDbLine
 10
376.5075370422
 20
13614.491467022401
 11
377.5075370422
 21
13614.491467022401
  0
LINE
  5
1CF
100
AcDbEntity
  8
1
  6
CONTINUOUS
 62
           6
100
AcDbLine
 10
377.5075370422
 20
13611.491467022401
 11
377.5075370422
 21
13610.491467022401
  0
LINE
  5
1CE
100
AcDbEntity
  8
1
  6
CONTINUOUS
 62
           6
100
AcDbLine
 10
377.5075370422
 20
13610.491467022401
 11
376.5075370422
 21
13610.491467022401
  0
LINE
  5
1CD
100
AcDbEntity
  8
1
  6
CONTINUOUS
 62
           6
100
AcDbLine
 10
397.5075370422
 20
13610.491467022401
 11
396.5075370422
 21
13610.491467022401
  0
LINE
  5
1CC
100
AcDbEntity
  8
1
  6
CONTINUOUS
 62
           6
100
AcDbLine
 10
396.5075370422
 20
13610.491467022401
 11
396.5075370422
 21
13611.491467022401
  0
LINE
  5
1CB
100
AcDbEntity
  8
1
  6
CONTINUOUS
 62
           6
100
AcDbLine
 10
396.5075370422
 20
13614.491467022401
 11
397.5075370422
 21
13614.491467022401
  0
LINE
  5
1CA
100
AcDbEntity
  8
1
  6
CONTINUOUS
 62
           6
100
AcDbLine
 10
397.5075370422
 20
13614.491467022401
 11
397.5075370422
 21
13613.491467022401
  0
LINE
  5
1C9
100
AcDbEntity
  8
1
  6
CONTINUOUS
 62
           6
100
AcDbLine
 10
399.0075370422
 20
13611.991467022401
 11
398.0075370422
 21
13611.991467022401
  0
LINE
  5
1C8
100
AcDbEntity
  8
1
  6
CONTINUOUS
 62
           6
100
AcDbLine
 10
395.0075370422
 20
13611.991467022401
 11
395.0075370422
 21
13612.991467022401
  0
LINE
  5
1C7
100
AcDbEntity
  8
1
  6
CONTINUOUS
 62
           6
100
AcDbLine
 10
395.0075370422
 20
13612.991467022401
 11
396.0075370422
 21
13612.991467022401
  0
LINE
  5
1C6
100
AcDbEntity
  8
1
  6
CONTINUOUS
 62
           6
100
AcDbLine
 10
399.0075370422
 20
13612.991467022401
 11
399.0075370422
 21
13611.991467022401
  0
LINE
  5
1C5
100
AcDbEntity
  8
1
  6
CONTINUOUS
 62
           6
100
AcDbLine
 10
397.5075370422
 20
13611.491467022401
 11
397.5075370422
 21
13610.491467022401
  0
LINE
  5
1C4
100
AcDbEntity
  8
1
  6
CONTINUOUS
 62
           6
100
AcDbLine
 10
396.0075370422
 20
13611.991467022401
 11
395.0075370422
 21
13611.991467022401
  0
LINE
  5
1C3
100
AcDbEntity
  8
1
  6
CONTINUOUS
 62
           6
100
AcDbLine
 10
398.0075370422
 20
13612.991467022401
 11
399.0075370422
 21
13612.991467022401
  0
LINE
  5
1C2
100
AcDbEntity
  8
1
  6
CONTINUOUS
 62
           6
100
AcDbLine
 10
396.5075370422
 20
13613.491467022401
 11
396.5075370422
 21
13614.491467022401
  0
LINE
  5
1C1
100
AcDbEntity
  8
1
  6
CONTINUOUS
 62
           6
100
AcDbLine
 10
396.5075370422
 20
13635.491467022401
 11
396.5075370422
 21
13636.491467022401
  0
LINE
  5
1C0
100
AcDbEntity
  8
1
  6
CONTINUOUS
 62
           6
100
AcDbLine
 10
399.0075370422
 20
13636.991467022401
 11
398.0075370422
 21
13636.991467022401
  0
LINE
  5
1BF
100
AcDbEntity
  8
1
  6
CONTINUOUS
 62
           6
100
AcDbLine
 10
395.0075370422
 20
13637.991467022401
 11
396.0075370422
 21
13637.991467022401
  0
LINE
  5
1BE
100
AcDbEntity
  8
1
  6
CONTINUOUS
 62
           6
100
AcDbLine
 10
397.5075370422
 20
13639.491467022401
 11
397.5075370422
 21
13638.491467022401
  0
LINE
  5
1BD
100
AcDbEntity
  8
1
  6
CONTINUOUS
 62
           6
100
AcDbLine
 10
399.0075370422
 20
13637.991467022401
 11
399.0075370422
 21
13636.991467022401
  0
LINE
  5
1BC
100
AcDbEntity
  8
1
  6
CONTINUOUS
 62
           6
100
AcDbLine
 10
396.0075370422
 20
13636.991467022401
 11
395.0075370422
 21
13636.991467022401
  0
LINE
  5
1BB
100
AcDbEntity
  8
1
  6
CONTINUOUS
 62
           6
100
AcDbLine
 10
395.0075370422
 20
13636.991467022401
 11
395.0075370422
 21
13637.991467022401
  0
LINE
  5
1BA
100
AcDbEntity
  8
1
  6
CONTINUOUS
 62
           6
100
AcDbLine
 10
398.0075370422
 20
13637.991467022401
 11
399.0075370422
 21
13637.991467022401
  0
LINE
  5
1B9
100
AcDbEntity
  8
1
  6
CONTINUOUS
 62
           6
100
AcDbLine
 10
397.5075370422
 20
13636.491467022401
 11
397.5075370422
 21
13635.491467022401
  0
LINE
  5
1B8
100
AcDbEntity
  8
1
  6
CONTINUOUS
 62
           6
100
AcDbLine
 10
397.5075370422
 20
13635.491467022401
 11
396.5075370422
 21
13635.491467022401
  0
LINE
  5
1B7
100
AcDbEntity
  8
1
  6
CONTINUOUS
 62
           6
100
AcDbLine
 10
396.5075370422
 20
13638.491467022401
 11
396.5075370422
 21
13639.491467022401
  0
LINE
  5
1B6
100
AcDbEntity
  8
1
  6
CONTINUOUS
 62
           6
100
AcDbLine
 10
396.5075370422
 20
13639.491467022401
 11
397.5075370422
 21
13639.491467022401
  0
LINE
  5
1B5
100
AcDbEntity
  8
1
  6
CONTINUOUS
 62
           6
100
AcDbLine
 10
376.5075370422
 20
13639.491467022401
 11
377.5075370422
 21
13639.491467022401
  0
LINE
  5
1B4
100
AcDbEntity
  8
1
  6
CONTINUOUS
 62
           6
100
AcDbLine
 10
377.5075370422
 20
13639.491467022401
 11
377.5075370422
 21
13638.491467022401
  0
LINE
  5
1B3
100
AcDbEntity
  8
1
  6
CONTINUOUS
 62
           6
100
AcDbLine
 10
377.5075370422
 20
13635.491467022401
 11
376.5075370422
 21
13635.491467022401
  0
LINE
  5
1B2
100
AcDbEntity
  8
1
  6
CONTINUOUS
 62
           6
100
AcDbLine
 10
376.5075370422
 20
13635.491467022401
 11
376.5075370422
 21
13636.491467022401
  0
LINE
  5
1B1
100
AcDbEntity
  8
1
  6
CONTINUOUS
 62
           6
100
AcDbLine
 10
375.0075370422
 20
13637.991467022401
 11
376.0075370422
 21
13637.991467022401
  0
LINE
  5
1B0
100
AcDbEntity
  8
1
  6
CONTINUOUS
 62
           6
100
AcDbLine
 10
379.0075370422
 20
13637.991467022401
 11
379.0075370422
 21
13636.991467022401
  0
LINE
  5
1AF
100
AcDbEntity
  8
1
  6
CONTINUOUS
 62
           6
100
AcDbLine
 10
379.0075370422
 20
13636.991467022401
 11
378.0075370422
 21
13636.991467022401
  0
LINE
  5
1AE
100
AcDbEntity
  8
1
  6
CONTINUOUS
 62
           6
100
AcDbLine
 10
375.0075370422
 20
13636.991467022401
 11
375.0075370422
 21
13637.991467022401
  0
LINE
  5
1AD
100
AcDbEntity
  8
1
  6
CONTINUOUS
 62
           6
100
AcDbLine
 10
376.5075370422
 20
13638.491467022401
 11
376.5075370422
 21
13639.491467022401
  0
LINE
  5
1AC
100
AcDbEntity
  8
1
  6
CONTINUOUS
 62
           6
100
AcDbLine
 10
378.0075370422
 20
13637.991467022401
 11
379.0075370422
 21
13637.991467022401
  0
LINE
  5
1AB
100
AcDbEntity
  8
1
  6
CONTINUOUS
 62
           6
100
AcDbLine
 10
376.0075370422
 20
13636.991467022401
 11
375.0075370422
 21
13636.991467022401
  0
LINE
  5
1AA
100
AcDbEntity
  8
1
  6
CONTINUOUS
 62
           6
100
AcDbLine
 10
377.5075370422
 20
13636.491467022401
 11
377.5075370422
 21
13635.491467022401
  0
LINE
  5
1A9
100
AcDbEntity
  8
1
  6
DOT_CENTER
 62
           1
100
AcDbLine
 10
349.5075370422
 20
13671.16272631838
 11
349.5075370422
 21
13653.51186935953
  0
LINE
  5
1A8
100
AcDbEntity
  8
1
  6
DOT_CENTER
 62
           1
100
AcDbLine
 10
339.221819048526
 20
13662.491467022401
 11
358.501985880486
 21
13662.491467022401
  0
LINE
  5
1A7
100
AcDbEntity
  8
1
  6
DOT_CENTER
 62
           1
100
AcDbLine
 10
328.812339303571
 20
13674.991467022401
 11
345.920092971367
 21
13674.991467022401
  0
LINE
  5
1A6
100
AcDbEntity
  8
1
  6
DOT_CENTER
 62
           1
100
AcDbLine
 10
337.0075370422
 20
13682.386860999881
 11
337.0075370422
 21
13666.003245053491
  0
LINE
  5
1A5
100
AcDbEntity
  8
1
  6
DOT_CENTER
 62
           1
100
AcDbLine
 10
424.5075370422
 20
13595.961372905769
 11
424.5075370422
 21
13578.38324115626
  0
LINE
  5
1A4
100
AcDbEntity
  8
1
  6
DOT_CENTER
 62
           1
100
AcDbLine
 10
437.0075370422
 20
13582.24185544274
 11
437.0075370422
 21
13567.37904485778
  0
LINE
  5
1A3
100
AcDbEntity
  8
1
  6
DOT_CENTER
 62
           1
100
AcDbLine
 10
428.646984338218
 20
13574.991467022401
 11
444.938911325566
 21
13574.991467022401
  0
LINE
  5
1A2
100
AcDbEntity
  8
1
  6
DOT_CENTER
 62
           1
100
AcDbLine
 10
415.856392536747
 20
13587.491467022401
 11
432.005407883855
 21
13587.491467022401
  0
LINE
  5
1A1
100
AcDbEntity
  8
1
  6
DOT_CENTER
 62
           1
100
AcDbLine
 10
343.273707425441
 20
13587.491467022401
 11
356.31484684936
 21
13587.491467022401
  0
LINE
  5
1A0
100
AcDbEntity
  8
1
  6
DOT_CENTER
 62
           1
100
AcDbLine
 10
344.666074924571
 20
13590.8914670224
 11
354.035124900481
 21
13590.8914670224
  0
LINE
  5
19F
100
AcDbEntity
  8
1
  6
DOT_CENTER
 62
           1
100
AcDbLine
 10
344.61343981235
 20
13584.091467022399
 11
354.298300461601
 21
13584.091467022399
  0
LINE
  5
19E
100
AcDbEntity
  8
1
  6
DOT_CENTER
 62
           1
100
AcDbLine
 10
349.507537042199
 20
13578.946175361531
 11
349.5075370422
 21
13596.31576239551
  0
LINE
  5
19D
100
AcDbEntity
  8
1
  6
CONTINUOUS
 62
           3
100
AcDbLine
 10
352.1075370422
 20
13590.8914670224
 11
352.107537042199
 21
13584.091467022399
  0
LINE
  5
19C
100
AcDbEntity
  8
1
  6
CONTINUOUS
 62
           3
100
AcDbLine
 10
346.907537042199
 20
13584.091467022399
 11
346.9075370422
 21
13590.8914670224
  0
LINE
  5
19B
100
AcDbEntity
  8
1
  6
CONTINUOUS
 62
           3
100
AcDbLine
 10
334.407537042199
 20
13571.591467022399
 11
334.4075370422
 21
13578.3914670224
  0
LINE
  5
19A
100
AcDbEntity
  8
1
  6
CONTINUOUS
 62
           3
100
AcDbLine
 10
339.6075370422
 20
13578.3914670224
 11
339.6075370422
 21
13571.591467022399
  0
LINE
  5
199
100
AcDbEntity
  8
1
  6
DOT_CENTER
 62
           1
100
AcDbLine
 10
337.007537042199
 20
13566.446175361531
 11
337.0075370422
 21
13583.81576239551
  0
LINE
  5
198
100
AcDbEntity
  8
1
  6
DOT_CENTER
 62
           1
100
AcDbLine
 10
332.11343981235
 20
13571.591467022399
 11
341.798300461601
 21
13571.591467022399
  0
LINE
  5
197
100
AcDbEntity
  8
1
  6
DOT_CENTER
 62
           1
100
AcDbLine
 10
332.166074924571
 20
13578.3914670224
 11
341.535124900481
 21
13578.3914670224
  0
LINE
  5
196
100
AcDbEntity
  8
1
  6
DOT_CENTER
 62
           1
100
AcDbLine
 10
330.773707425441
 20
13574.991467022401
 11
343.81484684936
 21
13574.991467022401
  0
LINE
  5
195
100
AcDbEntity
  8
1
  6
CONTINUOUS
 62
           3
100
AcDbLine
 10
421.1075370422
 20
13665.091467022399
 11
427.9075370422
 21
13665.091467022399
  0
LINE
  5
194
100
AcDbEntity
  8
1
  6
CONTINUOUS
 62
           3
100
AcDbLine
 10
427.9075370422
 20
13659.8914670224
 11
421.1075370422
 21
13659.8914670224
  0
LINE
  5
193
100
AcDbEntity
  8
1
  6
DOT_CENTER
 62
           1
100
AcDbLine
 10
415.962245381332
 20
13662.491467022401
 11
433.331832415315
 21
13662.491467022401
  0
LINE
  5
192
100
AcDbEntity
  8
1
  6
DOT_CENTER
 62
           1
100
AcDbLine
 10
421.1075370422
 20
13667.38556425225
 11
421.1075370422
 21
13657.700703603001
  0
LINE
  5
191
100
AcDbEntity
  8
1
  6
DOT_CENTER
 62
           1
100
AcDbLine
 10
427.9075370422
 20
13667.33292914002
 11
427.9075370422
 21
13657.96387916411
  0
LINE
  5
190
100
AcDbEntity
  8
1
  6
DOT_CENTER
 62
           1
100
AcDbLine
 10
424.5075370422
 20
13668.725296639161
 11
424.5075370422
 21
13655.684157215241
  0
LINE
  5
18F
100
AcDbEntity
  8
1
  6
DOT_CENTER
 62
           1
100
AcDbLine
 10
345.099553847428
 20
13666.899450217161
 11
354.321031968481
 21
13657.67797209612
  0
LINE
  5
18E
100
AcDbEntity
  8
1
  6
DOT_CENTER
 62
           1
100
AcDbLine
 10
348.488269404001
 20
13668.31906077267
 11
355.113188175242
 21
13661.69414200143
  0
LINE
  5
18D
100
AcDbEntity
  8
1
  6
DOT_CENTER
 62
           1
100
AcDbLine
 10
343.642724647153
 20
13663.54795330538
 11
350.490955287085
 21
13656.69972266544
  0
LINE
  5
18C
100
AcDbEntity
  8
1
  6
DOT_CENTER
 62
           1
100
AcDbLine
 10
343.465103361583
 20
13656.449033341771
 11
355.747256139722
 21
13668.73118611993
  0
LINE
  5
18B
100
AcDbEntity
  8
1
  6
CONTINUOUS
 62
           3
100
AcDbLine
 10
353.750177729319
 20
13663.05715244734
 11
348.94185161725
 21
13658.24882633527
  0
LINE
  5
18A
100
AcDbEntity
  8
1
  6
CONTINUOUS
 62
           3
100
AcDbLine
 10
345.264896355081
 20
13661.92578159744
 11
350.073222467149
 21
13666.73410770951
  0
LINE
  5
189
100
AcDbEntity
  8
1
  6
CONTINUOUS
 62
           3
100
AcDbLine
 10
332.764896355081
 20
13674.42578159744
 11
337.573222467149
 21
13679.23410770951
  0
LINE
  5
188
100
AcDbEntity
  8
1
  6
CONTINUOUS
 62
           3
100
AcDbLine
 10
341.250177729319
 20
13675.55715244734
 11
336.44185161725
 21
13670.74882633527
  0
LINE
  5
187
100
AcDbEntity
  8
1
  6
DOT_CENTER
 62
           1
100
AcDbLine
 10
330.965103361583
 20
13668.949033341771
 11
343.247256139722
 21
13681.23118611993
  0
LINE
  5
186
100
AcDbEntity
  8
1
  6
DOT_CENTER
 62
           1
100
AcDbLine
 10
331.142724647153
 20
13676.04795330538
 11
337.990955287085
 21
13669.19972266544
  0
LINE
  5
185
100
AcDbEntity
  8
1
  6
DOT_CENTER
 62
           1
100
AcDbLine
 10
335.988269404001
 20
13680.81906077267
 11
342.613188175242
 21
13674.19414200143
  0
LINE
  5
184
100
AcDbEntity
  8
1
  6
DOT_CENTER
 62
           1
100
AcDbLine
 10
332.599553847428
 20
13679.399450217161
 11
341.821031968481
 21
13670.17797209612
  0
LINE
  5
183
100
AcDbEntity
  8
1
  6
DOT_CENTER
 62
           1
100
AcDbLine
 10
437.0075370422
 20
13681.225296639161
 11
437.0075370422
 21
13668.184157215241
  0
LINE
  5
182
100
AcDbEntity
  8
1
  6
DOT_CENTER
 62
           1
100
AcDbLine
 10
440.4075370422
 20
13679.83292914002
 11
440.4075370422
 21
13670.46387916411
  0
LINE
  5
181
100
AcDbEntity
  8
1
  6
DOT_CENTER
 62
           1
100
AcDbLine
 10
433.6075370422
 20
13679.88556425225
 11
433.6075370422
 21
13670.200703603001
  0
LINE
  5
180
100
AcDbEntity
  8
1
  6
DOT_CENTER
 62
           1
100
AcDbLine
 10
428.462245381332
 20
13674.991467022401
 11
445.831832415315
 21
13674.991467022401
  0
LINE
  5
17F
100
AcDbEntity
  8
1
  6
CONTINUOUS
 62
           3
100
AcDbLine
 10
440.4075370422
 20
13672.3914670224
 11
433.6075370422
 21
13672.3914670224
  0
LINE
  5
17E
100
AcDbEntity
  8
1
  6
CONTINUOUS
 62
           3
100
AcDbLine
 10
433.6075370422
 20
13677.591467022399
 11
440.4075370422
 21
13677.591467022399
  0
LINE
  5
17D
100
AcDbEntity
  8
1
  6
CONTINUOUS
 62
           3
100
AcDbLine
 10
418.756737504078
 20
13630.64162693003
 11
445.258336580322
 21
13669.341307114781
  0
LINE
  5
17C
100
AcDbEntity
  8
1
  6
CONTINUOUS
 62
           3
100
AcDbLine
 10
445.258336580322
 20
13580.64162693003
 11
418.756737504078
 21
13619.341307114781
  0
LINE
  5
17B
100
AcDbEntity
  8
1
  6
CONTINUOUS
 62
           3
100
AcDbLine
 10
392.657696949825
 20
13593.24226656051
 11
414.0075370422
 21
13578.621864020521
  0
LINE
  5
17A
100
AcDbEntity
  8
1
  6
CONTINUOUS
 62
           3
100
AcDbLine
 10
342.657696949824
 20
13566.74066748427
 11
357.0075370422
 21
13576.56745951771
  0
LINE
  5
179
100
AcDbEntity
  8
1
  6
CONTINUOUS
 62
           3
100
AcDbLine
 10
355.258336580322
 20
13619.341307114781
 11
328.756737504078
 21
13580.64162693003
  0
LINE
  5
178
100
AcDbEntity
  8
1
  6
CONTINUOUS
 62
           3
100
AcDbLine
 10
328.756737504078
 20
13669.341307114781
 11
355.258336580321
 21
13630.64162693003
  0
LINE
  5
177
100
AcDbEntity
  8
1
  6
CONTINUOUS
 62
           3
100
AcDbLine
 10
381.357377134575
 20
13656.74066748427
 11
342.657696949823
 21
13683.242266560521
  0
LINE
  5
176
100
AcDbEntity
  8
1
  6
CONTINUOUS
 62
           3
100
AcDbLine
 10
360.0075370422
 20
13717.491467022401
 11
357.0075370422
 21
13717.491467022401
  0
LINE
  5
175
100
AcDbEntity
  8
1
  6
CONTINUOUS
 62
           3
100
AcDbLine
 10
414.0075370422
 20
13717.491467022401
 11
360.0075370422
 21
13717.491467022401
  0
LINE
  5
174
100
AcDbEntity
  8
1
  6
DOT_CENTER
 62
           1
100
AcDbLine
 10
366.765639801146
 20
13569.991467022401
 11
406.524414752772
 21
13569.991467022401
  0
LINE
  5
173
100
AcDbEntity
  8
1
  6
DOT_CENTER
 62
           1
100
AcDbLine
 10
366.765639801146
 20
13597.491467022401
 11
406.524414752772
 21
13597.491467022401
  0
LINE
  5
172
100
AcDbEntity
  8
1
  6
DOT_CENTER
 62
           1
100
AcDbLine
 10
366.765639801146
 20
13652.491467022401
 11
406.524414752772
 21
13652.491467022401
  0
LINE
  5
171
100
AcDbEntity
  8
1
  6
DOT_CENTER
 62
           1
100
AcDbLine
 10
366.765639801146
 20
13679.991467022401
 11
406.524414752772
 21
13679.991467022401
  0
LINE
  5
170
100
AcDbEntity
  8
1
  6
DOTTED
 62
           1
100
AcDbLine
 10
357.0075370422
 20
13673.41547452707
 11
357.0075370422
 21
13576.56745951771
  0
LINE
  5
16F
100
AcDbEntity
  8
1
  6
DOTTED
 62
           1
100
AcDbLine
 10
360.0075370422
 20
13671.36107002427
 11
360.0075370422
 21
13578.621864020521
  0
LINE
  5
16E
100
AcDbEntity
  8
1
  6
CONTINUOUS
 62
           3
100
AcDbLine
 10
357.0075370422
 20
13576.56745951771
 11
360.0075370422
 21
13578.621864020521
  0
LINE
  5
16D
100
AcDbEntity
  8
1
  6
CONTINUOUS
 62
           3
100
AcDbLine
 10
357.0075370422
 20
13576.56745951771
 11
357.0075370422
 21
13405.491467022401
  0
LINE
  5
16C
100
AcDbEntity
  8
1
  6
CONTINUOUS
 62
           3
100
AcDbLine
 10
360.0075370422
 20
13578.621864020521
 11
360.0075370422
 21
13408.967685276881
  0
LINE
  5
16B
100
AcDbEntity
  8
1
  6
CONTINUOUS
 62
           3
100
AcDbLine
 10
360.0075370422
 20
13578.621864020521
 11
381.357377134575
 21
13593.24226656051
  0
LINE
  5
16A
100
AcDbEntity
  8
1
  6
DOTTED
 62
           1
100
AcDbLine
 10
414.0075370422
 20
13578.621864020521
 11
414.0075370422
 21
13671.36107002427
  0
LINE
  5
169
100
AcDbEntity
  8
1
  6
CONTINUOUS
 62
           3
100
AcDbLine
 10
414.0075370422
 20
13578.621864020521
 11
417.0075370422
 21
13576.56745951771
  0
LINE
  5
168
100
AcDbEntity
  8
1
  6
DOTTED
 62
           1
100
AcDbLine
 10
417.0075370422
 20
13576.56745951771
 11
417.0075370422
 21
13673.41547452707
  0
LINE
  5
167
100
AcDbEntity
  8
1
  6
CONTINUOUS
 62
           3
100
AcDbLine
 10
417.0075370422
 20
13576.56745951771
 11
431.357377134575
 21
13566.74066748427
  0
LINE
  5
166
100
AcDbEntity
  8
1
  6
CONTINUOUS
 62
           3
100
AcDbLine
 10
414.0075370422
 20
13671.36107002427
 11
414.0075370422
 21
13717.491467022401
  0
LINE
  5
165
100
AcDbEntity
  8
1
  6
CONTINUOUS
 62
           3
100
AcDbLine
 10
417.0075370422
 20
13673.41547452707
 11
417.0075370422
 21
13717.491467022401
  0
LINE
  5
164
100
AcDbEntity
  8
1
  6
DOT_CENTER
 62
           1
100
AcDbLine
 10
331.304320953132
 20
13624.991467022401
 11
441.278435083681
 21
13624.991467022401
  0
LINE
  5
163
100
AcDbEntity
  8
1
  6
DOT_CENTER
 62
           1
100
AcDbLine
 10
499.196746915672
 20
13923.97602581389
 11
964.11676508777
 21
13923.97602581389
  0
LINE
  5
162
100
AcDbEntity
  8
1
  6
DOT_CENTER
 62
           1
100
AcDbLine
 10
1078.892418400481
 20
13398.64300266895
 11
1078.892418400481
 21
13730.87389392966
  0
LINE
  5
161
100
AcDbEntity
  8
1
  6
CONTINUOUS
 62
           3
100
AcDbLine
 10
1034.542578308106
 20
13566.74066748427
 11
1048.892418400481
 21
13576.56745951771
  0
LINE
  5
160
100
AcDbEntity
  8
1
  6
CONTINUOUS
 62
           3
100
AcDbLine
 10
1123.242258492857
 20
13683.24226656051
 11
1108.892418400481
 21
13673.41547452707
  0
LINE
  5
15F
100
AcDbEntity
  8
1
  6
CONTINUOUS
 62
           3
100
AcDbLine
 10
1048.892418400481
 20
13673.41547452707
 11
1034.542578308105
 21
13683.24226656051
  0
LINE
  5
15E
100
AcDbEntity
  8
1
  6
CONTINUOUS
 62
           3
100
AcDbLine
 10
1110.64161886236
 20
13630.64162693003
 11
1137.143217938603
 21
13669.341307114781
  0
LINE
  5
15D
100
AcDbEntity
  8
1
  6
CONTINUOUS
 62
           3
100
AcDbLine
 10
1137.143217938604
 20
13580.64162693003
 11
1110.641618862359
 21
13619.341307114781
  0
LINE
  5
15C
100
AcDbEntity
  8
1
  6
CONTINUOUS
 62
           3
100
AcDbLine
 10
1108.892418400481
 20
13576.56745951771
 11
1123.242258492857
 21
13566.74066748427
  0
LINE
  5
15B
100
AcDbEntity
  8
1
  6
CONTINUOUS
 62
           3
100
AcDbLine
 10
1047.143217938603
 20
13619.341307114781
 11
1020.641618862359
 21
13580.64162693003
  0
LINE
  5
15A
100
AcDbEntity
  8
1
  6
CONTINUOUS
 62
           3
100
AcDbLine
 10
1020.641618862359
 20
13669.341307114781
 11
1047.143217938604
 21
13630.64162693003
  0
LINE
  5
159
100
AcDbEntity
  8
1
  6
CONTINUOUS
 62
           3
100
AcDbLine
 10
1025.492418400481
 20
13677.591467022399
 11
1032.292418400481
 21
13677.591467022399
  0
LINE
  5
158
100
AcDbEntity
  8
1
  6
CONTINUOUS
 62
           3
100
AcDbLine
 10
1032.292418400481
 20
13672.3914670224
 11
1025.492418400481
 21
13672.3914670224
  0
LINE
  5
157
100
AcDbEntity
  8
1
  6
DOT_CENTER
 62
           1
100
AcDbLine
 10
1020.068123027366
 20
13674.991467022401
 11
1037.437710061349
 21
13674.991467022401
  0
LINE
  5
156
100
AcDbEntity
  8
1
  6
DOT_CENTER
 62
           1
100
AcDbLine
 10
1032.292418400481
 20
13670.200703603001
 11
1032.292418400481
 21
13679.88556425225
  0
LINE
  5
155
100
AcDbEntity
  8
1
  6
DOT_CENTER
 62
           1
100
AcDbLine
 10
1025.492418400481
 20
13670.46387916411
 11
1025.492418400481
 21
13679.83292914002
  0
LINE
  5
154
100
AcDbEntity
  8
1
  6
DOT_CENTER
 62
           1
100
AcDbLine
 10
1028.892418400481
 20
13668.184157215241
 11
1028.892418400481
 21
13681.225296639161
  0
LINE
  5
153
100
AcDbEntity
  8
1
  6
DOT_CENTER
 62
           1
100
AcDbLine
 10
1124.0789234742
 20
13670.17797209612
 11
1133.300401595253
 21
13679.399450217161
  0
LINE
  5
152
100
AcDbEntity
  8
1
  6
DOT_CENTER
 62
           1
100
AcDbLine
 10
1123.286767267439
 20
13674.19414200143
 11
1129.91168603868
 21
13680.81906077267
  0
LINE
  5
151
100
AcDbEntity
  8
1
  6
DOT_CENTER
 62
           1
100
AcDbLine
 10
1127.909000155596
 20
13669.19972266544
 11
1134.757230795528
 21
13676.04795330538
  0
LINE
  5
150
100
AcDbEntity
  8
1
  6
DOT_CENTER
 62
           1
100
AcDbLine
 10
1122.652699302959
 20
13681.23118611993
 11
1134.934852081098
 21
13668.949033341771
  0
LINE
  5
14F
100
AcDbEntity
  8
1
  6
CONTINUOUS
 62
           3
100
AcDbLine
 10
1129.458103825431
 20
13670.74882633527
 11
1124.649777713362
 21
13675.55715244734
  0
LINE
  5
14E
100
AcDbEntity
  8
1
  6
CONTINUOUS
 62
           3
100
AcDbLine
 10
1128.326732975532
 20
13679.23410770951
 11
1133.1350590876
 21
13674.42578159744
  0
LINE
  5
14D
100
AcDbEntity
  8
1
  6
CONTINUOUS
 62
           3
100
AcDbLine
 10
1115.826732975532
 20
13666.73410770951
 11
1120.6350590876
 21
13661.92578159744
  0
LINE
  5
14C
100
AcDbEntity
  8
1
  6
CONTINUOUS
 62
           3
100
AcDbLine
 10
1116.958103825431
 20
13658.24882633527
 11
1112.149777713362
 21
13663.05715244734
  0
LINE
  5
14B
100
AcDbEntity
  8
1
  6
DOT_CENTER
 62
           1
100
AcDbLine
 10
1110.152699302959
 20
13668.73118611993
 11
1122.434852081098
 21
13656.449033341771
  0
LINE
  5
14A
100
AcDbEntity
  8
1
  6
DOT_CENTER
 62
           1
100
AcDbLine
 10
1115.409000155596
 20
13656.69972266544
 11
1122.257230795528
 21
13663.54795330538
  0
LINE
  5
149
100
AcDbEntity
  8
1
  6
DOT_CENTER
 62
           1
100
AcDbLine
 10
1110.786767267439
 20
13661.69414200143
 11
1117.41168603868
 21
13668.31906077267
  0
LINE
  5
148
100
AcDbEntity
  8
1
  6
DOT_CENTER
 62
           1
100
AcDbLine
 10
1111.5789234742
 20
13657.67797209612
 11
1120.800401595253
 21
13666.899450217161
  0
LINE
  5
147
100
AcDbEntity
  8
1
  6
DOT_CENTER
 62
           1
100
AcDbLine
 10
1041.392418400481
 20
13655.684157215241
 11
1041.392418400481
 21
13668.725296639161
  0
LINE
  5
146
100
AcDbEntity
  8
1
  6
DOT_CENTER
 62
           1
100
AcDbLine
 10
1037.992418400481
 20
13657.96387916411
 11
1037.992418400481
 21
13667.33292914002
  0
LINE
  5
145
100
AcDbEntity
  8
1
  6
DOT_CENTER
 62
           1
100
AcDbLine
 10
1044.792418400481
 20
13657.700703603001
 11
1044.792418400481
 21
13667.38556425225
  0
LINE
  5
144
100
AcDbEntity
  8
1
  6
DOT_CENTER
 62
           1
100
AcDbLine
 10
1032.568123027366
 20
13662.491467022401
 11
1049.937710061349
 21
13662.491467022401
  0
LINE
  5
143
100
AcDbEntity
  8
1
  6
CONTINUOUS
 62
           3
100
AcDbLine
 10
1044.792418400481
 20
13659.8914670224
 11
1037.992418400481
 21
13659.8914670224
  0
LINE
  5
142
100
AcDbEntity
  8
1
  6
CONTINUOUS
 62
           3
100
AcDbLine
 10
1037.992418400481
 20
13665.091467022399
 11
1044.792418400481
 21
13665.091467022399
  0
LINE
  5
141
100
AcDbEntity
  8
1
  6
DOT_CENTER
 62
           1
100
AcDbLine
 10
1122.085108593321
 20
13574.991467022401
 11
1135.12624801724
 21
13574.991467022401
  0
LINE
  5
140
100
AcDbEntity
  8
1
  6
DOT_CENTER
 62
           1
100
AcDbLine
 10
1124.3648305422
 20
13578.3914670224
 11
1133.73388051811
 21
13578.3914670224
  0
LINE
  5
13F
100
AcDbEntity
  8
1
  6
DOT_CENTER
 62
           1
100
AcDbLine
 10
1124.10165498108
 20
13571.591467022399
 11
1133.786515630331
 21
13571.591467022399
  0
LINE
  5
13E
100
AcDbEntity
  8
1
  6
DOT_CENTER
 62
           1
100
AcDbLine
 10
1128.892418400481
 20
13583.81576239551
 11
1128.892418400482
 21
13566.446175361531
  0
LINE
  5
13D
100
AcDbEntity
  8
1
  6
CONTINUOUS
 62
           3
100
AcDbLine
 10
1126.292418400481
 20
13571.591467022399
 11
1126.292418400481
 21
13578.3914670224
  0
LINE
  5
13C
100
AcDbEntity
  8
1
  6
CONTINUOUS
 62
           3
100
AcDbLine
 10
1131.492418400481
 20
13578.3914670224
 11
1131.492418400482
 21
13571.591467022399
  0
LINE
  5
13B
100
AcDbEntity
  8
1
  6
CONTINUOUS
 62
           3
100
AcDbLine
 10
1118.992418400481
 20
13590.8914670224
 11
1118.992418400482
 21
13584.091467022399
  0
LINE
  5
13A
100
AcDbEntity
  8
1
  6
CONTINUOUS
 62
           3
100
AcDbLine
 10
1113.792418400482
 20
13584.091467022399
 11
1113.792418400481
 21
13590.8914670224
  0
LINE
  5
139
100
AcDbEntity
  8
1
  6
DOT_CENTER
 62
           1
100
AcDbLine
 10
1116.392418400481
 20
13596.31576239551
 11
1116.392418400482
 21
13578.946175361531
  0
LINE
  5
138
100
AcDbEntity
  8
1
  6
DOT_CENTER
 62
           1
100
AcDbLine
 10
1111.60165498108
 20
13584.091467022399
 11
1121.286515630331
 21
13584.091467022399
  0
LINE
  5
137
100
AcDbEntity
  8
1
  6
DOT_CENTER
 62
           1
100
AcDbLine
 10
1111.8648305422
 20
13590.8914670224
 11
1121.23388051811
 21
13590.8914670224
  0
LINE
  5
136
100
AcDbEntity
  8
1
  6
DOT_CENTER
 62
           1
100
AcDbLine
 10
1109.585108593321
 20
13587.491467022401
 11
1122.62624801724
 21
13587.491467022401
  0
LINE
  5
135
100
AcDbEntity
  8
1
  6
DOT_CENTER
 62
           1
100
AcDbLine
 10
1033.894547558826
 20
13587.491467022401
 11
1050.043562905934
 21
13587.491467022401
  0
LINE
  5
134
100
AcDbEntity
  8
1
  6
DOT_CENTER
 62
           1
100
AcDbLine
 10
1020.961044117115
 20
13574.991467022401
 11
1037.252971104463
 21
13574.991467022401
  0
LINE
  5
133
100
AcDbEntity
  8
1
  6
DOT_CENTER
 62
           1
100
AcDbLine
 10
1028.892418400481
 20
13567.37904485778
 11
1028.892418400481
 21
13582.24185544274
  0
LINE
  5
132
100
AcDbEntity
  8
1
  6
DOT_CENTER
 62
           1
100
AcDbLine
 10
1041.392418400481
 20
13578.38324115626
 11
1041.392418400481
 21
13595.961372905769
  0
LINE
  5
131
100
AcDbEntity
  8
1
  6
DOT_CENTER
 62
           1
100
AcDbLine
 10
1128.892418400481
 20
13666.003245053491
 11
1128.892418400481
 21
13682.386860999881
  0
LINE
  5
130
100
AcDbEntity
  8
1
  6
DOT_CENTER
 62
           1
100
AcDbLine
 10
1119.979862471314
 20
13674.991467022401
 11
1137.08761613911
 21
13674.991467022401
  0
LINE
  5
12F
100
AcDbEntity
  8
1
  6
DOT_CENTER
 62
           1
100
AcDbLine
 10
1116.392418400481
 20
13653.51186935953
 11
1116.392418400481
 21
13671.16272631838
  0
LINE
  5
12E
100
AcDbEntity
  8
1
  6
CONTINUOUS
 62
           1
100
AcDbLine
 10
1034.892418400481
 20
13674.991467022401
 11
1034.892418400481
 21
13682.861467022391
  0
LINE
  5
12D
100
AcDbEntity
  8
1
  6
CONTINUOUS
 62
           1
100
AcDbLine
 10
1022.892418400481
 20
13674.991467022401
 11
1022.892418400481
 21
13682.861467022391
  0
LINE
  5
12C
100
AcDbEntity
  8
1
  6
CONTINUOUS
 62
           3
100
AcDbLine
 10
1048.892418400481
 20
13405.491467022401
 11
1055.368636654959
 21
13405.491467022401
  0
LINE
  5
12B
100
AcDbEntity
  8
1
  6
CONTINUOUS
 62
           3
100
AcDbLine
 10
1048.892418400481
 20
13717.491467022401
 11
1048.892418400481
 21
13405.491467022401
  0
LINE
  5
12A
100
AcDbEntity
  8
1
  6
CONTINUOUS
 62
           3
100
AcDbLine
 10
941.063892142251
 20
13674.991467022401
 11
939.063892142251
 21
13674.991467022401
  0
LINE
  5
129
100
AcDbEntity
  8
1
  6
DOTTED
 62
           1
100
AcDbLine
 10
941.063892142251
 20
13574.991467022401
 11
948.063892142251
 21
13574.991467022401
  0
LINE
  5
128
100
AcDbEntity
  8
1
  6
CONTINUOUS
 62
           3
100
AcDbLine
 10
941.063892142251
 20
13574.991467022401
 11
941.063892142251
 21
13457.491467022401
  0
LINE
  5
127
100
AcDbEntity
  8
1
  6
CONTINUOUS
 62
           3
100
AcDbLine
 10
941.063892142251
 20
13674.991467022401
 11
941.063892142251
 21
13574.991467022401
  0
LINE
  5
126
100
AcDbEntity
  8
1
  6
CONTINUOUS
 62
           3
100
AcDbLine
 10
431.357377134577
 20
13683.242266560521
 11
392.657696949825
 21
13656.74066748427
  0
LINE
  5
125
100
AcDbEntity
  8
1
  6
DOT_CENTER
 62
           1
100
AcDbLine
 10
914.76000470221
 20
13728.28999918539
 11
898.171792814253
 21
13948.39235264998
  0
LINE
  5
124
100
AcDbEntity
  8
1
  6
DOT_CENTER
 62
           1
100
AcDbLine
 10
927.404050580846
 20
13948.39235264998
 11
910.815838692889
 21
13728.28999918539
  0
LINE
  5
123
100
AcDbEntity
  8
1
  6
PHANTOM
 62
           1
100
AcDbLine
 10
914.594999789363
 20
13924.802706254441
 11
912.787921697549
 21
13900.825309318039
  0
LINE
  5
122
100
AcDbEntity
  8
1
  6
PHANTOM
 62
           1
100
AcDbLine
 10
936.532784495138
 20
13923.149345373349
 11
936.532784495138
 21
13923.149345373349
  0
LINE
  5
121
100
AcDbEntity
  8
1
  6
PHANTOM
 62
           1
100
AcDbLine
 10
887.011951252848
 20
13918.97602581389
 11
882.511951252848
 21
13918.97602581389
  0
LINE
  5
120
100
AcDbEntity
  8
1
  6
PHANTOM
 62
           1
100
AcDbLine
 10
882.511951252848
 20
13918.97602581389
 11
882.511951252848
 21
13917.97602581389
  0
LINE
  5
11F
100
AcDbEntity
  8
1
  6
PHANTOM
 62
           1
100
AcDbLine
 10
887.011951252848
 20
13929.97602581389
 11
837.511951252848
 21
13929.97602581389
  0
LINE
  5
11E
100
AcDbEntity
  8
1
  6
PHANTOM
 62
           1
100
AcDbLine
 10
852.511951252849
 20
13928.97602581389
 11
882.511951252848
 21
13928.97602581389
  0
LINE
  5
11D
100
AcDbEntity
  8
1
  6
PHANTOM
 62
           1
100
AcDbLine
 10
882.511951252848
 20
13929.97602581389
 11
882.511951252848
 21
13928.97602581389
  0
LINE
  5
11C
100
AcDbEntity
  8
1
  6
PHANTOM
 62
           1
100
AcDbLine
 10
882.511951252848
 20
13918.97602581389
 11
852.511951252848
 21
13918.97602581389
  0
LINE
  5
11B
100
AcDbEntity
  8
1
  6
PHANTOM
 62
           1
100
AcDbLine
 10
837.511951252849
 20
13964.97602581389
 11
885.01195125285
 21
13964.97602581389
  0
LINE
  5
11A
100
AcDbEntity
  8
1
  6
PHANTOM
 62
           1
100
AcDbLine
 10
887.011951252849
 20
13962.97602581389
 11
887.011951252848
 21
13929.97602581389
  0
LINE
  5
119
100
AcDbEntity
  8
1
  6
PHANTOM
 62
           1
100
AcDbLine
 10
837.511951252849
 20
13917.97602581389
 11
887.011951252848
 21
13917.97602581389
  0
LINE
  5
118
100
AcDbEntity
  8
1
  6
PHANTOM
 62
           1
100
AcDbLine
 10
887.011951252848
 20
13917.97602581389
 11
887.011951252848
 21
13884.97602581389
  0
LINE
  5
117
100
AcDbEntity
  8
1
  6
PHANTOM
 62
           1
100
AcDbLine
 10
885.011951252849
 20
13882.97602581389
 11
837.511951252849
 21
13882.97602581389
  0
LINE
  5
116
100
AcDbEntity
  8
1
  6
PHANTOM
 62
           1
100
AcDbLine
 10
889.011951252848
 20
13933.97602581389
 11
889.011951252848
 21
13930.97602581389
  0
LINE
  5
115
100
AcDbEntity
  8
1
  6
PHANTOM
 62
           1
100
AcDbLine
 10
889.011951252849
 20
13916.97602581389
 11
889.011951252849
 21
13913.97602581389
  0
LINE
  5
114
100
AcDbEntity
  8
1
  6
PHANTOM
 62
           1
100
AcDbLine
 10
882.511951252848
 20
13928.97602581389
 11
887.011951252848
 21
13928.97602581389
  0
LINE
  5
113
100
AcDbEntity
  8
1
  6
PHANTOM
 62
           1
100
AcDbLine
 10
888.011951252848
 20
13927.97602581389
 11
888.011951252848
 21
13919.97602581389
  0
LINE
  5
112
100
AcDbEntity
  8
1
  6
PHANTOM
 62
           1
100
AcDbLine
 10
901.819029344662
 20
13753.630099919639
 11
889.043058899961
 21
13923.149345373349
  0
LINE
  5
111
100
AcDbEntity
  8
1
  6
PHANTOM
 62
           1
100
AcDbLine
 10
923.756814050437
 20
13755.283460800711
 11
912.787921697549
 21
13900.825309318039
  0
LINE
  5
110
100
AcDbEntity
  8
1
  6
PHANTOM
 62
           1
100
AcDbLine
 10
933.063892142251
 20
13934.97602581389
 11
925.563892142251
 21
13934.97602581389
  0
LINE
  5
10F
100
AcDbEntity
  8
1
  6
PHANTOM
 62
           1
100
AcDbLine
 10
940.063892142251
 20
13898.97602581389
 11
948.063892142251
 21
13898.97602581389
  0
LINE
  5
10E
100
AcDbEntity
  8
1
  6
PHANTOM
 62
           1
100
AcDbLine
 10
948.063892142251
 20
13948.97602581389
 11
940.063892142251
 21
13948.97602581389
  0
LINE
  5
10D
100
AcDbEntity
  8
1
  6
PHANTOM
 62
           1
100
AcDbLine
 10
938.063892142251
 20
13946.97602581389
 11
938.063892142251
 21
13900.97602581389
  0
LINE
  5
10C
100
AcDbEntity
  8
1
  6
DOT_CENTER
 62
           1
100
AcDbLine
 10
936.171130328699
 20
13754.45678036018
 11
889.720667555156
 21
13754.45678036018
  0
LINE
  5
10B
100
AcDbEntity
  8
1
  6
PHANTOM
 62
           1
100
AcDbLine
 10
933.063892142251
 20
13912.97602581389
 11
925.563892142251
 21
13912.97602581389
  0
LINE
  5
10A
100
AcDbEntity
  8
1
  6
PHANTOM
 62
           1
100
AcDbLine
 10
890.011951252848
 20
13934.97602581389
 11
900.011951252848
 21
13934.97602581389
  0
LINE
  5
109
100
AcDbEntity
  8
1
  6
PHANTOM
 62
           1
100
AcDbLine
 10
890.011951252848
 20
13912.97602581389
 11
900.011951252848
 21
13912.97602581389
  0
LINE
  5
108
100
AcDbEntity
  8
1
  6
PHANTOM
 62
           1
100
AcDbLine
 10
912.787921697549
 20
13900.825309318039
 11
901.819029344662
 21
13755.283460800711
  0
LINE
  5
107
100
AcDbEntity
  8
1
  6
PHANTOM
 62
           1
100
AcDbLine
 10
912.787921697549
 20
13900.825309318039
 11
910.980843605735
 21
13924.802706254421
  0
LINE
  5
106
100
AcDbEntity
  8
1
  6
PHANTOM
 62
           1
100
AcDbLine
 10
935.709013643416
 20
13912.21905919157
 11
923.756814050437
 21
13753.630099919639
  0
LINE
  5
105
100
AcDbEntity
  8
1
  6
PHANTOM
 62
           1
100
AcDbLine
 10
936.532784495138
 20
13923.149345373349
 11
935.709013643416
 21
13912.21905919157
  0
LINE
  5
104
100
AcDbEntity
  8
1
  6
PHANTOM
 62
           1
100
AcDbLine
 10
852.511951252848
 20
13929.97602581389
 11
852.511951252849
 21
13928.97602581389
  0
LINE
  5
103
100
AcDbEntity
  8
1
  6
PHANTOM
 62
           1
100
AcDbLine
 10
840.511951252848
 20
13929.97602581389
 11
840.511951252848
 21
13917.97602581389
  0
LINE
  5
102
100
AcDbEntity
  8
1
  6
PHANTOM
 62
           1
100
AcDbLine
 10
838.511951252848
 20
13929.97602581389
 11
838.511951252848
 21
13962.97602581389
  0
LINE
  5
101
100
AcDbEntity
  8
1
  6
PHANTOM
 62
           1
100
AcDbLine
 10
838.511951252848
 20
13884.97602581389
 11
838.511951252848
 21
13917.97602581389
  0
LINE
  5
100
100
AcDbEntity
  8
1
  6
PHANTOM
 62
           1
100
AcDbLine
 10
850.011951252848
 20
13928.97602581389
 11
852.511951252849
 21
13928.97602581389
  0
LINE
  5
FF
100
AcDbEntity
  8
1
  6
PHANTOM
 62
           1
100
AcDbLine
 10
852.511951252848
 20
13918.97602581389
 11
852.511951252848
 21
13917.97602581389
  0
LINE
  5
FE
100
AcDbEntity
  8
1
  6
PHANTOM
 62
           1
100
AcDbLine
 10
852.511951252848
 20
13918.97602581389
 11
850.011951252848
 21
13918.97602581389
  0
LINE
  5
FD
100
AcDbEntity
  8
1
  6
PHANTOM
 62
           1
100
AcDbLine
 10
850.011951252848
 20
13918.97602581389
 11
850.011951252848
 21
13928.97602581389
  0
LINE
  5
FC
100
AcDbEntity
  8
1
  6
PHANTOM
 62
           1
100
AcDbLine
 10
837.511951252848
 20
13983.97602581389
 11
837.511951252848
 21
13863.97602581389
  0
LINE
  5
FB
100
AcDbEntity
  8
1
  6
PHANTOM
 62
           1
100
AcDbLine
 10
835.511951252848
 20
13983.97602581389
 11
837.511951252848
 21
13983.97602581389
  0
LINE
  5
FA
100
AcDbEntity
  8
1
  6
PHANTOM
 62
           1
100
AcDbLine
 10
835.511951252848
 20
13863.97602581389
 11
835.511951252848
 21
13983.97602581389
  0
LINE
  5
F9
100
AcDbEntity
  8
1
  6
DOT_CENTER
 62
           1
100
AcDbLine
 10
867.511951252848
 20
13982.48850874631
 11
867.511951252848
 21
13867.75258156969
  0
LINE
  5
F8
100
AcDbEntity
  8
1
  6
PHANTOM
 62
           1
100
AcDbLine
 10
837.511951252848
 20
13863.97602581389
 11
835.511951252848
 21
13863.97602581389
  0
LINE
  5
F7
100
AcDbEntity
  8
1
  6
CONTINUOUS
 62
           3
100
AcDbLine
 10
553.063892142251
 20
13644.491467022401
 11
525.063892142251
 21
13644.491467022401
  0
LINE
  5
F6
100
AcDbEntity
  8
1
  6
CONTINUOUS
 62
           3
100
AcDbLine
 10
553.063892142251
 20
13605.491467022401
 11
525.063892142251
 21
13605.491467022401
  0
LINE
  5
F5
100
AcDbEntity
  8
1
  6
DOT_CENTER
 62
           1
100
AcDbLine
 10
553.063892142251
 20
13654.716082795851
 11
553.063892142251
 21
13593.414864178911
  0
LINE
  5
F4
100
AcDbEntity
  8
1
  6
CONTINUOUS
 62
           3
100
AcDbLine
 10
561.666217409294
 20
13642.491467022401
 11
570.563892142251
 21
13642.491467022401
  0
LINE
  5
F3
100
AcDbEntity
  8
1
  6
CONTINUOUS
 62
           3
100
AcDbLine
 10
572.563892142251
 20
13640.491467022401
 11
572.563892142251
 21
13609.491467022401
  0
LINE
  5
F2
100
AcDbEntity
  8
1
  6
CONTINUOUS
 62
           3
100
AcDbLine
 10
570.563892142251
 20
13607.491467022401
 11
561.666217409294
 21
13607.491467022401
  0
LINE
  5
F1
100
AcDbEntity
  8
1
  6
CONTINUOUS
 62
           3
100
AcDbLine
 10
574.563892142251
 20
13632.991467022401
 11
596.063892142251
 21
13632.991467022401
  0
LINE
  5
F0
100
AcDbEntity
  8
1
  6
CONTINUOUS
 62
           3
100
AcDbLine
 10
596.563892142251
 20
13632.491467022401
 11
596.563892142251
 21
13617.491467022401
  0
LINE
  5
EF
100
AcDbEntity
  8
1
  6
CONTINUOUS
 62
           3
100
AcDbLine
 10
766.563892142251
 20
13646.991467022401
 11
766.563892142251
 21
13602.991467022401
  0
LINE
  5
EE
100
AcDbEntity
  8
1
  6
CONTINUOUS
 62
           3
100
AcDbLine
 10
766.063892142251
 20
13602.491467022401
 11
764.313892142251
 21
13602.491467022401
  0
LINE
  5
ED
100
AcDbEntity
  8
1
  6
CONTINUOUS
 62
           3
100
AcDbLine
 10
574.563892142251
 20
13602.991467022401
 11
574.563892142251
 21
13614.491467022401
  0
LINE
  5
EC
100
AcDbEntity
  8
1
  6
CONTINUOUS
 62
           3
100
AcDbLine
 10
585.563892142251
 20
13639.991467022401
 11
755.563892142251
 21
13639.991467022401
  0
LINE
  5
EB
100
AcDbEntity
  8
1
  6
CONTINUOUS
 62
           3
100
AcDbLine
 10
755.563892142251
 20
13609.991467022401
 11
615.563892142251
 21
13609.991467022401
  0
LINE
  5
EA
100
AcDbEntity
  8
1
  6
CONTINUOUS
 62
           3
100
AcDbLine
 10
575.063892142251
 20
13634.991467022401
 11
596.563892142251
 21
13634.991467022401
  0
LINE
  5
E9
100
AcDbEntity
  8
1
  6
CONTINUOUS
 62
           3
100
AcDbLine
 10
598.563892142251
 20
13632.991467022401
 11
598.563892142251
 21
13616.991467022401
  0
LINE
  5
E8
100
AcDbEntity
  8
1
  6
CONTINUOUS
 62
           3
100
AcDbLine
 10
574.563892142251
 20
13635.491467022401
 11
574.563892142251
 21
13646.991467022401
  0
LINE
  5
E7
100
AcDbEntity
  8
1
  6
DOT_CENTER
 62
           1
100
AcDbLine
 10
585.563892142251
 20
13658.28444961843
 11
585.563892142251
 21
13593.424286174841
  0
LINE
  5
E6
100
AcDbEntity
  8
1
  6
CONTINUOUS
 62
           3
100
AcDbLine
 10
610.563892142251
 20
13635.491467022401
 11
641.563892142251
 21
13635.491467022401
  0
LINE
  5
E5
100
AcDbEntity
  8
1
  6
CONTINUOUS
 62
           3
100
AcDbLine
 10
644.563892142251
 20
13632.491467022401
 11
644.563892142251
 21
13617.491467022401
  0
LINE
  5
E4
100
AcDbEntity
  8
1
  6
CONTINUOUS
 62
           3
100
AcDbLine
 10
607.563892142251
 20
13617.491467022401
 11
607.563892142251
 21
13632.491467022401
  0
LINE
  5
E3
100
AcDbEntity
  8
1
  6
CONTINUOUS
 62
           3
100
AcDbLine
 10
657.563892142251
 20
13635.491467022401
 11
688.563892142251
 21
13635.491467022401
  0
LINE
  5
E2
100
AcDbEntity
  8
1
  6
CONTINUOUS
 62
           3
100
AcDbLine
 10
691.563892142251
 20
13632.491467022401
 11
691.563892142251
 21
13617.491467022401
  0
LINE
  5
E1
100
AcDbEntity
  8
1
  6
CONTINUOUS
 62
           3
100
AcDbLine
 10
688.563892142251
 20
13614.491467022401
 11
657.563892142251
 21
13614.491467022401
  0
LINE
  5
E0
100
AcDbEntity
  8
1
  6
CONTINUOUS
 62
           3
100
AcDbLine
 10
654.563892142251
 20
13617.491467022401
 11
654.563892142251
 21
13632.491467022401
  0
LINE
  5
DF
100
AcDbEntity
  8
1
  6
CONTINUOUS
 62
           3
100
AcDbLine
 10
704.563892142251
 20
13635.491467022401
 11
735.563892142251
 21
13635.491467022401
  0
LINE
  5
DE
100
AcDbEntity
  8
1
  6
CONTINUOUS
 62
           3
100
AcDbLine
 10
738.563892142251
 20
13632.491467022401
 11
738.563892142251
 21
13617.491467022401
  0
LINE
  5
DD
100
AcDbEntity
  8
1
  6
CONTINUOUS
 62
           3
100
AcDbLine
 10
735.563892142251
 20
13614.491467022401
 11
704.563892142251
 21
13614.491467022401
  0
LINE
  5
DC
100
AcDbEntity
  8
1
  6
CONTINUOUS
 62
           3
100
AcDbLine
 10
701.563892142251
 20
13617.491467022401
 11
701.563892142251
 21
13632.491467022401
  0
LINE
  5
DB
100
AcDbEntity
  8
1
  6
CONTINUOUS
 62
           3
100
AcDbLine
 10
576.813892142251
 20
13634.991467022401
 11
576.813892142251
 21
13632.991467022401
  0
LINE
  5
DA
100
AcDbEntity
  8
1
  6
CONTINUOUS
 62
           3
100
AcDbLine
 10
594.313892142251
 20
13634.991467022401
 11
594.313892142251
 21
13632.991467022401
  0
LINE
  5
D9
100
AcDbEntity
  8
1
  6
CONTINUOUS
 62
           3
100
AcDbLine
 10
576.813892142251
 20
13616.991467022401
 11
576.813892142251
 21
13614.991467022401
  0
LINE
  5
D8
100
AcDbEntity
  8
1
  6
CONTINUOUS
 62
           3
100
AcDbLine
 10
596.063892142251
 20
13616.991467022401
 11
574.563892142251
 21
13616.991467022401
  0
LINE
  5
D7
100
AcDbEntity
  8
1
  6
CONTINUOUS
 62
           3
100
AcDbLine
 10
596.563892142251
 20
13614.991467022401
 11
575.063892142251
 21
13614.991467022401
  0
LINE
  5
D6
100
AcDbEntity
  8
1
  6
CONTINUOUS
 62
           3
100
AcDbLine
 10
594.313892142251
 20
13616.991467022401
 11
594.313892142251
 21
13614.991467022401
  0
LINE
  5
D5
100
AcDbEntity
  8
1
  6
CONTINUOUS
 62
           3
100
AcDbLine
 10
738.563892142251
 20
13575.491467022401
 11
738.563892142251
 21
13599.991467022401
  0
LINE
  5
D4
100
AcDbEntity
  8
1
  6
CONTINUOUS
 62
           3
100
AcDbLine
 10
765.563892142251
 20
13599.991467022401
 11
764.313892142251
 21
13599.991467022401
  0
LINE
  5
D3
100
AcDbEntity
  8
1
  6
CONTINUOUS
 62
           3
100
AcDbLine
 10
738.563892142251
 20
13650.491467022401
 11
738.563892142251
 21
13674.491467022401
  0
LINE
  5
D2
100
AcDbEntity
  8
1
  6
CONTINUOUS
 62
           3
100
AcDbLine
 10
777.063892142251
 20
13663.991467022401
 11
804.063892142251
 21
13663.991467022401
  0
LINE
  5
D1
100
AcDbEntity
  8
1
  6
CONTINUOUS
 62
           3
100
AcDbLine
 10
777.063892142251
 20
13656.991467022401
 11
804.063892142251
 21
13656.991467022401
  0
LINE
  5
D0
100
AcDbEntity
  8
1
  6
CONTINUOUS
 62
           3
100
AcDbLine
 10
804.063892142251
 20
13592.991467022401
 11
777.063892142251
 21
13592.991467022401
  0
LINE
  5
CF
100
AcDbEntity
  8
1
  6
CONTINUOUS
 62
           3
100
AcDbLine
 10
804.063892142251
 20
13585.991467022401
 11
780.563892142251
 21
13585.991467022401
  0
LINE
  5
CE
100
AcDbEntity
  8
1
  6
DOT_CENTER
 62
           1
100
AcDbLine
 10
755.563892142251
 20
13683.863603373469
 11
755.563892142251
 21
13565.383603373461
  0
LINE
  5
CD
100
AcDbEntity
  8
1
  6
CONTINUOUS
 62
           3
100
AcDbLine
 10
575.063892142251
 20
13647.491467022401
 11
746.813892142251
 21
13647.491467022401
  0
LINE
  5
CC
100
AcDbEntity
  8
1
  6
CONTINUOUS
 62
           3
100
AcDbLine
 10
739.063892142251
 20
13649.991467022401
 11
746.813892142251
 21
13649.991467022401
  0
LINE
  5
CB
100
AcDbEntity
  8
1
  6
CONTINUOUS
 62
           3
100
AcDbLine
 10
746.813892142251
 20
13649.991467022401
 11
746.813892142251
 21
13647.491467022401
  0
LINE
  5
CA
100
AcDbEntity
  8
1
  6
CONTINUOUS
 62
           3
100
AcDbLine
 10
746.813892142251
 20
13647.491467022401
 11
764.313892142251
 21
13647.491467022401
  0
LINE
  5
C9
100
AcDbEntity
  8
1
  6
CONTINUOUS
 62
           3
100
AcDbLine
 10
746.813892142251
 20
13649.991467022401
 11
764.313892142251
 21
13649.991467022401
  0
LINE
  5
C8
100
AcDbEntity
  8
1
  6
CONTINUOUS
 62
           3
100
AcDbLine
 10
764.313892142251
 20
13649.991467022401
 11
764.313892142251
 21
13647.491467022401
  0
LINE
  5
C7
100
AcDbEntity
  8
1
  6
CONTINUOUS
 62
           3
100
AcDbLine
 10
764.313892142251
 20
13647.491467022401
 11
766.063892142251
 21
13647.491467022401
  0
LINE
  5
C6
100
AcDbEntity
  8
1
  6
CONTINUOUS
 62
           3
100
AcDbLine
 10
764.313892142251
 20
13649.991467022401
 11
765.563892142251
 21
13649.991467022401
  0
LINE
  5
C5
100
AcDbEntity
  8
1
  6
CONTINUOUS
 62
           3
100
AcDbLine
 10
746.813892142251
 20
13602.491467022401
 11
746.813892142251
 21
13599.991467022401
  0
LINE
  5
C4
100
AcDbEntity
  8
1
  6
CONTINUOUS
 62
           3
100
AcDbLine
 10
746.813892142251
 20
13602.491467022401
 11
615.563892142251
 21
13602.491467022401
  0
LINE
  5
C3
100
AcDbEntity
  8
1
  6
CONTINUOUS
 62
           3
100
AcDbLine
 10
746.813892142251
 20
13599.991467022401
 11
738.563892142251
 21
13599.991467022401
  0
LINE
  5
C2
100
AcDbEntity
  8
1
  6
CONTINUOUS
 62
           3
100
AcDbLine
 10
764.313892142251
 20
13602.491467022401
 11
764.313892142251
 21
13599.991467022401
  0
LINE
  5
C1
100
AcDbEntity
  8
1
  6
CONTINUOUS
 62
           3
100
AcDbLine
 10
764.313892142251
 20
13602.491467022401
 11
746.813892142251
 21
13602.491467022401
  0
LINE
  5
C0
100
AcDbEntity
  8
1
  6
CONTINUOUS
 62
           3
100
AcDbLine
 10
764.313892142251
 20
13599.991467022401
 11
746.813892142251
 21
13599.991467022401
  0
LINE
  5
BF
100
AcDbEntity
  8
1
  6
CONTINUOUS
 62
           3
100
AcDbLine
 10
606.063892142251
 20
13614.491467022401
 11
615.563892142251
 21
13614.491467022401
  0
LINE
  5
BE
100
AcDbEntity
  8
1
  6
CONTINUOUS
 62
           3
100
AcDbLine
 10
615.563892142251
 20
13613.991467022401
 11
615.563892142251
 21
13579.991467022401
  0
LINE
  5
BD
100
AcDbEntity
  8
1
  6
CONTINUOUS
 62
           3
100
AcDbLine
 10
615.063892142251
 20
13579.491467022401
 11
606.063892142251
 21
13579.491467022401
  0
LINE
  5
BC
100
AcDbEntity
  8
1
  6
CONTINUOUS
 62
           3
100
AcDbLine
 10
641.563892142251
 20
13614.491467022401
 11
610.563892142251
 21
13614.491467022401
  0
LINE
  5
BB
100
AcDbEntity
  8
1
  6
DOTTED
 62
           1
100
AcDbLine
 10
615.563892142251
 20
13581.991467022401
 11
605.563892142251
 21
13581.991467022401
  0
LINE
  5
BA
100
AcDbEntity
  8
1
  6
CONTINUOUS
 62
           3
100
AcDbLine
 10
771.063892142251
 20
13587.991467022401
 11
773.901614482083
 21
13587.991467022401
  0
LINE
  5
B9
100
AcDbEntity
  8
1
  6
CONTINUOUS
 62
           3
100
AcDbLine
 10
780.563892142251
 20
13587.491467022401
 11
780.563892142251
 21
13553.491467022401
  0
LINE
  5
B8
100
AcDbEntity
  8
1
  6
CONTINUOUS
 62
           3
100
AcDbLine
 10
780.063892142251
 20
13552.991467022401
 11
771.063892142251
 21
13552.991467022401
  0
LINE
  5
B7
100
AcDbEntity
  8
1
  6
CONTINUOUS
 62
           3
100
AcDbLine
 10
773.901614482083
 20
13587.991467022401
 11
780.063892142251
 21
13587.991467022401
  0
LINE
  5
B6
100
AcDbEntity
  8
1
  6
DOTTED
 62
           1
100
AcDbLine
 10
780.563892142251
 20
13585.991467022401
 11
777.063892142251
 21
13585.991467022401
  0
LINE
  5
B5
100
AcDbEntity
  8
1
  6
DOTTED
 62
           1
100
AcDbLine
 10
780.563892142251
 20
13582.991467022401
 11
770.563892142251
 21
13582.991467022401
  0
LINE
  5
B4
100
AcDbEntity
  8
1
  6
CONTINUOUS
 62
           3
100
AcDbLine
 10
770.563892142251
 20
13553.491467022401
 11
770.563892142251
 21
13587.491467022401
  0
LINE
  5
B3
100
AcDbEntity
  8
1
  6
CONTINUOUS
 62
           3
100
AcDbLine
 10
770.563892142251
 20
13582.991467022401
 11
755.563892142251
 21
13582.991467022401
  0
LINE
  5
B2
100
AcDbEntity
  8
1
  6
CONTINUOUS
 62
           3
100
AcDbLine
 10
770.563892142251
 20
13574.991467022401
 11
739.063892142251
 21
13574.991467022401
  0
LINE
  5
B1
100
AcDbEntity
  8
1
  6
DOTTED
 62
           1
100
AcDbLine
 10
780.563892142251
 20
13574.991467022401
 11
770.563892142251
 21
13574.991467022401
  0
LINE
  5
B0
100
AcDbEntity
  8
1
  6
DOTTED
 62
           1
100
AcDbLine
 10
770.563892142251
 20
13555.491467022401
 11
780.563892142251
 21
13555.491467022401
  0
LINE
  5
AF
100
AcDbEntity
  8
1
  6
CONTINUOUS
 62
           3
100
AcDbLine
 10
605.563892142251
 20
13609.991467022401
 11
585.563892142251
 21
13609.991467022401
  0
LINE
  5
AE
100
AcDbEntity
  8
1
  6
CONTINUOUS
 62
           3
100
AcDbLine
 10
605.563892142251
 20
13602.491467022401
 11
575.063892142251
 21
13602.491467022401
  0
LINE
  5
AD
100
AcDbEntity
  8
1
  6
DOTTED
 62
           1
100
AcDbLine
 10
615.563892142251
 20
13602.491467022401
 11
605.563892142251
 21
13602.491467022401
  0
LINE
  5
AC
100
AcDbEntity
  8
1
  6
DOTTED
 62
           1
100
AcDbLine
 10
615.563892142251
 20
13609.991467022401
 11
605.563892142251
 21
13609.991467022401
  0
LINE
  5
AB
100
AcDbEntity
  8
1
  6
CONTINUOUS
 62
           3
100
AcDbLine
 10
605.563892142251
 20
13579.991467022401
 11
605.563892142251
 21
13613.991467022401
  0
LINE
  5
AA
100
AcDbEntity
  8
1
  6
DOT_CENTER
 62
           1
100
AcDbLine
 10
531.829939910689
 20
13587.491467022401
 11
515.289939910689
 21
13587.491467022401
  0
LINE
  5
A9
100
AcDbEntity
  8
1
  6
DOTTED
 62
           1
100
AcDbLine
 10
523.063892142251
 20
13590.091467022399
 11
521.063892142251
 21
13590.091467022399
  0
LINE
  5
A8
100
AcDbEntity
  8
1
  6
DOTTED
 62
           1
100
AcDbLine
 10
523.063892142251
 20
13584.8914670224
 11
521.063892142251
 21
13584.8914670224
  0
LINE
  5
A7
100
AcDbEntity
  8
1
  6
DOTTED
 62
           1
100
AcDbLine
 10
521.063892142251
 20
13665.091467022399
 11
523.063892142251
 21
13665.091467022399
  0
LINE
  5
A6
100
AcDbEntity
  8
1
  6
DOTTED
 62
           1
100
AcDbLine
 10
521.063892142251
 20
13659.8914670224
 11
523.063892142251
 21
13659.8914670224
  0
LINE
  5
A5
100
AcDbEntity
  8
1
  6
DOT_CENTER
 62
           1
100
AcDbLine
 10
515.289939910689
 20
13662.491467022401
 11
531.829939910689
 21
13662.491467022401
  0
LINE
  5
A4
100
AcDbEntity
  8
1
  6
CONTINUOUS
 62
           3
100
AcDbLine
 10
524.063892142251
 20
13607.491467022401
 11
524.063892142251
 21
13642.491467022401
  0
LINE
  5
A3
100
AcDbEntity
  8
1
  6
CONTINUOUS
 62
           3
100
AcDbLine
 10
524.063892142251
 20
13642.491467022401
 11
524.063892142251
 21
13643.491467022401
  0
LINE
  5
A2
100
AcDbEntity
  8
1
  6
CONTINUOUS
 62
           3
100
AcDbLine
 10
524.063892142251
 20
13607.491467022401
 11
523.063892142251
 21
13607.491467022401
  0
LINE
  5
A1
100
AcDbEntity
  8
1
  6
CONTINUOUS
 62
           3
100
AcDbLine
 10
524.063892142251
 20
13642.491467022401
 11
523.063892142251
 21
13642.491467022401
  0
LINE
  5
A0
100
AcDbEntity
  8
1
  6
CONTINUOUS
 62
           3
100
AcDbLine
 10
521.063892142251
 20
13564.991467022401
 11
521.063892142251
 21
13684.991467022401
  0
LINE
  5
9F
100
AcDbEntity
  8
1
  6
CONTINUOUS
 62
           3
100
AcDbLine
 10
523.063892142251
 20
13684.991467022401
 11
523.063892142251
 21
13642.491467022401
  0
LINE
  5
9E
100
AcDbEntity
  8
1
  6
CONTINUOUS
 62
           3
100
AcDbLine
 10
523.063892142251
 20
13564.991467022401
 11
521.063892142251
 21
13564.991467022401
  0
LINE
  5
9D
100
AcDbEntity
  8
1
  6
CONTINUOUS
 62
           3
100
AcDbLine
 10
521.063892142251
 20
13684.991467022401
 11
523.063892142251
 21
13684.991467022401
  0
LINE
  5
9C
100
AcDbEntity
  8
1
  6
CONTINUOUS
 62
           3
100
AcDbLine
 10
523.063892142251
 20
13642.491467022401
 11
523.063892142251
 21
13607.491467022401
  0
LINE
  5
9B
100
AcDbEntity
  8
1
  6
CONTINUOUS
 62
           3
100
AcDbLine
 10
523.063892142251
 20
13607.491467022401
 11
523.063892142251
 21
13564.991467022401
  0
LINE
  5
9A
100
AcDbEntity
  8
1
  6
DOTTED
 62
           1
100
AcDbLine
 10
523.063892142251
 20
13572.3914670224
 11
521.063892142251
 21
13572.3914670224
  0
LINE
  5
99
100
AcDbEntity
  8
1
  6
DOTTED
 62
           1
100
AcDbLine
 10
523.063892142251
 20
13577.591467022399
 11
521.063892142251
 21
13577.591467022399
  0
LINE
  5
98
100
AcDbEntity
  8
1
  6
DOT_CENTER
 62
           1
100
AcDbLine
 10
531.829939910689
 20
13574.991467022401
 11
515.289939910689
 21
13574.991467022401
  0
LINE
  5
97
100
AcDbEntity
  8
1
  6
DOT_CENTER
 62
           1
100
AcDbLine
 10
515.289939910689
 20
13674.991467022401
 11
531.829939910689
 21
13674.991467022401
  0
LINE
  5
96
100
AcDbEntity
  8
1
  6
DOTTED
 62
           1
100
AcDbLine
 10
521.063892142251
 20
13672.3914670224
 11
523.063892142251
 21
13672.3914670224
  0
LINE
  5
95
100
AcDbEntity
  8
1
  6
DOTTED
 62
           1
100
AcDbLine
 10
521.063892142251
 20
13677.591467022399
 11
523.063892142251
 21
13677.591467022399
  0
LINE
  5
94
100
AcDbEntity
  8
1
  6
CONTINUOUS
 62
           3
100
AcDbLine
 10
524.063892142251
 20
13606.491467022401
 11
524.063892142251
 21
13607.491467022401
  0
LINE
  5
93
100
AcDbEntity
  8
1
  6
DOT_CENTER
 62
           1
100
AcDbLine
 10
755.563892142251
 20
13944.84272334044
 11
755.563892142251
 21
13902.66272334044
  0
LINE
  5
92
100
AcDbEntity
  8
1
  6
DOT_CENTER
 62
           1
100
AcDbLine
 10
585.563892142251
 20
13934.97602581389
 11
585.563892142251
 21
13945.3516277651
  0
LINE
  5
91
100
AcDbEntity
  8
1
  6
CONTINUOUS
 62
           3
100
AcDbLine
 10
755.563892142251
 20
13934.97602581389
 11
585.563892142251
 21
13934.97602581389
  0
LINE
  5
90
100
AcDbEntity
  8
1
  6
CONTINUOUS
 62
           3
100
AcDbLine
 10
755.563892142251
 20
13912.97602581389
 11
585.563892142251
 21
13912.97602581389
  0
LINE
  5
8F
100
AcDbEntity
  8
1
  6
CONTINUOUS
 62
           3
100
AcDbLine
 10
573.563892142251
 20
13927.97602581389
 11
573.563892142251
 21
13919.97602581389
  0
LINE
  5
8E
100
AcDbEntity
  8
1
  6
CONTINUOUS
 62
           3
100
AcDbLine
 10
568.063892142251
 20
13928.97602581389
 11
572.563892142251
 21
13928.97602581389
  0
LINE
  5
8D
100
AcDbEntity
  8
1
  6
CONTINUOUS
 62
           3
100
AcDbLine
 10
575.563892142251
 20
13912.97602581389
 11
585.563892142251
 21
13912.97602581389
  0
LINE
  5
8C
100
AcDbEntity
  8
1
  6
DOT_CENTER
 62
           1
100
AcDbLine
 10
585.563892142251
 20
13902.411627765099
 11
585.563892142251
 21
13912.97602581389
  0
LINE
  5
8B
100
AcDbEntity
  8
1
  6
CONTINUOUS
 62
           3
100
AcDbLine
 10
574.563892142251
 20
13916.97602581389
 11
574.563892142251
 21
13913.97602581389
  0
LINE
  5
8A
100
AcDbEntity
  8
1
  6
CONTINUOUS
 62
           3
100
AcDbLine
 10
585.563892142251
 20
13934.97602581389
 11
574.563892142251
 21
13934.97602581389
  0
LINE
  5
89
100
AcDbEntity
  8
1
  6
DOT_CENTER
 62
           1
100
AcDbLine
 10
585.563892142251
 20
13912.97602581389
 11
585.563892142251
 21
13934.97602581389
  0
LINE
  5
88
100
AcDbEntity
  8
1
  6
CONTINUOUS
 62
           3
100
AcDbLine
 10
574.563892142251
 20
13934.97602581389
 11
574.563892142251
 21
13930.97602581389
  0
LINE
  5
87
100
AcDbEntity
  8
1
  6
CONTINUOUS
 62
           3
100
AcDbLine
 10
570.563892142251
 20
13882.97602581389
 11
523.063892142251
 21
13882.97602581389
  0
LINE
  5
86
100
AcDbEntity
  8
1
  6
CONTINUOUS
 62
           3
100
AcDbLine
 10
572.563892142251
 20
13917.97602581389
 11
572.563892142251
 21
13884.97602581389
  0
LINE
  5
85
100
AcDbEntity
  8
1
  6
CONTINUOUS
 62
           3
100
AcDbLine
 10
523.063892142251
 20
13917.97602581389
 11
572.563892142251
 21
13917.97602581389
  0
LINE
  5
84
100
AcDbEntity
  8
1
  6
CONTINUOUS
 62
           3
100
AcDbLine
 10
572.563892142251
 20
13962.97602581389
 11
572.563892142251
 21
13929.97602581389
  0
LINE
  5
83
100
AcDbEntity
  8
1
  6
CONTINUOUS
 62
           3
100
AcDbLine
 10
523.063892142251
 20
13964.97602581389
 11
570.563892142251
 21
13964.97602581389
  0
LINE
  5
82
100
AcDbEntity
  8
1
  6
CONTINUOUS
 62
           3
100
AcDbLine
 10
568.063892142251
 20
13918.97602581389
 11
538.063892142251
 21
13918.97602581389
  0
LINE
  5
81
100
AcDbEntity
  8
1
  6
CONTINUOUS
 62
           3
100
AcDbLine
 10
568.063892142251
 20
13929.97602581389
 11
568.063892142251
 21
13928.97602581389
  0
LINE
  5
80
100
AcDbEntity
  8
1
  6
CONTINUOUS
 62
           3
100
AcDbLine
 10
538.063892142251
 20
13928.97602581389
 11
568.063892142251
 21
13928.97602581389
  0
LINE
  5
7F
100
AcDbEntity
  8
1
  6
CONTINUOUS
 62
           3
100
AcDbLine
 10
572.563892142251
 20
13929.97602581389
 11
523.063892142251
 21
13929.97602581389
  0
LINE
  5
7E
100
AcDbEntity
  8
1
  6
CONTINUOUS
 62
           3
100
AcDbLine
 10
568.063892142251
 20
13918.97602581389
 11
568.063892142251
 21
13917.97602581389
  0
LINE
  5
7D
100
AcDbEntity
  8
1
  6
CONTINUOUS
 62
           3
100
AcDbLine
 10
572.563892142251
 20
13918.97602581389
 11
568.063892142251
 21
13918.97602581389
  0
LINE
  5
7C
100
AcDbEntity
  8
1
  6
DOT_CENTER
 62
           1
100
AcDbLine
 10
553.063892142251
 20
13982.488508746301
 11
553.063892142251
 21
13867.75258156969
  0
LINE
  5
7B
100
AcDbEntity
  8
1
  6
DOTTED
 62
           1
100
AcDbLine
 10
521.063892142251
 20
13966.475150948299
 11
523.063892142251
 21
13966.475150948299
  0
LINE
  5
7A
100
AcDbEntity
  8
1
  6
DOTTED
 62
           1
100
AcDbLine
 10
521.063892142251
 20
13956.47711485535
 11
523.063892142251
 21
13956.47711485535
  0
LINE
  5
79
100
AcDbEntity
  8
1
  6
DOT_CENTER
 62
           1
100
AcDbLine
 10
515.289939910689
 20
13961.47602581389
 11
528.564015570157
 21
13961.47602581389
  0
LINE
  5
78
100
AcDbEntity
  8
1
  6
DOTTED
 62
           1
100
AcDbLine
 10
523.063892142251
 20
13892.47602581389
 11
521.063892142251
 21
13892.47602581389
  0
LINE
  5
77
100
AcDbEntity
  8
1
  6
DOTTED
 62
           1
100
AcDbLine
 10
523.063892142251
 20
13880.47602581389
 11
521.063892142251
 21
13880.47602581389
  0
LINE
  5
76
100
AcDbEntity
  8
1
  6
DOT_CENTER
 62
           1
100
AcDbLine
 10
527.727888940811
 20
13886.47602581389
 11
515.289939910689
 21
13886.47602581389
  0
LINE
  5
75
100
AcDbEntity
  8
1
  6
DOT_CENTER
 62
           1
100
AcDbLine
 10
527.727888940811
 20
13873.97602581389
 11
515.289939910689
 21
13873.97602581389
  0
LINE
  5
74
100
AcDbEntity
  8
1
  6
DOTTED
 62
           1
100
AcDbLine
 10
523.063892142251
 20
13867.97602581389
 11
521.063892142251
 21
13867.97602581389
  0
LINE
  5
73
100
AcDbEntity
  8
1
  6
DOTTED
 62
           1
100
AcDbLine
 10
523.063892142251
 20
13879.97602581389
 11
521.063892142251
 21
13879.97602581389
  0
LINE
  5
72
100
AcDbEntity
  8
1
  6
DOT_CENTER
 62
           1
100
AcDbLine
 10
515.289939910689
 20
13973.97602581389
 11
528.564015570157
 21
13973.97602581389
  0
LINE
  5
71
100
AcDbEntity
  8
1
  6
DOTTED
 62
           1
100
AcDbLine
 10
521.063892142251
 20
13968.97711485535
 11
523.063892142251
 21
13968.97711485535
  0
LINE
  5
70
100
AcDbEntity
  8
1
  6
DOTTED
 62
           1
100
AcDbLine
 10
521.063892142251
 20
13978.975150948299
 11
523.063892142251
 21
13978.975150948299
  0
LINE
  5
6F
100
AcDbEntity
  8
1
  6
CONTINUOUS
 62
           3
100
AcDbLine
 10
521.063892142251
 20
13863.97602581389
 11
521.063892142251
 21
13983.97602581389
  0
LINE
  5
6E
100
AcDbEntity
  8
1
  6
CONTINUOUS
 62
           3
100
AcDbLine
 10
521.063892142251
 20
13983.97602581389
 11
523.063892142251
 21
13983.97602581389
  0
LINE
  5
6D
100
AcDbEntity
  8
1
  6
CONTINUOUS
 62
           3
100
AcDbLine
 10
523.063892142251
 20
13983.97602581389
 11
523.063892142251
 21
13863.97602581389
  0
LINE
  5
6C
100
AcDbEntity
  8
1
  6
CONTINUOUS
 62
           3
100
AcDbLine
 10
535.563892142251
 20
13918.97602581389
 11
535.563892142251
 21
13928.97602581389
  0
LINE
  5
6B
100
AcDbEntity
  8
1
  6
CONTINUOUS
 62
           3
100
AcDbLine
 10
538.063892142251
 20
13918.97602581389
 11
535.563892142251
 21
13918.97602581389
  0
LINE
  5
6A
100
AcDbEntity
  8
1
  6
CONTINUOUS
 62
           3
100
AcDbLine
 10
538.063892142251
 20
13918.97602581389
 11
538.063892142251
 21
13917.97602581389
  0
LINE
  5
69
100
AcDbEntity
  8
1
  6
CONTINUOUS
 62
           3
100
AcDbLine
 10
535.563892142251
 20
13928.97602581389
 11
538.063892142251
 21
13928.97602581389
  0
LINE
  5
68
100
AcDbEntity
  8
1
  6
CONTINUOUS
 62
           3
100
AcDbLine
 10
524.063892142251
 20
13884.97602581389
 11
524.063892142251
 21
13917.97602581389
  0
LINE
  5
67
100
AcDbEntity
  8
1
  6
CONTINUOUS
 62
           3
100
AcDbLine
 10
524.063892142251
 20
13929.97602581389
 11
524.063892142251
 21
13962.97602581389
  0
LINE
  5
66
100
AcDbEntity
  8
1
  6
CONTINUOUS
 62
           3
100
AcDbLine
 10
526.063892142251
 20
13929.97602581389
 11
526.063892142251
 21
13917.97602581389
  0
LINE
  5
65
100
AcDbEntity
  8
1
  6
CONTINUOUS
 62
           3
100
AcDbLine
 10
538.063892142251
 20
13929.97602581389
 11
538.063892142251
 21
13928.97602581389
  0
LINE
  5
64
100
AcDbEntity
  8
1
  6
CONTINUOUS
 62
           3
100
AcDbLine
 10
523.063892142251
 20
13863.97602581389
 11
521.063892142251
 21
13863.97602581389
  0
LINE
  5
63
100
AcDbEntity
  8
1
  6
CONTINUOUS
 62
           3
100
AcDbLine
 10
824.66
 20
13934.97602581389
 11
755.563892142251
 21
13934.97602581389
  0
LINE
  5
62
100
AcDbEntity
  8
1
  6
CONTINUOUS
 62
           3
100
AcDbLine
 10
824.66
 20
13912.97602581389
 11
755.563892142251
 21
13912.97602581389
  0
POINT
  5
61
100
AcDbEntity
  8
0
 62
           7
100
AcDbPoint
 10
1048.892418400481
 20
13717.491467022401
  0
POINT
  5
60
100
AcDbEntity
  8
0
 62
           7
100
AcDbPoint
 10
1006.892418400481
 20
13402.491467022401
  0
POINT
  5
5F
100
AcDbEntity
  8
0
 62
           7
100
AcDbPoint
 10
1058.650521159427
 20
13707.491467022401
  0
POINT
  5
5E
100
AcDbEntity
  8
0
 62
           7
100
AcDbPoint
 10
1058.650521159427
 20
13679.991467022401
  0
POINT
  5
5D
100
AcDbEntity
  8
0
 62
           7
100
AcDbPoint
 10
1058.650521159427
 20
13679.991467022401
  0
POINT
  5
5C
100
AcDbEntity
  8
0
 62
           7
100
AcDbPoint
 10
1058.650521159427
 20
13652.491467022401
  0
POINT
  5
5B
100
AcDbEntity
  8
0
 62
           7
100
AcDbPoint
 10
1058.650521159427
 20
13652.491467022401
  0
POINT
  5
5A
100
AcDbEntity
  8
0
 62
           7
100
AcDbPoint
 10
1014.892418400481
 20
13624.991467022401
  0
POINT
  5
59
100
AcDbEntity
  8
0
 62
           7
100
AcDbPoint
 10
1014.892418400481
 20
13624.991467022401
  0
POINT
  5
58
100
AcDbEntity
  8
0
 62
           7
100
AcDbPoint
 10
1058.650521159427
 20
13597.491467022401
  0
POINT
  5
57
100
AcDbEntity
  8
0
 62
           7
100
AcDbPoint
 10
1058.650521159427
 20
13597.491467022401
  0
POINT
  5
56
100
AcDbEntity
  8
0
 62
           7
100
AcDbPoint
 10
1058.650521159427
 20
13569.991467022401
  0
POINT
  5
55
100
AcDbEntity
  8
0
 62
           7
100
AcDbPoint
 10
1058.650521159427
 20
13569.991467022401
  0
POINT
  5
54
100
AcDbEntity
  8
0
 62
           7
100
AcDbPoint
 10
1058.650521159427
 20
13542.491467022401
  0
POINT
  5
53
100
AcDbEntity
  8
0
 62
           7
100
AcDbPoint
 10
1058.650521159427
 20
13542.491467022401
  0
POINT
  5
52
100
AcDbEntity
  8
0
 62
           7
100
AcDbPoint
 10
1058.650521159427
 20
13514.991467022401
  0
POINT
  5
51
100
AcDbEntity
  8
0
 62
           7
100
AcDbPoint
 10
1058.650521159427
 20
13514.991467022401
  0
POINT
  5
50
100
AcDbEntity
  8
0
 62
           7
100
AcDbPoint
 10
1058.650521159427
 20
13487.491467022401
  0
POINT
  5
4F
100
AcDbEntity
  8
0
 62
           7
100
AcDbPoint
 10
1058.650521159427
 20
13487.491467022401
  0
POINT
  5
4E
100
AcDbEntity
  8
0
 62
           7
100
AcDbPoint
 10
1006.892418400481
 20
13402.491467022401
  0
POINT
  5
4D
100
AcDbEntity
  8
0
 62
           7
100
AcDbPoint
 10
1057.773381642025
 20
13444.491467022401
  0
POINT
  5
4C
100
AcDbEntity
  8
0
 62
           7
100
AcDbPoint
 10
1006.892418400481
 20
13402.491467022401
  0
POINT
  5
4B
100
AcDbEntity
  8
0
 62
           7
100
AcDbPoint
 10
903.063892142251
 20
13950.97602581389
  0
POINT
  5
4A
100
AcDbEntity
  8
0
 62
           7
100
AcDbPoint
 10
903.063892142251
 20
13953.97602581389
  0
POINT
  5
49
100
AcDbEntity
  8
0
 62
           7
100
AcDbPoint
 10
851.063892142251
 20
13402.491467022401
  0
POINT
  5
48
100
AcDbEntity
  8
0
 62
           7
100
AcDbPoint
 10
851.063892142251
 20
13405.491467022401
  0
POINT
  5
47
100
AcDbEntity
  8
0
 62
           7
100
AcDbPoint
 10
402.0075370422
 20
13720.39883524196
  0
POINT
  5
46
100
AcDbEntity
  8
0
 62
           7
100
AcDbPoint
 10
372.0075370422
 20
13720.39883524196
  0
POINT
  5
45
100
AcDbEntity
  8
0
 62
           7
100
AcDbPoint
 10
948.063892142251
 20
13893.97602581389
  0
POINT
  5
44
100
AcDbEntity
  8
0
 62
           7
100
AcDbPoint
 10
948.063892142251
 20
13953.97602581389
  0
POINT
  5
43
100
AcDbEntity
  8
0
 62
           7
100
AcDbPoint
 10
951.063892142251
 20
13950.97602581389
  0
POINT
  5
42
100
AcDbEntity
  8
0
 62
           7
100
AcDbPoint
 10
941.063892142251
 20
13990.97602581389
  0
POINT
  5
41
100
AcDbEntity
  8
0
 62
           7
100
AcDbPoint
 10
851.063892142251
 20
13990.97602581389
  0
POINT
  5
40
100
AcDbEntity
  8
0
 62
           7
100
AcDbPoint
 10
941.063892142251
 20
13990.97602581389
  0
POINT
  5
3F
100
AcDbEntity
  8
0
 62
           7
100
AcDbPoint
 10
941.063892142251
 20
13990.97602581389
  0
POINT
  5
3E
100
AcDbEntity
  8
0
 62
           7
100
AcDbPoint
 10
851.063892142251
 20
13990.97602581389
  0
POINT
  5
3D
100
AcDbEntity
  8
0
 62
           7
100
AcDbPoint
 10
936.063892142251
 20
13851.97602581389
  0
POINT
  5
3C
100
AcDbEntity
  8
0
 62
           7
100
AcDbPoint
 10
936.063892142251
 20
13995.97602581389
  0
POINT
  5
3B
100
AcDbEntity
  8
0
 62
           7
100
AcDbPoint
 10
440.4075370422
 20
13672.3914670224
  0
POINT
  5
3A
100
AcDbEntity
  8
0
 62
           7
100
AcDbPoint
 10
440.4075370422
 20
13677.591467022399
  0
POINT
  5
39
100
AcDbEntity
  8
0
 62
           7
100
AcDbPoint
 10
443.0075370422
 20
13682.861467022391
  0
POINT
  5
38
100
AcDbEntity
  8
0
 62
           7
100
AcDbPoint
 10
330.773707425441
 20
13574.991467022401
  0
POINT
  5
37
100
AcDbEntity
  8
0
 62
           7
100
AcDbPoint
 10
328.812339303571
 20
13674.991467022401
  0
POINT
  5
36
100
AcDbEntity
  8
0
 62
           7
100
AcDbPoint
 10
343.273707425441
 20
13587.491467022401
  0
POINT
  5
35
100
AcDbEntity
  8
0
 62
           7
100
AcDbPoint
 10
339.221819048526
 20
13662.491467022401
  0
POINT
  5
34
100
AcDbEntity
  8
0
 62
           7
100
AcDbPoint
 10
437.0075370422
 20
13681.225296639161
  0
POINT
  5
33
100
AcDbEntity
  8
0
 62
           7
100
AcDbPoint
 10
337.0075370422
 20
13682.386860999881
  0
POINT
  5
32
100
AcDbEntity
  8
0
 62
           7
100
AcDbPoint
 10
424.5075370422
 20
13668.725296639161
  0
POINT
  5
31
100
AcDbEntity
  8
0
 62
           7
100
AcDbPoint
 10
349.5075370422
 20
13671.16272631838
  0
POINT
  5
30
100
AcDbEntity
  8
0
 62
           7
100
AcDbPoint
 10
951.063892142251
 20
13405.491467022401
  0
POINT
  5
2F
100
AcDbEntity
  8
0
 62
           7
100
AcDbPoint
 10
951.063892142251
 20
13896.97602581389
  0
POINT
  5
2E
100
AcDbEntity
  8
0
 62
           7
100
AcDbPoint
 10
913.570712150848
 20
13661.27186740349
  0
POINT
  5
2D
100
AcDbEntity
  8
0
 62
           7
100
AcDbPoint
 10
1034.892418400481
 20
13682.861467022391
  0
POINT
  5
2C
100
AcDbEntity
  8
0
 62
           7
100
AcDbPoint
 10
1022.892418400481
 20
13682.861467022391
  0
POINT
  5
2B
100
AcDbEntity
  8
0
 62
           7
100
AcDbPoint
 10
1025.492418400481
 20
13677.591467022399
  0
POINT
  5
2A
100
AcDbEntity
  8
0
 62
           7
100
AcDbPoint
 10
1025.492418400481
 20
13672.3914670224
  0
POINT
  5
29
100
AcDbEntity
  8
1
 62
           1
100
AcDbPoint
 10
615.563892142251
 20
13602.491467022401
  0
POINT
  5
28
100
AcDbEntity
  8
1
 62
           1
100
AcDbPoint
 10
615.563892142251
 20
13609.991467022401
  0
ENDSEC
  0
SECTION
  2
OBJECTS
  0
DICTIONARY
  5
19
100
AcDbDictionary
  3
ACAD_GROUP
350
1A
  3
ACAD_MLINESTYLE
350
1B
  0
DICTIONARY
  5
1A
102
{ACAD_REACTORS
330
19
102
}
100
AcDbDictionary
  0
DICTIONARY
  5
1B
102
{ACAD_REACTORS
330
19
102
}
100
AcDbDictionary
  3
STANDARD
350
1C
  0
MLINESTYLE
  5
1C
102
{ACAD_REACTORS
330
1B
102
}
100
AcDbMlineStyle
  2
STANDARD
 70
           0
  3

 62
           0
 51
90.0
 52
90.0
 71
           2
 49
0.5
 62
         256
  6
BYLAYER
 49
-0.5
 62
         256
  6
BYLAYER
  0
ENDSEC
  0
EOF
