  0
SECTION
  2
HEADER
  9
$ACADVER
  1
AC1014
  9
$ACADMAINTVER
 70
           0
  9
$DWGCODEPAGE
  3
DOS932
  9
$INSBASE
 10
0.0
 20
0.0
 30
0.0
  9
$EXTMIN
 10
1.000000000000E+20
 20
1.000000000000E+20
 30
1.000000000000E+20
  9
$EXTMAX
 10
-1.000000000000E+20
 20
-1.000000000000E+20
 30
-1.000000000000E+20
  9
$LIMMIN
 10
0.0
 20
0.0
  9
$LIMMAX
 10
0.0
 20
0.0
  9
$ORTHOMODE
 70
           0
  9
$REGENMODE
 70
           1
  9
$FILLMODE
 70
           1
  9
$QTEXTMODE
 70
           0
  9
$MIRRTEXT
 70
           1
  9
$DRAGMODE
 70
           2
  9
$LTSCALE
 40
1.0
  9
$OSMODE
 70
           0
  9
$ATTMODE
 70
           1
  9
$TEXTSIZE
 40
0.2
  9
$TRACEWID
 40
0.05
  9
$TEXTSTYLE
  7
STANDARD
  9
$CLAYER
  8
0
  9
$CELTYPE
  6
CONTINUOUS
  9
$CECOLOR
 62
         256
  9
$CELTSCALE
 40
1.0
  9
$DELOBJ
 70
           1
  9
$DISPSILH
 70
           0
  9
$DIMSCALE
 40
1.0
  9
$DIMASZ
 40
0.18
  9
$DIMEXO
 40
0.0625
  9
$DIMDLI
 40
0.38
  9
$DIMRND
 40
0.0
  9
$DIMDLE
 40
0.0
  9
$DIMEXE
 40
0.18
  9
$DIMTP
 40
0.0
  9
$DIMTM
 40
0.0
  9
$DIMTXT
 40
0.18
  9
$DIMCEN
 40
0.09
  9
$DIMTSZ
 40
0.0
  9
$DIMTOL
 70
           0
  9
$DIMLIM
 70
           0
  9
$DIMTIH
 70
           1
  9
$DIMTOH
 70
           1
  9
$DIMSE1
 70
           0
  9
$DIMSE2
 70
           0
  9
$DIMTAD
 70
           0
  9
$DIMZIN
 70
           0
  9
$DIMBLK
  1

  9
$DIMASO
 70
           1
  9
$DIMSHO
 70
           1
  9
$DIMPOST
  1

  9
$DIMAPOST
  1

  9
$DIMALT
 70
           0
  9
$DIMALTD
 70
           2
  9
$DIMALTF
 40
25.4
  9
$DIMLFAC
 40
1.0
  9
$DIMTOFL
 70
           0
  9
$DIMTVP
 40
0.0
  9
$DIMTIX
 70
           0
  9
$DIMSOXD
 70
           0
  9
$DIMSAH
 70
           0
  9
$DIMBLK1
  1

  9
$DIMBLK2
  1

  9
$DIMSTYLE
  2
STANDARD
  9
$DIMCLRD
 70
           0
  9
$DIMCLRE
 70
           0
  9
$DIMCLRT
 70
           0
  9
$DIMTFAC
 40
1.0
  9
$DIMGAP
 40
0.09
  9
$DIMJUST
 70
           0
  9
$DIMSD1
 70
           0
  9
$DIMSD2
 70
           0
  9
$DIMTOLJ
 70
           1
  9
$DIMTZIN
 70
           0
  9
$DIMALTZ
 70
           0
  9
$DIMALTTZ
 70
           0
  9
$DIMFIT
 70
           3
  9
$DIMUPT
 70
           0
  9
$DIMUNIT
 70
           2
  9
$DIMDEC
 70
           4
  9
$DIMTDEC
 70
           4
  9
$DIMALTU
 70
           2
  9
$DIMALTTD
 70
           2
  9
$DIMTXSTY
  7
STANDARD
  9
$DIMAUNIT
 70
           0
  9
$LUNITS
 70
           2
  9
$LUPREC
 70
           4
  9
$SKETCHINC
 40
0.1
  9
$FILLETRAD
 40
0.0
  9
$AUNITS
 70
           0
  9
$AUPREC
 70
           0
  9
$MENU
  1
acad
  9
$ELEVATION
 40
0.0
  9
$PELEVATION
 40
0.0
  9
$THICKNESS
 40
0.0
  9
$LIMCHECK
 70
           0
  9
$BLIPMODE
 70
           1
  9
$CHAMFERA
 40
0.0
  9
$CHAMFERB
 40
0.0
  9
$CHAMFERC
 40
0.0
  9
$CHAMFERD
 40
0.0
  9
$SKPOLY
 70
           0
  9
$TDCREATE
 40
0.000000000
  9
$TDUPDATE
 40
0.000000000
  9
$TDINDWG
 40
0.0000000000
  9
$TDUSRTIMER
 40
0.0000000000
  9
$USRTIMER
 70
           1
  9
$ANGBASE
 50
0.0
  9
$ANGDIR
 70
           0
  9
$PDMODE
 70
           0
  9
$PDSIZE
 40
0.0
  9
$PLINEWID
 40
0.0
  9
$COORDS
 70
           0
  9
$SPLFRAME
 70
           0
  9
$SPLINETYPE
 70
           6
  9
$SPLINESEGS
 70
           8
  9
$ATTDIA
 70
           0
  9
$ATTREQ
 70
           1
  9
$HANDLING
 70
           1
  9
$HANDSEED
  5
2DA
  9
$SURFTAB1
 70
           6
  9
$SURFTAB2
 70
           6
  9
$SURFTYPE
 70
           6
  9
$SURFU
 70
           6
  9
$SURFV
 70
           6
  9
$UCSNAME
  2

  9
$UCSORG
 10
0.0
 20
0.0
 30
0.0
  9
$UCSXDIR
 10
1.0
 20
0.0
 30
0.0
  9
$UCSYDIR
 10
0.0
 20
1.0
 30
0.0
  9
$PUCSNAME
  2

  9
$PUCSORG
 10
0.0
 20
0.0
 30
0.0
  9
$PUCSXDIR
 10
1.0
 20
0.0
 30
0.0
  9
$PUCSYDIR
 10
0.0
 20
1.0
 30
0.0
  9
$USERI1
 70
           0
  9
$USERI2
 70
           0
  9
$USERI3
 70
           0
  9
$USERI4
 70
           0
  9
$USERI5
 70
           0
  9
$USERR1
 40
0.0
  9
$USERR2
 40
0.0
  9
$USERR3
 40
0.0
  9
$USERR4
 40
0.0
  9
$USERR5
 40
0.0
  9
$WORLDVIEW
 70
           1
  9
$SHADEDGE
 70
           3
  9
$SHADEDIF
 70
          70
  9
$TILEMODE
 70
           1
  9
$MAXACTVP
 70
          16
  9
$PINSBASE
 10
0.0
 20
0.0
 30
0.0
  9
$PLIMCHECK
 70
           0
  9
$PEXTMIN
 10
1.000000000000E+20
 20
1.000000000000E+20
 30
1.000000000000E+20
  9
$PEXTMAX
 10
-1.000000000000E+20
 20
-1.000000000000E+20
 30
-1.000000000000E+20
  9
$PLIMMIN
 10
0.0
 20
0.0
  9
$PLIMMAX
 10
12.0
 20
9.0
  9
$UNITMODE
 70
           0
  9
$VISRETAIN
 70
           0
  9
$PLINEGEN
 70
           1
  9
$PSLTSCALE
 70
           0
  9
$TREEDEPTH
 70
        3020
  9
$PICKSTYLE
 70
           1
  9
$CMLSTYLE
  2
STANDARD
  9
$CMLJUST
 70
           0
  9
$CMLSCALE
 40
1.0
  9
$PROXYGRAPHICS
 70
           0
  9
$MEASUREMENT
 70
           1
  0
ENDSEC
  0
SECTION
  2
CLASSES
  0
CLASS
  1
LWPOLYLINE
  2
AcDbPolyline
  3
"AutoCAD"
 90
        0
280
           0
281
           1
  0
CLASS
  1
IMAGE
  2
AcDbRasterImage
  3
ISM
 90
      127
280
           0
281
           1
  0
CLASS
  1
OLE2FRAME
  2
AcDbOle2Frame
  3
""
 90
        0
280
           0
281
           1
  0
CLASS
  1
HATCH
  2
AcDbHatch
  3
"ACAD_SEDONA"
 90
        0
280
           0
281
           1
  0
CLASS
  1
DICTIONARYVAR
  2
AcDbDictionaryVar
  3
"AutoCAD"
 90
        0
280
           0
281
           0
  0
CLASS
  1
RASTERVARIABLES
  2
AcDbRasterVariables
  3
ISM
 90
        0
280
           0
281
           0
  0
CLASS
  1
IMAGEDEF
  2
AcDbRasterImageDef
  3
ISM
 90
        0
280
           0
281
           0
  0
CLASS
  1
IMAGEDEF_REACTOR
  2
AcDbRasterImageDefReactor
  3
ISM
 90
        1
280
           0
281
           0
  0
CLASS
  1
IDBUFFER
  2
AcDbIdBuffer
  3
"Acad"
 90
        0
280
           0
281
           0
  0
CLASS
  1
SPATIAL_FILTER
  2
AcDbSpatialFilter
  3
"Acad"
 90
        0
280
           0
281
           0
  0
CLASS
  1
XRECORD
  2
AcDbXrecord
  3
"<Built In>"
 90
        0
280
           0
281
           0
  0
CLASS
  1
SORTENTSTABLE
  2
AcDbSortentsTable
  3
"AutoCAD"
 90
        0
280
           0
281
           0
  0
CLASS
  1
LAYER_INDEX
  2
AcDbLayerIndex
  3
"Acad"
 90
        0
280
           0
281
           0
  0
CLASS
  1
SPATIAL_INDEX
  2
AcDbSpatialIndex
  3
"Acad"
 90
        0
280
           0
281
           0
  0
CLASS
  1
OBJECT_PTR
  2
CAseDLPNTableRecord
  3
"ASE-LPNTableRecord"
 90
        1
280
           0
281
           0
  0
CLASS
  1
LAYOUT
  2
AcDbLayout
  3
"AutoCAD 2000"
 90
        1
280
           0
281
           0
  0
CLASS
  1
PLOTSETTINGS
  2
AcDbPlotSettings
  3
"AutoCAD 2000"
 90
        1
280
           0
281
           0
  0
CLASS
  1
ACDBDICTIONARYWDFLT
  2
AcDbDictionaryWithDefault
  3
"AutoCAD 2000"
 90
        1
280
           0
281
           0
  0
CLASS
  1
ACDBPLACEHOLDER
  2
AcDbPlaceHolder
  3
"AutoCAD 2000"
 90
        1
280
           0
281
           0
  0
CLASS
  1
VBA_PROJECT
  2
AcDbVbaProject
  3
"acadvba"
 90
        1
280
           0
281
           0
  0
CLASS
  1
WIPEOUT
  2
AcDbWipeout
  3
WipeOut|AutoCAD Express Tool|expresstools@autodesk.com
 90
      127
280
           0
281
           1
  0
CLASS
  1
WIPEOUTVARIABLES
  2
AcDbWipeoutVariables
  3
WipeOut|AutoCAD Express Tool|expresstools@autodesk.com
 90
        0
280
           0
281
           0
  0
CLASS
  1
RTEXT
  2
RText
  3
RText|AutoCAD Express Tool|expresstools@autodesk.com
 90
        0
280
           0
281
           1
  0
CLASS
  1
ARCALIGNEDTEXT
  2
AcDbArcAlignedText
  3
ATEXT|AutoCAD Express Tool|expresstools@autodesk.com
 90
        0
280
           0
281
           1
  0
ENDSEC
  0
SECTION
  2
TABLES
  0
TABLE
  2
VPORT
  5
7
100
AcDbSymbolTable
 70
           1
  0
VPORT
  5
15
100
AcDbSymbolTableRecord
100
AcDbViewportTableRecord
  2
*ACTIVE
 70
           0
 10
0.0
 20
0.0
 11
1.0
 21
1.0
 12
6.591288
 22
4.579184
 13
0.0
 23
0.0
 14
1.0
 24
1.0
 15
0.0
 25
0.0
 16
0.0
 26
0.0
 36
1.0
 17
0.0
 27
0.0
 37
0.0
 40
9.158369
 41
0.688564
 42
50.0
 43
0.0
 44
0.0
 50
0.0
 51
0.0
 71
           0
 72
         100
 73
           1
 74
           1
 75
           0
 76
           0
 77
           0
 78
           0
  0
ENDTAB
  0
TABLE
  2
LTYPE
  5
4
100
AcDbSymbolTable
 70
          10
  0
LTYPE
  5
11
100
AcDbSymbolTableRecord
100
AcDbLinetypeTableRecord
  2
BYBLOCK
 70
          64
  3

 72
          65
 73
           0
 40
0.0
  0
LTYPE
  5
12
100
AcDbSymbolTableRecord
100
AcDbLinetypeTableRecord
  2
BYLAYER
 70
          64
  3

 72
          65
 73
           0
 40
0.0
  0
LTYPE
  5
13
100
AcDbSymbolTableRecord
100
AcDbLinetypeTableRecord
  2
CONTINUOUS
 70
          64
  3
Solid line
 72
          65
 73
           0
 40
0.0
  0
LTYPE
  5
1D
100
AcDbSymbolTableRecord
100
AcDbLinetypeTableRecord
  2
DASHED
 70
          64
  3
Dashed
 72
          65
 73
           2
 40
15.0
 49
12.0
 74
           0
 49
-3.0
 74
           0
  0
LTYPE
  5
1E
100
AcDbSymbolTableRecord
100
AcDbLinetypeTableRecord
  2
DOTTED
 70
          64
  3
Dotted
 72
          65
 73
           2
 40
3.5
 49
0.5
 74
           0
 49
-3.0
 74
           0
  0
LTYPE
  5
1F
100
AcDbSymbolTableRecord
100
AcDbLinetypeTableRecord
  2
DOT_CENTER
 70
          64
  3
Dot_Center
 72
          65
 73
           4
 40
2.0
 49
1.25
 74
           0
 49
-0.25
 74
           0
 49
0.25
 74
           0
 49
-0.25
 74
           0
  0
LTYPE
  5
20
100
AcDbSymbolTableRecord
100
AcDbLinetypeTableRecord
  2
LONG_DASHED
 70
          64
  3
Long_Dashed
 72
          65
 73
           2
 40
2.0
 49
1.5
 74
           0
 49
-0.5
 74
           0
  0
LTYPE
  5
21
100
AcDbSymbolTableRecord
100
AcDbLinetypeTableRecord
  2
DASH_CENTER
 70
          64
  3
Dash_Center
 72
          65
 73
           4
 40
36.0
 49
24.0
 74
           0
 49
-3.0
 74
           0
 49
6.0
 74
           0
 49
-3.0
 74
           0
  0
LTYPE
  5
22
100
AcDbSymbolTableRecord
100
AcDbLinetypeTableRecord
  2
PHANTOM
 70
          64
  3
Phantom
 72
          65
 73
           6
 40
2.5
 49
1.25
 74
           0
 49
-0.25
 74
           0
 49
0.25
 74
           0
 49
-0.25
 74
           0
 49
0.25
 74
           0
 49
-0.25
 74
           0
  0
LTYPE
  5
23
100
AcDbSymbolTableRecord
100
AcDbLinetypeTableRecord
  2
CENTER_DASH_DASH
 70
          64
  3
Center_Dash_Dash
 72
          65
 73
           6
 40
22.0
 49
12.0
 74
           0
 49
-3.0
 74
           0
 49
0.5
 74
           0
 49
-3.0
 74
           0
 49
0.5
 74
           0
 49
-3.0
 74
           0
  0
ENDTAB
  0
TABLE
  2
LAYER
  5
2
100
AcDbSymbolTable
 70
           2
  0
LAYER
  5
14
100
AcDbSymbolTableRecord
100
AcDbLayerTableRecord
  2
0
 70
           0
 62
           7
  6
CONTINUOUS
  0
LAYER
  5
24
100
AcDbSymbolTableRecord
100
AcDbLayerTableRecord
  2
1
 70
           0
 62
           7
  6
CONTINUOUS
  0
ENDTAB
  0
TABLE
  2
STYLE
  5
3
100
AcDbSymbolTable
 70
           3
  0
STYLE
  5
17
100
AcDbSymbolTableRecord
100
AcDbTextStyleTableRecord
  2
STANDARD
 70
           0
 40
0.0
 41
1.0
 50
0.0
 71
           0
 42
0.0
  3
txt
  4

  0
STYLE
  5
2D5
100
AcDbSymbolTableRecord
100
AcDbTextStyleTableRecord
  2
CONVERTER_1
 70
           0
 40
0.0
 41
1.125
 50
0.0
 71
           0
 42
0.0
  3
txt
  4

  0
STYLE
  5
2D7
100
AcDbSymbolTableRecord
100
AcDbTextStyleTableRecord
  2
CONVERTER_2
 70
           0
 40
0.0
 41
0.72
 50
0.0
 71
           0
 42
0.0
  3
MS Gothic
  4

1001
ACAD
1000
MS Gothic
1071
    32785
  0
ENDTAB
  0
TABLE
  2
VIEW
  5
5
100
AcDbSymbolTable
 70
           0
  0
ENDTAB
  0
TABLE
  2
UCS
  5
6
100
AcDbSymbolTable
 70
           0
  0
ENDTAB
  0
TABLE
  2
APPID
  5
8
100
AcDbSymbolTable
 70
           1
  0
APPID
  5
16
100
AcDbSymbolTableRecord
100
AcDbRegAppTableRecord
  2
ACAD
 70
           0
  0
ENDTAB
  0
TABLE
  2
DIMSTYLE
  5
9
100
AcDbSymbolTable
 70
           1
  0
DIMSTYLE
105
18
100
AcDbSymbolTableRecord
100
AcDbDimStyleTableRecord
  2
STANDARD
 70
           0
  3

  4

  5

  6

  7

 40
1.0
 41
0.18
 42
0.0625
 43
0.38
 44
0.18
 45
0.0
 46
0.0
 47
0.0
 48
0.0
 71
           0
 72
           0
 73
           1
 74
           1
 75
           0
 76
           0
 77
           0
 78
           0
140
0.18
141
0.09
142
0.0
143
25.4
144
1.0
145
0.0
146
1.0
147
0.09
170
           0
171
           2
172
           0
173
           0
174
           0
175
           0
176
           0
177
           0
178
           0
270
           2
271
           4
272
           4
273
           2
274
           2
275
           0
280
           0
281
           0
282
           0
283
           1
284
           0
285
           0
286
           0
287
           0
288
           0
340
17
  0
ENDTAB
  0
TABLE
  2
BLOCK_RECORD
  5
1
100
AcDbSymbolTable
 70
           0
  0
BLOCK_RECORD
  5
A
100
AcDbSymbolTableRecord
100
AcDbBlockTableRecord
  2
*MODEL_SPACE
  0
BLOCK_RECORD
  5
B
100
AcDbSymbolTableRecord
100
AcDbBlockTableRecord
  2
*PAPER_SPACE
  0
ENDTAB
  0
ENDSEC
  0
SECTION
  2
BLOCKS
  0
BLOCK
  5
D
100
AcDbEntity
  8
0
100
AcDbBlockBegin
  2
*MODEL_SPACE
 70
           0
 10
0.0
 20
0.0
 30
0.0
  3
*MODEL_SPACE
  1

  0
ENDBLK
  5
E
100
AcDbEntity
  8
0
100
AcDbBlockEnd
  0
BLOCK
  5
F
100
AcDbEntity
 67
           1
  8
0
100
AcDbBlockBegin
  2
*PAPER_SPACE
 70
           0
 10
0.0
 20
0.0
 30
0.0
  3
*PAPER_SPACE
  1

  0
ENDBLK
  5
10
100
AcDbEntity
 67
           1
  8
0
100
AcDbBlockEnd
  0
ENDSEC
  0
SECTION
  2
ENTITIES
  0
MTEXT
  5
2D8
100
AcDbEntity
  8
1
 62
           1
100
AcDbMText
 10
415.194621449184
 20
13742.94140112967
 30
0.0
 40
7.799804672134
 41
0.0
 71
           5
 72
           1
  1
Ｎ-ＴＶアーム ３軸・壁付け型・ロングアーム
  7
CONVERTER_2
 11
1.0
 21
0.0
 31
0.0
  0
MTEXT
  5
2D6
100
AcDbEntity
  8
1
 62
           1
100
AcDbMText
 10
415.194621449184
 20
13760.59140112967
 30
0.0
 40
7.799804672134
 41
0.0
 71
           5
 72
           1
  1
NTV-3L
  7
CONVERTER_1
 11
1.0
 21
0.0
 31
0.0
  0
ARC
  5
2D4
100
AcDbEntity
  8
1
  6
CONTINUOUS
 62
           3
100
AcDbCircle
 10
470.032597603646
 20
13369.80005597637
 40
1.0
100
AcDbArc
 50
90.0
 51
180.0
  0
ARC
  5
2D3
100
AcDbEntity
  8
1
  6
CONTINUOUS
 62
           3
100
AcDbCircle
 10
470.032597603646
 20
13332.80005597637
 40
1.0
100
AcDbArc
 50
180.0
 51
-90.0
  0
ARC
  5
2D2
100
AcDbEntity
  8
1
  6
CONTINUOUS
 62
           3
100
AcDbCircle
 10
472.032597603646
 20
13471.97552925038
 40
4.0
100
AcDbArc
 50
180.0
 51
-138.590377890683
  0
ARC
  5
2D1
100
AcDbEntity
  8
1
  6
CONTINUOUS
 62
           3
100
AcDbCircle
 10
471.032597603645
 20
13526.97552925038
 40
2.0
100
AcDbArc
 50
90.0
 51
180.0
  0
ARC
  5
2D0
100
AcDbEntity
  8
1
  6
CONTINUOUS
 62
           3
100
AcDbCircle
 10
471.032597603645
 20
13448.97552925038
 40
2.0
100
AcDbArc
 50
180.0
 51
-90.0
  0
ARC
  5
2CF
100
AcDbEntity
  8
1
  6
CONTINUOUS
 62
           3
100
AcDbCircle
 10
472.032597603646
 20
13503.97552925038
 40
3.999999999997
100
AcDbArc
 50
138.590377890781
 51
180.0
  0
ARC
  5
2CE
100
AcDbEntity
  8
1
  6
CONTINUOUS
 62
           3
100
AcDbCircle
 10
878.032597603645
 20
13471.97552925038
 40
5.0
100
AcDbArc
 50
0.0
 51
58.060445597005
  0
ARC
  5
2CD
100
AcDbEntity
  8
1
  6
CONTINUOUS
 62
           3
100
AcDbCircle
 10
515.532597603646
 20
13526.97552925038
 40
2.0
100
AcDbArc
 50
0.0
 51
90.0
  0
ARC
  5
2CC
100
AcDbEntity
  8
1
  6
CONTINUOUS
 62
           3
100
AcDbCircle
 10
515.532597603646
 20
13448.97552925038
 40
2.0
100
AcDbArc
 50
-90.0
 51
0.0
  0
ARC
  5
2CB
100
AcDbEntity
  8
1
  6
CONTINUOUS
 62
           3
100
AcDbCircle
 10
517.532597603646
 20
13491.97552925038
 40
1.0
100
AcDbArc
 50
0.0
 51
90.0
  0
ARC
  5
2CA
100
AcDbEntity
  8
1
  6
CONTINUOUS
 62
           3
100
AcDbCircle
 10
517.532597603646
 20
13483.97552925038
 40
1.0
100
AcDbArc
 50
-90.0
 51
0.0
  0
ARC
  5
2C9
100
AcDbEntity
  8
1
  6
CONTINUOUS
 62
           3
100
AcDbCircle
 10
520.532597603646
 20
13477.97552925038
 40
1.0
100
AcDbArc
 50
180.0
 51
-90.0
  0
ARC
  5
2C8
100
AcDbEntity
  8
1
  6
CONTINUOUS
 62
           3
100
AcDbCircle
 10
517.532597603646
 20
13494.97552925038
 40
2.0
100
AcDbArc
 50
-90.0
 51
0.0
  0
ARC
  5
2C7
100
AcDbEntity
  8
1
  6
CONTINUOUS
 62
           3
100
AcDbCircle
 10
517.532597603646
 20
13480.97552925038
 40
2.0
100
AcDbArc
 50
0.0
 51
90.0
  0
ARC
  5
2C6
100
AcDbEntity
  8
1
  6
CONTINUOUS
 62
           3
100
AcDbCircle
 10
878.032597603645
 20
13503.97552925038
 40
5.0
100
AcDbArc
 50
-90.0
 51
0.0
  0
ARC
  5
2C5
100
AcDbEntity
  8
1
  6
CONTINUOUS
 62
           3
100
AcDbCircle
 10
878.032597603645
 20
13471.97552925038
 40
5.000000000004
100
AcDbArc
 50
58.060445597005
 51
90.0
  0
ARC
  5
2C4
100
AcDbEntity
  8
1
  6
CONTINUOUS
 62
           3
100
AcDbCircle
 10
885.032597603645
 20
13510.97552925038
 40
2.0
100
AcDbArc
 50
90.0
 51
180.0
  0
ARC
  5
2C3
100
AcDbEntity
  8
1
  6
CONTINUOUS
 62
           3
100
AcDbCircle
 10
885.032597603645
 20
13464.97552925038
 40
2.0
100
AcDbArc
 50
180.0
 51
-90.0
  0
ARC
  5
2C2
100
AcDbEntity
  8
1
  6
CONTINUOUS
 62
           3
100
AcDbCircle
 10
855.032597603645
 20
13279.80005597637
 40
0.5
100
AcDbArc
 50
-90.0
 51
0.0
  0
ARC
  5
2C1
100
AcDbEntity
  8
1
  6
CONTINUOUS
 62
           3
100
AcDbCircle
 10
846.032597603645
 20
13279.80005597637
 40
0.5
100
AcDbArc
 50
180.0
 51
-90.0
  0
ARC
  5
2C0
100
AcDbEntity
  8
1
  6
CONTINUOUS
 62
           3
100
AcDbCircle
 10
855.032597603645
 20
13313.80005597637
 40
0.5
100
AcDbArc
 50
0.0
 51
90.0
  0
ARC
  5
2BF
100
AcDbEntity
  8
1
  6
CONTINUOUS
 62
           3
100
AcDbCircle
 10
846.032597603645
 20
13313.80005597637
 40
0.5
100
AcDbArc
 50
90.0
 51
180.0
  0
ARC
  5
2BE
100
AcDbEntity
  8
1
  6
CONTINUOUS
 62
           3
100
AcDbCircle
 10
725.032597603646
 20
13279.80005597637
 40
0.5
100
AcDbArc
 50
-90.0
 51
0.0
  0
ARC
  5
2BD
100
AcDbEntity
  8
1
  6
CONTINUOUS
 62
           3
100
AcDbCircle
 10
716.032597603646
 20
13279.80005597637
 40
0.5
100
AcDbArc
 50
180.0
 51
-90.0
  0
ARC
  5
2BC
100
AcDbEntity
  8
1
  6
CONTINUOUS
 62
           3
100
AcDbCircle
 10
725.032597603646
 20
13313.80005597637
 40
0.5
100
AcDbArc
 50
0.0
 51
90.0
  0
ARC
  5
2BB
100
AcDbEntity
  8
1
  6
CONTINUOUS
 62
           3
100
AcDbCircle
 10
716.032597603646
 20
13313.80005597637
 40
0.5
100
AcDbArc
 50
90.0
 51
180.0
  0
ARC
  5
2BA
100
AcDbEntity
  8
1
  6
CONTINUOUS
 62
           3
100
AcDbCircle
 10
560.032597603646
 20
13306.30005597637
 40
0.5
100
AcDbArc
 50
-90.0
 51
0.0
  0
ARC
  5
2B9
100
AcDbEntity
  8
1
  6
CONTINUOUS
 62
           3
100
AcDbCircle
 10
551.032597603646
 20
13306.30005597637
 40
0.5
100
AcDbArc
 50
180.0
 51
-90.0
  0
ARC
  5
2B8
100
AcDbEntity
  8
1
  6
CONTINUOUS
 62
           3
100
AcDbCircle
 10
560.032597603646
 20
13340.30005597637
 40
0.5
100
AcDbArc
 50
0.0
 51
90.0
  0
ARC
  5
2B7
100
AcDbEntity
  8
1
  6
CONTINUOUS
 62
           3
100
AcDbCircle
 10
551.032597603646
 20
13340.30005597637
 40
0.5
100
AcDbArc
 50
90.0
 51
180.0
  0
ARC
  5
2B6
100
AcDbEntity
  8
1
  6
CONTINUOUS
 62
           3
100
AcDbCircle
 10
684.032597603646
 20
13376.80005597637
 40
0.5
100
AcDbArc
 50
180.0
 51
-90.0
  0
ARC
  5
2B5
100
AcDbEntity
  8
1
  6
CONTINUOUS
 62
           3
100
AcDbCircle
 10
684.032597603646
 20
13400.80005597637
 40
0.5
100
AcDbArc
 50
90.0
 51
180.0
  0
ARC
  5
2B4
100
AcDbEntity
  8
1
  6
CONTINUOUS
 62
           3
100
AcDbCircle
 10
684.032597603646
 20
13301.80005597637
 40
0.5
100
AcDbArc
 50
180.0
 51
-90.0
  0
ARC
  5
2B3
100
AcDbEntity
  8
1
  6
CONTINUOUS
 62
           3
100
AcDbCircle
 10
843.532597603645
 20
13373.30005597637
 40
3.0
100
AcDbArc
 50
0.0
 51
90.0
  0
ARC
  5
2B2
100
AcDbEntity
  8
1
  6
CONTINUOUS
 62
           3
100
AcDbCircle
 10
860.532597603645
 20
13373.30005597637
 40
3.0
100
AcDbArc
 50
90.0
 51
180.0
  0
ARC
  5
2B1
100
AcDbEntity
  8
1
  6
CONTINUOUS
 62
           3
100
AcDbCircle
 10
860.532597603645
 20
13329.30005597637
 40
3.0
100
AcDbArc
 50
180.0
 51
-90.0
  0
ARC
  5
2B0
100
AcDbEntity
  8
1
  6
CONTINUOUS
 62
           3
100
AcDbCircle
 10
843.532597603645
 20
13329.30005597637
 40
3.0
100
AcDbArc
 50
-90.0
 51
0.0
  0
ARC
  5
2AF
100
AcDbEntity
  8
1
  6
CONTINUOUS
 62
           3
100
AcDbCircle
 10
884.032597603645
 20
13302.30005597637
 40
1.0
100
AcDbArc
 50
180.0
 51
-90.0
  0
ARC
  5
2AE
100
AcDbEntity
  8
1
  6
CONTINUOUS
 62
           3
100
AcDbCircle
 10
884.032597603645
 20
13400.30005597637
 40
1.0
100
AcDbArc
 50
90.0
 51
180.0
  0
ARC
  5
2AD
100
AcDbEntity
  8
1
  6
CONTINUOUS
 62
           3
100
AcDbCircle
 10
860.032597603645
 20
13328.80005597637
 40
0.5
100
AcDbArc
 50
180.0
 51
-90.0
  0
ARC
  5
2AC
100
AcDbEntity
  8
1
  6
CONTINUOUS
 62
           3
100
AcDbCircle
 10
860.032597603645
 20
13373.80005597637
 40
0.5
100
AcDbArc
 50
90.0
 51
180.0
  0
ARC
  5
2AB
100
AcDbEntity
  8
1
  6
CONTINUOUS
 62
           3
100
AcDbCircle
 10
881.032597603645
 20
13301.80005597637
 40
0.5
100
AcDbArc
 50
-90.0
 51
0.0
  0
ARC
  5
2AA
100
AcDbEntity
  8
1
  6
CONTINUOUS
 62
           3
100
AcDbCircle
 10
881.032597603645
 20
13325.80005597637
 40
0.5
100
AcDbArc
 50
0.0
 51
90.0
  0
ARC
  5
2A9
100
AcDbEntity
  8
1
  6
CONTINUOUS
 62
           3
100
AcDbCircle
 10
881.032597603645
 20
13376.80005597637
 40
0.5
100
AcDbArc
 50
-90.0
 51
0.0
  0
ARC
  5
2A8
100
AcDbEntity
  8
1
  6
CONTINUOUS
 62
           3
100
AcDbCircle
 10
881.032597603645
 20
13400.80005597637
 40
0.5
100
AcDbArc
 50
0.0
 51
90.0
  0
ARC
  5
2A7
100
AcDbEntity
  8
1
  6
CONTINUOUS
 62
           3
100
AcDbCircle
 10
680.532597603646
 20
13358.80005597637
 40
3.0
100
AcDbArc
 50
0.0
 51
90.0
  0
ARC
  5
2A6
100
AcDbEntity
  8
1
  6
CONTINUOUS
 62
           3
100
AcDbCircle
 10
680.532597603646
 20
13343.80005597637
 40
3.0
100
AcDbArc
 50
-90.0
 51
0.0
  0
ARC
  5
2A5
100
AcDbEntity
  8
1
  6
CONTINUOUS
 62
           3
100
AcDbCircle
 10
649.532597603646
 20
13343.80005597637
 40
3.0
100
AcDbArc
 50
180.0
 51
-90.0
  0
ARC
  5
2A4
100
AcDbEntity
  8
1
  6
CONTINUOUS
 62
           3
100
AcDbCircle
 10
649.532597603646
 20
13358.80005597637
 40
3.0
100
AcDbArc
 50
90.0
 51
180.0
  0
ARC
  5
2A3
100
AcDbEntity
  8
1
  6
CONTINUOUS
 62
           3
100
AcDbCircle
 10
633.532597603646
 20
13358.80005597637
 40
3.0
100
AcDbArc
 50
0.0
 51
90.0
  0
ARC
  5
2A2
100
AcDbEntity
  8
1
  6
CONTINUOUS
 62
           3
100
AcDbCircle
 10
633.532597603646
 20
13343.80005597637
 40
3.0
100
AcDbArc
 50
-90.0
 51
0.0
  0
ARC
  5
2A1
100
AcDbEntity
  8
1
  6
CONTINUOUS
 62
           3
100
AcDbCircle
 10
602.532597603646
 20
13343.80005597637
 40
3.0
100
AcDbArc
 50
180.0
 51
-90.0
  0
ARC
  5
2A0
100
AcDbEntity
  8
1
  6
CONTINUOUS
 62
           3
100
AcDbCircle
 10
602.532597603646
 20
13358.80005597637
 40
3.0
100
AcDbArc
 50
90.0
 51
180.0
  0
ARC
  5
29F
100
AcDbEntity
  8
1
  6
CONTINUOUS
 62
           3
100
AcDbCircle
 10
586.532597603646
 20
13358.80005597637
 40
3.0
100
AcDbArc
 50
0.0
 51
90.0
  0
ARC
  5
29E
100
AcDbEntity
  8
1
  6
CONTINUOUS
 62
           3
100
AcDbCircle
 10
586.532597603646
 20
13343.80005597637
 40
3.0
100
AcDbArc
 50
-90.0
 51
0.0
  0
ARC
  5
29D
100
AcDbEntity
  8
1
  6
CONTINUOUS
 62
           3
100
AcDbCircle
 10
555.532597603646
 20
13343.80005597637
 40
3.0
100
AcDbArc
 50
180.0
 51
-90.0
  0
ARC
  5
29C
100
AcDbEntity
  8
1
  6
CONTINUOUS
 62
           3
100
AcDbCircle
 10
555.532597603646
 20
13358.80005597637
 40
3.0
100
AcDbArc
 50
90.0
 51
180.0
  0
ARC
  5
29B
100
AcDbEntity
  8
1
  6
CONTINUOUS
 62
           3
100
AcDbCircle
 10
541.532597603646
 20
13343.30005597637
 40
2.0
100
AcDbArc
 50
-90.0
 51
0.0
  0
ARC
  5
29A
100
AcDbEntity
  8
1
  6
CONTINUOUS
 62
           3
100
AcDbCircle
 10
541.532597603646
 20
13359.30005597637
 40
2.0
100
AcDbArc
 50
0.0
 51
90.0
  0
ARC
  5
299
100
AcDbEntity
  8
1
  6
CONTINUOUS
 62
           3
100
AcDbCircle
 10
711.032597603646
 20
13329.30005597637
 40
0.5
100
AcDbArc
 50
-90.0
 51
0.0
  0
ARC
  5
298
100
AcDbEntity
  8
1
  6
CONTINUOUS
 62
           3
100
AcDbCircle
 10
711.032597603646
 20
13373.30005597637
 40
0.5
100
AcDbArc
 50
0.0
 51
90.0
  0
ARC
  5
297
100
AcDbEntity
  8
1
  6
CONTINUOUS
 62
           3
100
AcDbCircle
 10
541.032597603646
 20
13343.80005597637
 40
0.5
100
AcDbArc
 50
-90.0
 51
0.0
  0
ARC
  5
296
100
AcDbEntity
  8
1
  6
CONTINUOUS
 62
           3
100
AcDbCircle
 10
541.032597603646
 20
13358.80005597637
 40
0.5
100
AcDbArc
 50
0.0
 51
90.0
  0
ARC
  5
295
100
AcDbEntity
  8
1
  6
CONTINUOUS
 62
           3
100
AcDbCircle
 10
520.032597603646
 20
13340.80005597637
 40
0.5
100
AcDbArc
 50
90.0
 51
180.0
  0
ARC
  5
294
100
AcDbEntity
  8
1
  6
CONTINUOUS
 62
           3
100
AcDbCircle
 10
520.032597603646
 20
13329.30005597637
 40
0.5
100
AcDbArc
 50
180.0
 51
-90.0
  0
ARC
  5
293
100
AcDbEntity
  8
1
  6
CONTINUOUS
 62
           3
100
AcDbCircle
 10
520.032597603646
 20
13361.80005597637
 40
0.5
100
AcDbArc
 50
180.0
 51
-90.0
  0
ARC
  5
292
100
AcDbEntity
  8
1
  6
CONTINUOUS
 62
           3
100
AcDbCircle
 10
520.032597603646
 20
13373.30005597637
 40
0.5
100
AcDbArc
 50
90.0
 51
180.0
  0
ARC
  5
291
100
AcDbEntity
  8
1
  6
CONTINUOUS
 62
           3
100
AcDbCircle
 10
519.532597603646
 20
13345.30005597637
 40
2.0
100
AcDbArc
 50
180.0
 51
-90.0
  0
ARC
  5
290
100
AcDbEntity
  8
1
  6
CONTINUOUS
 62
           3
100
AcDbCircle
 10
519.532597603646
 20
13357.30005597637
 40
2.0
100
AcDbArc
 50
90.0
 51
180.0
  0
ARC
  5
28F
100
AcDbEntity
  8
1
  6
CONTINUOUS
 62
           3
100
AcDbCircle
 10
515.532597603646
 20
13335.80005597637
 40
2.0
100
AcDbArc
 50
-90.0
 51
0.0
  0
ARC
  5
28E
100
AcDbEntity
  8
1
  6
CONTINUOUS
 62
           3
100
AcDbCircle
 10
519.532597603646
 20
13341.30005597637
 40
2.0
100
AcDbArc
 50
90.0
 51
180.0
  0
ARC
  5
28D
100
AcDbEntity
  8
1
  6
CONTINUOUS
 62
           3
100
AcDbCircle
 10
519.532597603646
 20
13361.30005597637
 40
2.0
100
AcDbArc
 50
180.0
 51
-90.0
  0
ARC
  5
28C
100
AcDbEntity
  8
1
  6
CONTINUOUS
 62
           3
100
AcDbCircle
 10
515.532597603646
 20
13366.80005597637
 40
2.0
100
AcDbArc
 50
0.0
 51
90.0
  0
ARC
  5
28B
100
AcDbEntity
  8
1
  6
CONTINUOUS
 62
           6
100
AcDbCircle
 10
355.095679825923
 20
13337.80005597637
 40
0.5
100
AcDbArc
 50
90.0
 51
180.0
  0
ARC
  5
28A
100
AcDbEntity
  8
1
  6
CONTINUOUS
 62
           6
100
AcDbCircle
 10
355.095679825923
 20
13339.80005597637
 40
0.5
100
AcDbArc
 50
180.0
 51
-90.0
  0
ARC
  5
289
100
AcDbEntity
  8
1
  6
CONTINUOUS
 62
           6
100
AcDbCircle
 10
353.095679825923
 20
13339.80005597637
 40
0.5
100
AcDbArc
 50
-90.0
 51
0.0
  0
ARC
  5
288
100
AcDbEntity
  8
1
  6
CONTINUOUS
 62
           6
100
AcDbCircle
 10
353.095679825923
 20
13337.80005597637
 40
0.5
100
AcDbArc
 50
0.0
 51
90.0
  0
ARC
  5
287
100
AcDbEntity
  8
1
  6
CONTINUOUS
 62
           6
100
AcDbCircle
 10
375.095679825923
 20
13337.80005597637
 40
0.5
100
AcDbArc
 50
90.0
 51
180.0
  0
ARC
  5
286
100
AcDbEntity
  8
1
  6
CONTINUOUS
 62
           6
100
AcDbCircle
 10
375.095679825923
 20
13339.80005597637
 40
0.5
100
AcDbArc
 50
180.0
 51
-90.0
  0
ARC
  5
285
100
AcDbEntity
  8
1
  6
CONTINUOUS
 62
           6
100
AcDbCircle
 10
373.095679825923
 20
13339.80005597637
 40
0.5
100
AcDbArc
 50
-90.0
 51
0.0
  0
ARC
  5
284
100
AcDbEntity
  8
1
  6
CONTINUOUS
 62
           6
100
AcDbCircle
 10
373.095679825923
 20
13337.80005597637
 40
0.5
100
AcDbArc
 50
0.0
 51
90.0
  0
ARC
  5
283
100
AcDbEntity
  8
1
  6
CONTINUOUS
 62
           6
100
AcDbCircle
 10
373.095679825923
 20
13364.80005597637
 40
0.5
100
AcDbArc
 50
-90.0
 51
0.0
  0
ARC
  5
282
100
AcDbEntity
  8
1
  6
CONTINUOUS
 62
           6
100
AcDbCircle
 10
373.095679825923
 20
13362.80005597637
 40
0.5
100
AcDbArc
 50
0.0
 51
90.0
  0
ARC
  5
281
100
AcDbEntity
  8
1
  6
CONTINUOUS
 62
           6
100
AcDbCircle
 10
375.095679825923
 20
13362.80005597637
 40
0.5
100
AcDbArc
 50
90.0
 51
180.0
  0
ARC
  5
280
100
AcDbEntity
  8
1
  6
CONTINUOUS
 62
           6
100
AcDbCircle
 10
375.095679825923
 20
13364.80005597637
 40
0.5
100
AcDbArc
 50
180.0
 51
-90.0
  0
ARC
  5
27F
100
AcDbEntity
  8
1
  6
CONTINUOUS
 62
           6
100
AcDbCircle
 10
353.095679825923
 20
13364.80005597637
 40
0.5
100
AcDbArc
 50
-90.0
 51
0.0
  0
ARC
  5
27E
100
AcDbEntity
  8
1
  6
CONTINUOUS
 62
           6
100
AcDbCircle
 10
353.095679825923
 20
13362.80005597637
 40
0.5
100
AcDbArc
 50
0.0
 51
90.0
  0
ARC
  5
27D
100
AcDbEntity
  8
1
  6
CONTINUOUS
 62
           6
100
AcDbCircle
 10
355.095679825923
 20
13362.80005597637
 40
0.5
100
AcDbArc
 50
90.0
 51
180.0
  0
ARC
  5
27C
100
AcDbEntity
  8
1
  6
CONTINUOUS
 62
           6
100
AcDbCircle
 10
355.095679825923
 20
13364.80005597637
 40
0.5
100
AcDbArc
 50
180.0
 51
-90.0
  0
ARC
  5
27B
100
AcDbEntity
  8
1
  6
CONTINUOUS
 62
           3
100
AcDbCircle
 10
326.595679825923
 20
13317.200055976369
 40
2.6
100
AcDbArc
 50
90.000000000014
 51
180.0
  0
ARC
  5
27A
100
AcDbEntity
  8
1
  6
CONTINUOUS
 62
           3
100
AcDbCircle
 10
326.595679825923
 20
13317.200055976369
 40
2.600000000001
100
AcDbArc
 50
0.0
 51
90.000000000014
  0
ARC
  5
279
100
AcDbEntity
  8
1
  6
CONTINUOUS
 62
           3
100
AcDbCircle
 10
326.595679825922
 20
13310.40005597637
 40
2.6
100
AcDbArc
 50
-90.0
 51
0.0
  0
ARC
  5
278
100
AcDbEntity
  8
1
  6
CONTINUOUS
 62
           3
100
AcDbCircle
 10
326.595679825922
 20
13310.40005597637
 40
2.6
100
AcDbArc
 50
180.0
 51
-90.0
  0
ARC
  5
277
100
AcDbEntity
  8
1
  6
CONTINUOUS
 62
           3
100
AcDbCircle
 10
314.095679825922
 20
13297.90005597637
 40
2.6
100
AcDbArc
 50
180.0
 51
-90.0
  0
ARC
  5
276
100
AcDbEntity
  8
1
  6
CONTINUOUS
 62
           3
100
AcDbCircle
 10
314.095679825922
 20
13297.90005597637
 40
2.6
100
AcDbArc
 50
-90.0
 51
0.0
  0
ARC
  5
275
100
AcDbEntity
  8
1
  6
CONTINUOUS
 62
           3
100
AcDbCircle
 10
314.095679825923
 20
13304.700055976369
 40
2.600000000001
100
AcDbArc
 50
0.0
 51
90.000000000011
  0
ARC
  5
274
100
AcDbEntity
  8
1
  6
CONTINUOUS
 62
           3
100
AcDbCircle
 10
314.095679825923
 20
13304.700055976369
 40
2.6
100
AcDbArc
 50
90.000000000011
 51
180.0
  0
ARC
  5
273
100
AcDbEntity
  8
1
  6
CONTINUOUS
 62
           3
100
AcDbCircle
 10
398.195679825923
 20
13388.80005597637
 40
2.6
100
AcDbArc
 50
90.0
 51
180.0
  0
ARC
  5
272
100
AcDbEntity
  8
1
  6
CONTINUOUS
 62
           3
100
AcDbCircle
 10
398.195679825923
 20
13388.80005597637
 40
2.6
100
AcDbArc
 50
180.0
 51
-90.0
  0
ARC
  5
271
100
AcDbEntity
  8
1
  6
CONTINUOUS
 62
           3
100
AcDbCircle
 10
404.995679825923
 20
13388.80005597637
 40
2.6
100
AcDbArc
 50
-90.0
 51
0.0
  0
ARC
  5
270
100
AcDbEntity
  8
1
  6
CONTINUOUS
 62
           3
100
AcDbCircle
 10
404.995679825923
 20
13388.80005597637
 40
2.6
100
AcDbArc
 50
0.0
 51
90.0
  0
ARC
  5
26F
100
AcDbEntity
  8
1
  6
CONTINUOUS
 62
           3
100
AcDbCircle
 10
328.999842881957
 20
13391.204219032399
 40
2.600000000004
100
AcDbArc
 50
45.000000000088
 51
134.999999999915
  0
ARC
  5
26E
100
AcDbEntity
  8
1
  6
CONTINUOUS
 62
           3
100
AcDbCircle
 10
328.999842881957
 20
13391.204219032399
 40
2.599999999996
100
AcDbArc
 50
-44.999999999908
 51
45.000000000088
  0
ARC
  5
26D
100
AcDbEntity
  8
1
  6
CONTINUOUS
 62
           3
100
AcDbCircle
 10
324.191516769889
 20
13386.39589292034
 40
2.599999999996
100
AcDbArc
 50
-135.000000000083
 51
-45.000000000078
  0
ARC
  5
26C
100
AcDbEntity
  8
1
  6
CONTINUOUS
 62
           3
100
AcDbCircle
 10
324.191516769889
 20
13386.39589292034
 40
2.600000000004
100
AcDbArc
 50
134.999999999913
 51
-135.000000000083
  0
ARC
  5
26B
100
AcDbEntity
  8
1
  6
CONTINUOUS
 62
           3
100
AcDbCircle
 10
311.691516769889
 20
13398.89589292034
 40
2.600000000004
100
AcDbArc
 50
134.999999999915
 51
-135.000000000085
  0
ARC
  5
26A
100
AcDbEntity
  8
1
  6
CONTINUOUS
 62
           3
100
AcDbCircle
 10
311.691516769889
 20
13398.89589292034
 40
2.599999999996
100
AcDbArc
 50
-135.000000000085
 51
-45.000000000078
  0
ARC
  5
269
100
AcDbEntity
  8
1
  6
CONTINUOUS
 62
           3
100
AcDbCircle
 10
316.499842881957
 20
13403.704219032399
 40
2.599999999996
100
AcDbArc
 50
-44.999999999907
 51
45.000000000085
  0
ARC
  5
268
100
AcDbEntity
  8
1
  6
CONTINUOUS
 62
           3
100
AcDbCircle
 10
316.499842881957
 20
13403.704219032399
 40
2.600000000004
100
AcDbArc
 50
45.000000000085
 51
134.999999999914
  0
ARC
  5
267
100
AcDbEntity
  8
1
  6
CONTINUOUS
 62
           3
100
AcDbCircle
 10
417.495679825923
 20
13401.30005597637
 40
2.6
100
AcDbArc
 50
-90.0
 51
90.0
  0
ARC
  5
266
100
AcDbEntity
  8
1
  6
CONTINUOUS
 62
           3
100
AcDbCircle
 10
410.695679825923
 20
13401.30005597637
 40
2.6
100
AcDbArc
 50
90.0
 51
-90.0
  0
ARC
  5
265
100
AcDbEntity
  8
1
  6
CONTINUOUS
 62
           6
100
AcDbCircle
 10
1005.392260751948
 20
13322.80005597637
 40
0.5
100
AcDbArc
 50
0.0
 51
90.0
  0
ARC
  5
264
100
AcDbEntity
  8
1
  6
CONTINUOUS
 62
           6
100
AcDbCircle
 10
1005.392260751948
 20
13324.80005597637
 40
0.5
100
AcDbArc
 50
-90.0
 51
0.0
  0
ARC
  5
263
100
AcDbEntity
  8
1
  6
CONTINUOUS
 62
           6
100
AcDbCircle
 10
1007.392260751948
 20
13324.80005597637
 40
0.5
100
AcDbArc
 50
180.0
 51
-90.0
  0
ARC
  5
262
100
AcDbEntity
  8
1
  6
CONTINUOUS
 62
           6
100
AcDbCircle
 10
1007.392260751948
 20
13322.80005597637
 40
0.5
100
AcDbArc
 50
90.0
 51
180.0
  0
ARC
  5
261
100
AcDbEntity
  8
1
  6
CONTINUOUS
 62
           6
100
AcDbCircle
 10
1035.392260751948
 20
13322.80005597637
 40
0.5
100
AcDbArc
 50
0.0
 51
90.0
  0
ARC
  5
260
100
AcDbEntity
  8
1
  6
CONTINUOUS
 62
           6
100
AcDbCircle
 10
1035.392260751948
 20
13324.80005597637
 40
0.5
100
AcDbArc
 50
-90.0
 51
0.0
  0
ARC
  5
25F
100
AcDbEntity
  8
1
  6
CONTINUOUS
 62
           6
100
AcDbCircle
 10
1037.392260751948
 20
13324.80005597637
 40
0.5
100
AcDbArc
 50
180.0
 51
-90.0
  0
ARC
  5
25E
100
AcDbEntity
  8
1
  6
CONTINUOUS
 62
           6
100
AcDbCircle
 10
1037.392260751948
 20
13322.80005597637
 40
0.5
100
AcDbArc
 50
90.0
 51
180.0
  0
ARC
  5
25D
100
AcDbEntity
  8
1
  6
CONTINUOUS
 62
           6
100
AcDbCircle
 10
1037.392260751948
 20
13379.80005597637
 40
0.5
100
AcDbArc
 50
180.0
 51
-90.0
  0
ARC
  5
25C
100
AcDbEntity
  8
1
  6
CONTINUOUS
 62
           6
100
AcDbCircle
 10
1037.392260751948
 20
13377.80005597637
 40
0.5
100
AcDbArc
 50
90.0
 51
180.0
  0
ARC
  5
25B
100
AcDbEntity
  8
1
  6
CONTINUOUS
 62
           6
100
AcDbCircle
 10
1035.392260751948
 20
13377.80005597637
 40
0.5
100
AcDbArc
 50
0.0
 51
90.0
  0
ARC
  5
25A
100
AcDbEntity
  8
1
  6
CONTINUOUS
 62
           6
100
AcDbCircle
 10
1035.392260751948
 20
13379.80005597637
 40
0.5
100
AcDbArc
 50
-90.0
 51
0.0
  0
ARC
  5
259
100
AcDbEntity
  8
1
  6
CONTINUOUS
 62
           6
100
AcDbCircle
 10
1007.392260751948
 20
13379.80005597637
 40
0.5
100
AcDbArc
 50
180.0
 51
-90.0
  0
ARC
  5
258
100
AcDbEntity
  8
1
  6
CONTINUOUS
 62
           6
100
AcDbCircle
 10
1007.392260751948
 20
13377.80005597637
 40
0.5
100
AcDbArc
 50
90.0
 51
180.0
  0
ARC
  5
257
100
AcDbEntity
  8
1
  6
CONTINUOUS
 62
           6
100
AcDbCircle
 10
1005.392260751948
 20
13377.80005597637
 40
0.5
100
AcDbArc
 50
0.0
 51
90.0
  0
ARC
  5
256
100
AcDbEntity
  8
1
  6
CONTINUOUS
 62
           6
100
AcDbCircle
 10
1005.392260751948
 20
13379.80005597637
 40
0.5
100
AcDbArc
 50
-90.0
 51
0.0
  0
ARC
  5
255
100
AcDbEntity
  8
1
  6
CONTINUOUS
 62
           3
100
AcDbCircle
 10
1064.892260751948
 20
13292.80005597637
 40
4.0
100
AcDbArc
 50
-90.0
 51
0.0
  0
ARC
  5
254
100
AcDbEntity
  8
1
  6
CONTINUOUS
 62
           3
100
AcDbCircle
 10
1064.892260751948
 20
13409.80005597637
 40
4.0
100
AcDbArc
 50
0.0
 51
90.0
  0
ARC
  5
253
100
AcDbEntity
  8
1
  6
CONTINUOUS
 62
           3
100
AcDbCircle
 10
977.892260751948
 20
13409.80005597637
 40
4.0
100
AcDbArc
 50
90.0
 51
180.0
  0
ARC
  5
252
100
AcDbEntity
  8
1
  6
CONTINUOUS
 62
           3
100
AcDbCircle
 10
977.892260751948
 20
13292.80005597637
 40
4.0
100
AcDbArc
 50
180.0
 51
-90.0
  0
ARC
  5
251
100
AcDbEntity
  8
1
  6
CONTINUOUS
 62
           3
100
AcDbCircle
 10
834.980656714243
 20
13755.186345239999
 40
1.0
100
AcDbArc
 50
90.0
 51
180.0
  0
ARC
  5
250
100
AcDbEntity
  8
1
  6
CONTINUOUS
 62
           3
100
AcDbCircle
 10
829.980656714243
 20
13784.186345239999
 40
2.0
100
AcDbArc
 50
0.0
 51
89.999999999977
  0
ARC
  5
24F
100
AcDbEntity
  8
1
  6
CONTINUOUS
 62
           3
100
AcDbCircle
 10
829.980656714243
 20
13706.186345239999
 40
2.0
100
AcDbArc
 50
-89.999999999997
 51
0.0
  0
ARC
  5
24E
100
AcDbEntity
  8
1
  6
CONTINUOUS
 62
           3
100
AcDbCircle
 10
831.980656714242
 20
13749.186345239999
 40
1.0
100
AcDbArc
 50
0.0
 51
89.999999999993
  0
ARC
  5
24D
100
AcDbEntity
  8
1
  6
CONTINUOUS
 62
           3
100
AcDbCircle
 10
831.980656714242
 20
13741.186345239999
 40
1.0
100
AcDbArc
 50
-90.0
 51
0.0
  0
ARC
  5
24C
100
AcDbEntity
  8
1
  6
CONTINUOUS
 62
           3
100
AcDbCircle
 10
834.980656714243
 20
13735.186345239999
 40
1.0
100
AcDbArc
 50
180.0
 51
-90.000000000058
  0
ARC
  5
24B
100
AcDbEntity
  8
1
  6
CONTINUOUS
 62
           3
100
AcDbCircle
 10
831.980656714242
 20
13752.186345239999
 40
2.0
100
AcDbArc
 50
-89.999999999997
 51
0.0
  0
ARC
  5
24A
100
AcDbEntity
  8
1
  6
CONTINUOUS
 62
           3
100
AcDbCircle
 10
831.980656714243
 20
13738.18634524001
 40
2.0
100
AcDbArc
 50
-0.000000000313
 51
90.000000000026
  0
ARC
  5
249
100
AcDbEntity
  8
1
  6
CONTINUOUS
 62
           3
100
AcDbCircle
 10
885.032597603645
 20
13722.186345239999
 40
2.0
100
AcDbArc
 50
180.0
 51
-90.0
  0
ARC
  5
248
100
AcDbEntity
  8
1
  6
CONTINUOUS
 62
           3
100
AcDbCircle
 10
885.032597603645
 20
13768.186345239999
 40
2.0
100
AcDbArc
 50
90.0
 51
180.0
  0
ARC
  5
247
100
AcDbEntity
  8
1
  6
DOTTED
 62
           1
100
AcDbCircle
 10
878.032597603645
 20
13729.186345239999
 40
5.000000000004
100
AcDbArc
 50
58.060445597005
 51
90.0
  0
ARC
  5
246
100
AcDbEntity
  8
1
  6
CONTINUOUS
 62
           3
100
AcDbCircle
 10
878.032597603645
 20
13761.186345239999
 40
5.0
100
AcDbArc
 50
-90.0
 51
0.0
  0
ARC
  5
245
100
AcDbEntity
  8
1
  6
CONTINUOUS
 62
           3
100
AcDbCircle
 10
878.032597603645
 20
13729.186345239999
 40
5.0
100
AcDbArc
 50
0.0
 51
58.060445597005
  0
ARC
  5
244
100
AcDbEntity
  8
1
  6
CONTINUOUS
 62
           3
100
AcDbCircle
 10
786.480656714243
 20
13729.186345239999
 40
4.0
100
AcDbArc
 50
180.0
 51
-138.590377890781
  0
ARC
  5
243
100
AcDbEntity
  8
1
  6
CONTINUOUS
 62
           3
100
AcDbCircle
 10
785.480656714242
 20
13784.186345239999
 40
2.0
100
AcDbArc
 50
90.0
 51
180.0
  0
ARC
  5
242
100
AcDbEntity
  8
1
  6
CONTINUOUS
 62
           3
100
AcDbCircle
 10
785.480656714242
 20
13706.186345239999
 40
2.0
100
AcDbArc
 50
180.0
 51
-90.0
  0
ARC
  5
241
100
AcDbEntity
  8
1
  6
CONTINUOUS
 62
           3
100
AcDbCircle
 10
786.480656714243
 20
13761.186345239999
 40
4.000000000004
100
AcDbArc
 50
138.590377890664
 51
180.0
  0
CIRCLE
  5
240
100
AcDbEntity
  8
1
  6
CONTINUOUS
 62
           3
100
AcDbCircle
 10
530.532597603646
 20
13487.97552925038
 40
8.75
  0
CIRCLE
  5
23F
100
AcDbEntity
  8
1
  6
CONTINUOUS
 62
           3
100
AcDbCircle
 10
870.532597603645
 20
13487.97552925038
 40
8.75
  0
CIRCLE
  5
23E
100
AcDbEntity
  8
1
  6
CONTINUOUS
 62
           3
100
AcDbCircle
 10
700.532597603646
 20
13487.97552925038
 40
8.75
  0
CIRCLE
  5
23D
100
AcDbEntity
  8
1
  6
CONTINUOUS
 62
           6
100
AcDbCircle
 10
354.095679825923
 20
13338.80005597637
 40
3.5
  0
CIRCLE
  5
23C
100
AcDbEntity
  8
1
  6
CONTINUOUS
 62
           6
100
AcDbCircle
 10
374.095679825923
 20
13338.80005597637
 40
3.5
  0
CIRCLE
  5
23B
100
AcDbEntity
  8
1
  6
CONTINUOUS
 62
           6
100
AcDbCircle
 10
374.095679825923
 20
13363.80005597637
 40
3.5
  0
CIRCLE
  5
23A
100
AcDbEntity
  8
1
  6
CONTINUOUS
 62
           6
100
AcDbCircle
 10
354.095679825923
 20
13363.80005597637
 40
3.5
  0
CIRCLE
  5
239
100
AcDbEntity
  8
1
  6
CONTINUOUS
 62
           3
100
AcDbCircle
 10
401.595679825923
 20
13313.80005597637
 40
2.6
  0
CIRCLE
  5
238
100
AcDbEntity
  8
1
  6
CONTINUOUS
 62
           3
100
AcDbCircle
 10
414.095679825923
 20
13301.30005597637
 40
2.6
  0
CIRCLE
  5
237
100
AcDbEntity
  8
1
  6
CONTINUOUS
 62
           6
100
AcDbCircle
 10
1006.392260751948
 20
13323.80005597637
 40
3.5
  0
CIRCLE
  5
236
100
AcDbEntity
  8
1
  6
CONTINUOUS
 62
           6
100
AcDbCircle
 10
1036.392260751948
 20
13323.80005597637
 40
3.5
  0
CIRCLE
  5
235
100
AcDbEntity
  8
1
  6
CONTINUOUS
 62
           6
100
AcDbCircle
 10
1036.392260751948
 20
13378.80005597637
 40
3.5
  0
CIRCLE
  5
234
100
AcDbEntity
  8
1
  6
CONTINUOUS
 62
           6
100
AcDbCircle
 10
1006.392260751948
 20
13378.80005597637
 40
3.5
  0
CIRCLE
  5
233
100
AcDbEntity
  8
1
  6
CONTINUOUS
 62
           3
100
AcDbCircle
 10
986.392260751948
 20
13301.30005597637
 40
4.05
  0
CIRCLE
  5
232
100
AcDbEntity
  8
1
  6
CONTINUOUS
 62
           3
100
AcDbCircle
 10
1056.392260751948
 20
13301.30005597637
 40
4.05
  0
CIRCLE
  5
231
100
AcDbEntity
  8
1
  6
CONTINUOUS
 62
           3
100
AcDbCircle
 10
1056.392260751948
 20
13401.30005597637
 40
4.05
  0
CIRCLE
  5
230
100
AcDbEntity
  8
1
  6
CONTINUOUS
 62
           3
100
AcDbCircle
 10
986.392260751948
 20
13401.30005597637
 40
4.05
  0
CIRCLE
  5
22F
100
AcDbEntity
  8
1
  6
CONTINUOUS
 62
           3
100
AcDbCircle
 10
844.980656714243
 20
13745.186345239999
 40
8.750000000005
  0
CIRCLE
  5
22E
100
AcDbEntity
  8
1
  6
CONTINUOUS
 62
           3
100
AcDbCircle
 10
857.756627158944
 20
13575.667099786289
 40
8.750000000005
  0
CIRCLE
  5
22D
100
AcDbEntity
  8
1
  6
CONTINUOUS
 62
           3
100
AcDbCircle
 10
870.532597603645
 20
13745.186345239999
 40
8.75
  0
ARC
  5
22C
100
AcDbEntity
  8
1
  6
DOTTED
 62
           1
100
AcDbCircle
 10
870.532597603645
 20
13487.97552925038
 40
11.0
100
AcDbArc
 50
90.0
 51
-90.0
  0
ARC
  5
22B
100
AcDbEntity
  8
1
  6
DOTTED
 62
           1
100
AcDbCircle
 10
530.532597603646
 20
13487.97552925038
 40
11.0
100
AcDbArc
 50
-90.0
 51
90.0
  0
ARC
  5
22A
100
AcDbEntity
  8
1
  6
CONTINUOUS
 62
           3
100
AcDbCircle
 10
530.532597603646
 20
13487.97552925038
 40
11.0
100
AcDbArc
 50
90.0
 51
-90.0
  0
ARC
  5
229
100
AcDbEntity
  8
1
  6
CONTINUOUS
 62
           3
100
AcDbCircle
 10
870.532597603645
 20
13487.97552925038
 40
11.0
100
AcDbArc
 50
-90.0
 51
90.0
  0
ARC
  5
228
100
AcDbEntity
  8
1
  6
DOTTED
 62
           1
100
AcDbCircle
 10
700.532597603646
 20
13487.97552925038
 40
11.0
100
AcDbArc
 50
-90.0
 51
90.0
  0
ARC
  5
227
100
AcDbEntity
  8
1
  6
CONTINUOUS
 62
           3
100
AcDbCircle
 10
700.532597603646
 20
13487.97552925038
 40
11.0
100
AcDbArc
 50
90.0
 51
-90.0
  0
ARC
  5
226
100
AcDbEntity
  8
1
  6
CONTINUOUS
 62
           3
100
AcDbCircle
 10
722.032597603646
 20
13315.80005597637
 40
3.5
100
AcDbArc
 50
90.0
 51
-154.623066474842
  0
ARC
  5
225
100
AcDbEntity
  8
1
  6
DOTTED
 62
           1
100
AcDbCircle
 10
849.032597603645
 20
13315.80005597637
 40
3.5
100
AcDbArc
 50
-90.0
 51
-25.376933525158
  0
ARC
  5
224
100
AcDbEntity
  8
1
  6
CONTINUOUS
 62
           3
100
AcDbCircle
 10
772.032597603646
 20
13315.80005597637
 40
3.5
100
AcDbArc
 50
90.0
 51
-90.0
  0
ARC
  5
223
100
AcDbEntity
  8
1
  6
CONTINUOUS
 62
           3
100
AcDbCircle
 10
799.032597603646
 20
13315.80005597637
 40
3.5
100
AcDbArc
 50
-90.0
 51
90.0
  0
ARC
  5
222
100
AcDbEntity
  8
1
  6
CONTINUOUS
 62
           3
100
AcDbCircle
 10
822.032597603645
 20
13315.80005597637
 40
3.5
100
AcDbArc
 50
90.0
 51
-90.0
  0
ARC
  5
221
100
AcDbEntity
  8
1
  6
CONTINUOUS
 62
           3
100
AcDbCircle
 10
849.032597603645
 20
13315.80005597637
 40
3.499999999999
100
AcDbArc
 50
-25.376933525158
 51
90.0
  0
ARC
  5
220
100
AcDbEntity
  8
1
  6
DOTTED
 62
           1
100
AcDbCircle
 10
722.032597603646
 20
13315.80005597637
 40
3.499999999999
100
AcDbArc
 50
-154.623066474842
 51
-90.0
  0
ARC
  5
21F
100
AcDbEntity
  8
1
  6
CONTINUOUS
 62
           3
100
AcDbCircle
 10
749.032597603646
 20
13315.80005597637
 40
3.5
100
AcDbArc
 50
-90.0
 51
90.0
  0
ARC
  5
21E
100
AcDbEntity
  8
1
  6
CONTINUOUS
 62
           3
100
AcDbCircle
 10
749.032597603646
 20
13386.80005597637
 40
3.5
100
AcDbArc
 50
-90.0
 51
90.0
  0
ARC
  5
21D
100
AcDbEntity
  8
1
  6
CONTINUOUS
 62
           3
100
AcDbCircle
 10
722.032597603646
 20
13386.80005597637
 40
3.5
100
AcDbArc
 50
90.0
 51
-90.0
  0
ARC
  5
21C
100
AcDbEntity
  8
1
  6
CONTINUOUS
 62
           3
100
AcDbCircle
 10
849.032597603645
 20
13386.80005597637
 40
3.5
100
AcDbArc
 50
-90.0
 51
90.0
  0
ARC
  5
21B
100
AcDbEntity
  8
1
  6
CONTINUOUS
 62
           3
100
AcDbCircle
 10
822.032597603645
 20
13386.80005597637
 40
3.5
100
AcDbArc
 50
90.0
 51
-90.0
  0
ARC
  5
21A
100
AcDbEntity
  8
1
  6
CONTINUOUS
 62
           3
100
AcDbCircle
 10
799.032597603646
 20
13386.80005597637
 40
3.5
100
AcDbArc
 50
-90.0
 51
90.0
  0
ARC
  5
219
100
AcDbEntity
  8
1
  6
CONTINUOUS
 62
           3
100
AcDbCircle
 10
772.032597603646
 20
13386.80005597637
 40
3.5
100
AcDbArc
 50
90.0
 51
-90.0
  0
ARC
  5
218
100
AcDbEntity
  8
1
  6
CONTINUOUS
 62
           3
100
AcDbCircle
 10
870.532597603645
 20
13363.51880597637
 40
38.78125
100
AcDbArc
 50
76.960396496686
 51
103.039603503314
  0
ARC
  5
217
100
AcDbEntity
  8
1
  6
CONTINUOUS
 62
           3
100
AcDbCircle
 10
700.532597603646
 20
13363.51880597637
 40
38.78125
100
AcDbArc
 50
76.960396496686
 51
103.039603503314
  0
ARC
  5
216
100
AcDbEntity
  8
1
  6
CONTINUOUS
 62
           3
100
AcDbCircle
 10
530.532597603646
 20
13336.01880597637
 40
38.78125
100
AcDbArc
 50
76.960396496686
 51
103.039603503314
  0
ARC
  5
215
100
AcDbEntity
  8
1
  6
CONTINUOUS
 62
           3
100
AcDbCircle
 10
498.032597603646
 20
13351.30005597637
 40
19.5
100
AcDbArc
 50
-90.0
 51
-63.823047828333
  0
ARC
  5
214
100
AcDbEntity
  8
1
  6
CONTINUOUS
 62
           3
100
AcDbCircle
 10
498.032597603646
 20
13351.30005597637
 40
19.5
100
AcDbArc
 50
0.0
 51
63.823047828333
  0
ARC
  5
213
100
AcDbEntity
  8
1
  6
CONTINUOUS
 62
           3
100
AcDbCircle
 10
498.032597603646
 20
13351.30005597637
 40
19.5
100
AcDbArc
 50
-63.823047828333
 51
0.0
  0
ARC
  5
212
100
AcDbEntity
  8
1
  6
CONTINUOUS
 62
           3
100
AcDbCircle
 10
498.032597603646
 20
13351.30005597637
 40
19.5
100
AcDbArc
 50
63.823047828333
 51
90.0
  0
ARC
  5
211
100
AcDbEntity
  8
1
  6
CONTINUOUS
 62
           3
100
AcDbCircle
 10
404.095679825923
 20
13351.30005597637
 40
9.999999999998
100
AcDbArc
 50
145.596598256202
 51
-145.596598256202
  0
ARC
  5
210
100
AcDbEntity
  8
1
  6
CONTINUOUS
 62
           3
100
AcDbCircle
 10
414.095679825923
 20
13401.30005597637
 40
9.999999999998
100
AcDbArc
 50
-34.403401743798
 51
124.403401743789
  0
ARC
  5
20F
100
AcDbEntity
  8
1
  6
CONTINUOUS
 62
           3
100
AcDbCircle
 10
414.095679825923
 20
13301.30005597637
 40
9.999999999999
100
AcDbArc
 50
-124.403401743825
 51
34.403401743798
  0
ARC
  5
20E
100
AcDbEntity
  8
1
  6
CONTINUOUS
 62
           3
100
AcDbCircle
 10
364.095679825923
 20
13311.30005597637
 40
10.000000000008
100
AcDbArc
 50
55.59659825621
 51
124.403401743789
  0
ARC
  5
20D
100
AcDbEntity
  8
1
  6
CONTINUOUS
 62
           3
100
AcDbCircle
 10
314.095679825923
 20
13301.30005597637
 40
9.999999999998
100
AcDbArc
 50
145.596598256202
 51
-55.596598256176
  0
ARC
  5
20C
100
AcDbEntity
  8
1
  6
CONTINUOUS
 62
           3
100
AcDbCircle
 10
324.095679825923
 20
13351.30005597637
 40
9.999999999998
100
AcDbArc
 50
-34.403401743798
 51
34.403401743798
  0
ARC
  5
20B
100
AcDbEntity
  8
1
  6
CONTINUOUS
 62
           3
100
AcDbCircle
 10
314.095679825923
 20
13401.30005597637
 40
10.000000000008
100
AcDbArc
 50
55.596598256211
 51
-145.596598256202
  0
ARC
  5
20A
100
AcDbEntity
  8
1
  6
CONTINUOUS
 62
           3
100
AcDbCircle
 10
364.095679825923
 20
13391.30005597637
 40
9.999999999999
100
AcDbArc
 50
-124.403401743825
 51
-55.596598256176
  0
ARC
  5
209
100
AcDbEntity
  8
1
  6
DOTTED
 62
           1
100
AcDbCircle
 10
844.980656714243
 20
13745.186345239999
 40
11.0
100
AcDbArc
 50
-90.0
 51
4.310000000009
  0
ARC
  5
208
100
AcDbEntity
  8
1
  6
CONTINUOUS
 62
           3
100
AcDbCircle
 10
844.980656714243
 20
13745.186345239999
 40
11.0
100
AcDbArc
 50
90.0
 51
-175.69
  0
ARC
  5
207
100
AcDbEntity
  8
1
  6
CONTINUOUS
 62
           3
100
AcDbCircle
 10
857.756627158944
 20
13575.667099786289
 40
11.0
100
AcDbArc
 50
175.689999999991
 51
-4.309999999999
  0
ARC
  5
206
100
AcDbEntity
  8
1
  6
DOTTED
 62
           1
100
AcDbCircle
 10
870.532597603645
 20
13745.186345239999
 40
11.000000000001
100
AcDbArc
 50
175.689999999944
 51
-90.0
  0
ARC
  5
205
100
AcDbEntity
  8
1
  6
CONTINUOUS
 62
           3
100
AcDbCircle
 10
844.980656714243
 20
13745.186345239999
 40
11.0
100
AcDbArc
 50
4.310000000009
 51
90.0
  0
ARC
  5
204
100
AcDbEntity
  8
1
  6
CONTINUOUS
 62
           3
100
AcDbCircle
 10
870.532597603645
 20
13745.186345239999
 40
11.0
100
AcDbArc
 50
90.0
 51
175.689999999944
  0
ARC
  5
203
100
AcDbEntity
  8
1
  6
CONTINUOUS
 62
           3
100
AcDbCircle
 10
870.532597603645
 20
13745.186345239999
 40
11.0
100
AcDbArc
 50
-4.309999999999
 51
90.0
  0
LINE
  5
202
100
AcDbEntity
  8
1
  6
DOTTED
 62
           1
100
AcDbLine
 10
895.032597603645
 20
13297.25005597637
 11
893.032597603645
 21
13297.25005597637
  0
LINE
  5
201
100
AcDbEntity
  8
1
  6
DOTTED
 62
           1
100
AcDbLine
 10
895.032597603645
 20
13305.350055976371
 11
893.032597603645
 21
13305.350055976371
  0
LINE
  5
200
100
AcDbEntity
  8
1
  6
DOTTED
 62
           1
100
AcDbLine
 10
895.032597603645
 20
13397.25005597637
 11
893.032597603645
 21
13397.25005597637
  0
LINE
  5
1FF
100
AcDbEntity
  8
1
  6
DOTTED
 62
           1
100
AcDbLine
 10
895.032597603645
 20
13405.350055976371
 11
893.032597603645
 21
13405.350055976371
  0
LINE
  5
1FE
100
AcDbEntity
  8
1
  6
DOTTED
 62
           1
100
AcDbLine
 10
893.032597603645
 20
13448.92552925038
 11
895.032597603645
 21
13448.92552925038
  0
LINE
  5
1FD
100
AcDbEntity
  8
1
  6
DOTTED
 62
           1
100
AcDbLine
 10
893.032597603645
 20
13457.025529250381
 11
895.032597603645
 21
13457.025529250381
  0
LINE
  5
1FC
100
AcDbEntity
  8
1
  6
DOTTED
 62
           1
100
AcDbLine
 10
893.032597603645
 20
13518.92552925038
 11
895.032597603645
 21
13518.92552925038
  0
LINE
  5
1FB
100
AcDbEntity
  8
1
  6
DOTTED
 62
           1
100
AcDbLine
 10
893.032597603645
 20
13527.025529250381
 11
895.032597603645
 21
13527.025529250381
  0
LINE
  5
1FA
100
AcDbEntity
  8
1
  6
CONTINUOUS
 62
           3
100
AcDbLine
 10
468.032597603646
 20
13427.97552925038
 11
466.032597603646
 21
13427.97552925038
  0
LINE
  5
1F9
100
AcDbEntity
  8
1
  6
CONTINUOUS
 62
           3
100
AcDbLine
 10
469.032597603646
 20
13332.80005597637
 11
469.032597603646
 21
13333.80005597637
  0
LINE
  5
1F8
100
AcDbEntity
  8
1
  6
DOTTED
 62
           1
100
AcDbLine
 10
466.032597603646
 20
13403.90005597637
 11
468.032597603646
 21
13403.90005597637
  0
LINE
  5
1F7
100
AcDbEntity
  8
1
  6
DOTTED
 62
           1
100
AcDbLine
 10
466.032597603646
 20
13398.700055976369
 11
468.032597603646
 21
13398.700055976369
  0
LINE
  5
1F6
100
AcDbEntity
  8
1
  6
DOT_CENTER
 62
           1
100
AcDbLine
 10
460.258645372083
 20
13401.30005597637
 11
476.798645372083
 21
13401.30005597637
  0
LINE
  5
1F5
100
AcDbEntity
  8
1
  6
DOT_CENTER
 62
           1
100
AcDbLine
 10
476.798645372083
 20
13301.30005597637
 11
460.258645372083
 21
13301.30005597637
  0
LINE
  5
1F4
100
AcDbEntity
  8
1
  6
DOTTED
 62
           1
100
AcDbLine
 10
468.032597603646
 20
13303.90005597637
 11
466.032597603646
 21
13303.90005597637
  0
LINE
  5
1F3
100
AcDbEntity
  8
1
  6
DOTTED
 62
           1
100
AcDbLine
 10
468.032597603646
 20
13298.700055976369
 11
466.032597603646
 21
13298.700055976369
  0
LINE
  5
1F2
100
AcDbEntity
  8
1
  6
CONTINUOUS
 62
           3
100
AcDbLine
 10
468.032597603646
 20
13333.80005597637
 11
468.032597603646
 21
13291.30005597637
  0
LINE
  5
1F1
100
AcDbEntity
  8
1
  6
CONTINUOUS
 62
           3
100
AcDbLine
 10
468.032597603646
 20
13368.80005597637
 11
468.032597603646
 21
13333.80005597637
  0
LINE
  5
1F0
100
AcDbEntity
  8
1
  6
CONTINUOUS
 62
           3
100
AcDbLine
 10
466.032597603646
 20
13411.30005597637
 11
468.032597603646
 21
13411.30005597637
  0
LINE
  5
1EF
100
AcDbEntity
  8
1
  6
CONTINUOUS
 62
           3
100
AcDbLine
 10
468.032597603646
 20
13291.30005597637
 11
466.032597603646
 21
13291.30005597637
  0
LINE
  5
1EE
100
AcDbEntity
  8
1
  6
CONTINUOUS
 62
           3
100
AcDbLine
 10
468.032597603646
 20
13411.30005597637
 11
468.032597603646
 21
13368.80005597637
  0
LINE
  5
1ED
100
AcDbEntity
  8
1
  6
CONTINUOUS
 62
           3
100
AcDbLine
 10
466.032597603646
 20
13291.30005597637
 11
466.032597603646
 21
13411.30005597637
  0
LINE
  5
1EC
100
AcDbEntity
  8
1
  6
CONTINUOUS
 62
           3
100
AcDbLine
 10
469.032597603646
 20
13368.80005597637
 11
468.032597603646
 21
13368.80005597637
  0
LINE
  5
1EB
100
AcDbEntity
  8
1
  6
CONTINUOUS
 62
           3
100
AcDbLine
 10
469.032597603646
 20
13333.80005597637
 11
468.032597603646
 21
13333.80005597637
  0
LINE
  5
1EA
100
AcDbEntity
  8
1
  6
CONTINUOUS
 62
           3
100
AcDbLine
 10
469.032597603646
 20
13368.80005597637
 11
469.032597603646
 21
13369.80005597637
  0
LINE
  5
1E9
100
AcDbEntity
  8
1
  6
CONTINUOUS
 62
           3
100
AcDbLine
 10
469.032597603646
 20
13333.80005597637
 11
469.032597603646
 21
13368.80005597637
  0
LINE
  5
1E8
100
AcDbEntity
  8
1
  6
DOT_CENTER
 62
           1
100
AcDbLine
 10
460.258645372083
 20
13388.80005597637
 11
476.798645372083
 21
13388.80005597637
  0
LINE
  5
1E7
100
AcDbEntity
  8
1
  6
DOTTED
 62
           1
100
AcDbLine
 10
466.032597603646
 20
13386.200055976369
 11
468.032597603646
 21
13386.200055976369
  0
LINE
  5
1E6
100
AcDbEntity
  8
1
  6
DOTTED
 62
           1
100
AcDbLine
 10
466.032597603646
 20
13391.40005597637
 11
468.032597603646
 21
13391.40005597637
  0
LINE
  5
1E5
100
AcDbEntity
  8
1
  6
DOTTED
 62
           1
100
AcDbLine
 10
468.032597603646
 20
13311.200055976369
 11
466.032597603646
 21
13311.200055976369
  0
LINE
  5
1E4
100
AcDbEntity
  8
1
  6
DOTTED
 62
           1
100
AcDbLine
 10
468.032597603646
 20
13316.40005597637
 11
466.032597603646
 21
13316.40005597637
  0
LINE
  5
1E3
100
AcDbEntity
  8
1
  6
DOT_CENTER
 62
           1
100
AcDbLine
 10
476.798645372083
 20
13313.80005597637
 11
460.258645372083
 21
13313.80005597637
  0
LINE
  5
1E2
100
AcDbEntity
  8
1
  6
CONTINUOUS
 62
           3
100
AcDbLine
 10
483.032597603646
 20
13493.97552925038
 11
483.032597603646
 21
13492.97552925038
  0
LINE
  5
1E1
100
AcDbEntity
  8
1
  6
CONTINUOUS
 62
           3
100
AcDbLine
 10
471.032597603646
 20
13493.97552925038
 11
471.032597603646
 21
13481.97552925038
  0
LINE
  5
1E0
100
AcDbEntity
  8
1
  6
CONTINUOUS
 62
           3
100
AcDbLine
 10
469.032597603645
 20
13493.97552925038
 11
469.032597603645
 21
13526.97552925038
  0
LINE
  5
1DF
100
AcDbEntity
  8
1
  6
CONTINUOUS
 62
           3
100
AcDbLine
 10
469.032597603645
 20
13448.97552925038
 11
469.032597603645
 21
13481.97552925038
  0
LINE
  5
1DE
100
AcDbEntity
  8
1
  6
CONTINUOUS
 62
           3
100
AcDbLine
 10
480.532597603646
 20
13492.97552925038
 11
483.032597603646
 21
13492.97552925038
  0
LINE
  5
1DD
100
AcDbEntity
  8
1
  6
CONTINUOUS
 62
           3
100
AcDbLine
 10
483.032597603646
 20
13482.97552925038
 11
483.032597603646
 21
13481.97552925038
  0
LINE
  5
1DC
100
AcDbEntity
  8
1
  6
CONTINUOUS
 62
           3
100
AcDbLine
 10
483.032597603646
 20
13482.97552925038
 11
480.532597603646
 21
13482.97552925038
  0
LINE
  5
1DB
100
AcDbEntity
  8
1
  6
CONTINUOUS
 62
           3
100
AcDbLine
 10
480.532597603646
 20
13482.97552925038
 11
480.532597603646
 21
13492.97552925038
  0
LINE
  5
1DA
100
AcDbEntity
  8
1
  6
CONTINUOUS
 62
           3
100
AcDbLine
 10
468.032597603646
 20
13547.97552925038
 11
468.032597603646
 21
13427.97552925038
  0
LINE
  5
1D9
100
AcDbEntity
  8
1
  6
CONTINUOUS
 62
           3
100
AcDbLine
 10
466.032597603646
 20
13547.97552925038
 11
468.032597603646
 21
13547.97552925038
  0
LINE
  5
1D8
100
AcDbEntity
  8
1
  6
CONTINUOUS
 62
           3
100
AcDbLine
 10
466.032597603646
 20
13427.97552925038
 11
466.032597603646
 21
13547.97552925038
  0
LINE
  5
1D7
100
AcDbEntity
  8
1
  6
DOTTED
 62
           1
100
AcDbLine
 10
466.032597603646
 20
13542.9746543848
 11
468.032597603646
 21
13542.9746543848
  0
LINE
  5
1D6
100
AcDbEntity
  8
1
  6
DOTTED
 62
           1
100
AcDbLine
 10
466.032597603646
 20
13532.976618291839
 11
468.032597603646
 21
13532.976618291839
  0
LINE
  5
1D5
100
AcDbEntity
  8
1
  6
DOT_CENTER
 62
           1
100
AcDbLine
 10
460.258645372083
 20
13537.97552925038
 11
473.532721031552
 21
13537.97552925038
  0
LINE
  5
1D4
100
AcDbEntity
  8
1
  6
DOTTED
 62
           1
100
AcDbLine
 10
468.032597603646
 20
13443.97552925038
 11
466.032597603646
 21
13443.97552925038
  0
LINE
  5
1D3
100
AcDbEntity
  8
1
  6
DOTTED
 62
           1
100
AcDbLine
 10
468.032597603646
 20
13431.97552925038
 11
466.032597603646
 21
13431.97552925038
  0
LINE
  5
1D2
100
AcDbEntity
  8
1
  6
DOT_CENTER
 62
           1
100
AcDbLine
 10
472.696594402206
 20
13437.97552925038
 11
460.258645372083
 21
13437.97552925038
  0
LINE
  5
1D1
100
AcDbEntity
  8
1
  6
DOT_CENTER
 62
           1
100
AcDbLine
 10
472.696594402206
 20
13450.47552925038
 11
460.258645372083
 21
13450.47552925038
  0
LINE
  5
1D0
100
AcDbEntity
  8
1
  6
DOTTED
 62
           1
100
AcDbLine
 10
468.032597603646
 20
13444.47552925038
 11
466.032597603646
 21
13444.47552925038
  0
LINE
  5
1CF
100
AcDbEntity
  8
1
  6
DOTTED
 62
           1
100
AcDbLine
 10
468.032597603646
 20
13456.47552925038
 11
466.032597603646
 21
13456.47552925038
  0
LINE
  5
1CE
100
AcDbEntity
  8
1
  6
DOT_CENTER
 62
           1
100
AcDbLine
 10
460.258645372083
 20
13525.47552925038
 11
473.532721031552
 21
13525.47552925038
  0
LINE
  5
1CD
100
AcDbEntity
  8
1
  6
DOTTED
 62
           1
100
AcDbLine
 10
466.032597603646
 20
13520.476618291839
 11
468.032597603646
 21
13520.476618291839
  0
LINE
  5
1CC
100
AcDbEntity
  8
1
  6
DOTTED
 62
           1
100
AcDbLine
 10
466.032597603646
 20
13530.4746543848
 11
468.032597603646
 21
13530.4746543848
  0
LINE
  5
1CB
100
AcDbEntity
  8
1
  6
CONTINUOUS
 62
           3
100
AcDbLine
 10
878.032597603645
 20
13476.97552925038
 11
870.532597603645
 21
13476.97552925038
  0
LINE
  5
1CA
100
AcDbEntity
  8
1
  6
CONTINUOUS
 62
           3
100
AcDbLine
 10
870.532597603645
 20
13476.97552925038
 11
700.532597603646
 21
13476.97552925038
  0
LINE
  5
1C9
100
AcDbEntity
  8
1
  6
CONTINUOUS
 62
           3
100
AcDbLine
 10
870.532597603645
 20
13498.97552925038
 11
700.532597603646
 21
13498.97552925038
  0
LINE
  5
1C8
100
AcDbEntity
  8
1
  6
DOT_CENTER
 62
           1
100
AcDbLine
 10
498.032597603646
 20
13546.488012182799
 11
498.032597603646
 21
13431.752085006179
  0
LINE
  5
1C7
100
AcDbEntity
  8
1
  6
CONTINUOUS
 62
           3
100
AcDbLine
 10
517.532597603646
 20
13482.97552925038
 11
513.032597603646
 21
13482.97552925038
  0
LINE
  5
1C6
100
AcDbEntity
  8
1
  6
CONTINUOUS
 62
           3
100
AcDbLine
 10
513.032597603646
 20
13482.97552925038
 11
513.032597603646
 21
13481.97552925038
  0
LINE
  5
1C5
100
AcDbEntity
  8
1
  6
CONTINUOUS
 62
           3
100
AcDbLine
 10
517.532597603646
 20
13493.97552925038
 11
468.032597603646
 21
13493.97552925038
  0
LINE
  5
1C4
100
AcDbEntity
  8
1
  6
CONTINUOUS
 62
           3
100
AcDbLine
 10
483.032597603646
 20
13492.97552925038
 11
513.032597603646
 21
13492.97552925038
  0
LINE
  5
1C3
100
AcDbEntity
  8
1
  6
CONTINUOUS
 62
           3
100
AcDbLine
 10
513.032597603646
 20
13493.97552925038
 11
513.032597603646
 21
13492.97552925038
  0
LINE
  5
1C2
100
AcDbEntity
  8
1
  6
CONTINUOUS
 62
           3
100
AcDbLine
 10
513.032597603646
 20
13482.97552925038
 11
483.032597603646
 21
13482.97552925038
  0
LINE
  5
1C1
100
AcDbEntity
  8
1
  6
CONTINUOUS
 62
           3
100
AcDbLine
 10
468.032597603646
 20
13528.97552925038
 11
515.532597603646
 21
13528.97552925038
  0
LINE
  5
1C0
100
AcDbEntity
  8
1
  6
CONTINUOUS
 62
           3
100
AcDbLine
 10
517.532597603646
 20
13526.97552925038
 11
517.532597603646
 21
13493.97552925038
  0
LINE
  5
1BF
100
AcDbEntity
  8
1
  6
CONTINUOUS
 62
           3
100
AcDbLine
 10
468.032597603646
 20
13481.97552925038
 11
517.532597603646
 21
13481.97552925038
  0
LINE
  5
1BE
100
AcDbEntity
  8
1
  6
CONTINUOUS
 62
           3
100
AcDbLine
 10
517.532597603646
 20
13481.97552925038
 11
517.532597603646
 21
13448.97552925038
  0
LINE
  5
1BD
100
AcDbEntity
  8
1
  6
CONTINUOUS
 62
           3
100
AcDbLine
 10
515.532597603646
 20
13446.97552925038
 11
468.032597603646
 21
13446.97552925038
  0
LINE
  5
1BC
100
AcDbEntity
  8
1
  6
CONTINUOUS
 62
           3
100
AcDbLine
 10
519.532597603646
 20
13498.97552925038
 11
519.532597603646
 21
13494.97552925038
  0
LINE
  5
1BB
100
AcDbEntity
  8
1
  6
DOT_CENTER
 62
           1
100
AcDbLine
 10
530.532597603646
 20
13476.97552925038
 11
530.532597603646
 21
13498.97552925038
  0
LINE
  5
1BA
100
AcDbEntity
  8
1
  6
CONTINUOUS
 62
           3
100
AcDbLine
 10
530.532597603646
 20
13498.97552925038
 11
519.532597603646
 21
13498.97552925038
  0
LINE
  5
1B9
100
AcDbEntity
  8
1
  6
CONTINUOUS
 62
           3
100
AcDbLine
 10
519.532597603646
 20
13480.97552925038
 11
519.532597603646
 21
13477.97552925038
  0
LINE
  5
1B8
100
AcDbEntity
  8
1
  6
DOT_CENTER
 62
           1
100
AcDbLine
 10
530.532597603646
 20
13466.41113120159
 11
530.532597603646
 21
13476.97552925038
  0
LINE
  5
1B7
100
AcDbEntity
  8
1
  6
CONTINUOUS
 62
           3
100
AcDbLine
 10
520.532597603646
 20
13476.97552925038
 11
530.532597603646
 21
13476.97552925038
  0
LINE
  5
1B6
100
AcDbEntity
  8
1
  6
CONTINUOUS
 62
           3
100
AcDbLine
 10
513.032597603646
 20
13492.97552925038
 11
517.532597603646
 21
13492.97552925038
  0
LINE
  5
1B5
100
AcDbEntity
  8
1
  6
CONTINUOUS
 62
           3
100
AcDbLine
 10
518.532597603646
 20
13491.97552925038
 11
518.532597603646
 21
13483.97552925038
  0
LINE
  5
1B4
100
AcDbEntity
  8
1
  6
DOT_CENTER
 62
           1
100
AcDbLine
 10
902.673727777727
 20
13522.97552925038
 11
886.693727777727
 21
13522.97552925038
  0
LINE
  5
1B3
100
AcDbEntity
  8
1
  6
DOT_CENTER
 62
           1
100
AcDbLine
 10
902.513727777727
 20
13452.97552925038
 11
886.693727777727
 21
13452.97552925038
  0
LINE
  5
1B2
100
AcDbEntity
  8
1
  6
CONTINUOUS
 62
           3
100
AcDbLine
 10
883.032597603645
 20
13510.97552925038
 11
883.032597603645
 21
13464.97552925038
  0
LINE
  5
1B1
100
AcDbEntity
  8
1
  6
CONTINUOUS
 62
           3
100
AcDbLine
 10
893.032597603645
 20
13462.97552925038
 11
893.032597603645
 21
13512.97552925038
  0
LINE
  5
1B0
100
AcDbEntity
  8
1
  6
CONTINUOUS
 62
           3
100
AcDbLine
 10
893.032597603645
 20
13512.97552925038
 11
885.032597603645
 21
13512.97552925038
  0
LINE
  5
1AF
100
AcDbEntity
  8
1
  6
CONTINUOUS
 62
           3
100
AcDbLine
 10
893.032597603645
 20
13440.47552925038
 11
893.032597603645
 21
13462.97552925038
  0
LINE
  5
1AE
100
AcDbEntity
  8
1
  6
CONTINUOUS
 62
           3
100
AcDbLine
 10
885.032597603645
 20
13462.97552925038
 11
893.032597603645
 21
13462.97552925038
  0
LINE
  5
1AD
100
AcDbEntity
  8
1
  6
CONTINUOUS
 62
           3
100
AcDbLine
 10
893.032597603645
 20
13512.97552925038
 11
893.032597603645
 21
13535.47552925038
  0
LINE
  5
1AC
100
AcDbEntity
  8
1
  6
CONTINUOUS
 62
           3
100
AcDbLine
 10
893.032597603645
 20
13535.47552925038
 11
895.032597603645
 21
13535.47552925038
  0
LINE
  5
1AB
100
AcDbEntity
  8
1
  6
CONTINUOUS
 62
           3
100
AcDbLine
 10
895.032597603645
 20
13535.47552925038
 11
895.032597603645
 21
13440.47552925038
  0
LINE
  5
1AA
100
AcDbEntity
  8
1
  6
CONTINUOUS
 62
           3
100
AcDbLine
 10
895.032597603645
 20
13440.47552925038
 11
893.032597603645
 21
13440.47552925038
  0
LINE
  5
1A9
100
AcDbEntity
  8
1
  6
CONTINUOUS
 62
           3
100
AcDbLine
 10
700.532597603646
 20
13476.97552925038
 11
530.532597603646
 21
13476.97552925038
  0
LINE
  5
1A8
100
AcDbEntity
  8
1
  6
CONTINUOUS
 62
           3
100
AcDbLine
 10
700.532597603646
 20
13498.97552925038
 11
530.532597603646
 21
13498.97552925038
  0
LINE
  5
1A7
100
AcDbEntity
  8
1
  6
DOT_CENTER
 62
           1
100
AcDbLine
 10
530.532597603646
 20
13498.97552925038
 11
530.532597603646
 21
13509.351131201591
  0
LINE
  5
1A6
100
AcDbEntity
  8
1
  6
DOT_CENTER
 62
           1
100
AcDbLine
 10
700.532597603646
 20
13508.842226776929
 11
700.532597603646
 21
13466.662226776931
  0
LINE
  5
1A5
100
AcDbEntity
  8
1
  6
CONTINUOUS
 62
           3
100
AcDbLine
 10
878.032597603645
 20
13498.97552925038
 11
870.532597603645
 21
13498.97552925038
  0
LINE
  5
1A4
100
AcDbEntity
  8
1
  6
DOT_CENTER
 62
           1
100
AcDbLine
 10
904.716931656722
 20
13487.97552925038
 11
881.532597603645
 21
13487.97552925038
  0
LINE
  5
1A3
100
AcDbEntity
  8
1
  6
CONTINUOUS
 62
           3
100
AcDbLine
 10
881.501489956533
 20
13487.14884880984
 11
881.501489956533
 21
13487.14884880984
  0
LINE
  5
1A2
100
AcDbEntity
  8
1
  6
CONTINUOUS
 62
           3
100
AcDbLine
 10
550.532597603646
 20
13306.30005597637
 11
550.532597603646
 21
13340.30005597637
  0
LINE
  5
1A1
100
AcDbEntity
  8
1
  6
DOTTED
 62
           1
100
AcDbLine
 10
560.532597603646
 20
13336.30005597637
 11
550.532597603646
 21
13336.30005597637
  0
LINE
  5
1A0
100
AcDbEntity
  8
1
  6
DOTTED
 62
           1
100
AcDbLine
 10
560.532597603646
 20
13328.80005597637
 11
550.532597603646
 21
13328.80005597637
  0
LINE
  5
19F
100
AcDbEntity
  8
1
  6
CONTINUOUS
 62
           3
100
AcDbLine
 10
550.532597603646
 20
13328.80005597637
 11
520.032597603646
 21
13328.80005597637
  0
LINE
  5
19E
100
AcDbEntity
  8
1
  6
CONTINUOUS
 62
           3
100
AcDbLine
 10
550.532597603646
 20
13336.30005597637
 11
530.532597603646
 21
13336.30005597637
  0
LINE
  5
19D
100
AcDbEntity
  8
1
  6
DOTTED
 62
           1
100
AcDbLine
 10
715.532597603646
 20
13281.80005597637
 11
725.532597603646
 21
13281.80005597637
  0
LINE
  5
19C
100
AcDbEntity
  8
1
  6
DOTTED
 62
           1
100
AcDbLine
 10
725.532597603646
 20
13301.30005597637
 11
715.532597603646
 21
13301.30005597637
  0
LINE
  5
19B
100
AcDbEntity
  8
1
  6
CONTINUOUS
 62
           3
100
AcDbLine
 10
715.532597603646
 20
13301.30005597637
 11
684.032597603646
 21
13301.30005597637
  0
LINE
  5
19A
100
AcDbEntity
  8
1
  6
CONTINUOUS
 62
           3
100
AcDbLine
 10
715.532597603646
 20
13309.30005597637
 11
700.532597603646
 21
13309.30005597637
  0
LINE
  5
199
100
AcDbEntity
  8
1
  6
CONTINUOUS
 62
           3
100
AcDbLine
 10
715.532597603646
 20
13279.80005597637
 11
715.532597603646
 21
13313.80005597637
  0
LINE
  5
198
100
AcDbEntity
  8
1
  6
DOTTED
 62
           1
100
AcDbLine
 10
725.532597603646
 20
13309.30005597637
 11
715.532597603646
 21
13309.30005597637
  0
LINE
  5
197
100
AcDbEntity
  8
1
  6
DOTTED
 62
           1
100
AcDbLine
 10
725.532597603646
 20
13312.30005597637
 11
722.032597603646
 21
13312.30005597637
  0
LINE
  5
196
100
AcDbEntity
  8
1
  6
CONTINUOUS
 62
           3
100
AcDbLine
 10
718.870319943478
 20
13314.30005597637
 11
725.032597603646
 21
13314.30005597637
  0
LINE
  5
195
100
AcDbEntity
  8
1
  6
DOTTED
 62
           1
100
AcDbLine
 10
855.532597603645
 20
13301.30005597637
 11
845.532597603645
 21
13301.30005597637
  0
LINE
  5
194
100
AcDbEntity
  8
1
  6
DOTTED
 62
           1
100
AcDbLine
 10
855.532597603645
 20
13309.30005597637
 11
845.532597603645
 21
13309.30005597637
  0
LINE
  5
193
100
AcDbEntity
  8
1
  6
CONTINUOUS
 62
           3
100
AcDbLine
 10
845.532597603645
 20
13301.30005597637
 11
725.532597603646
 21
13301.30005597637
  0
LINE
  5
192
100
AcDbEntity
  8
1
  6
CONTINUOUS
 62
           3
100
AcDbLine
 10
845.532597603645
 20
13309.30005597637
 11
725.532597603646
 21
13309.30005597637
  0
LINE
  5
191
100
AcDbEntity
  8
1
  6
CONTINUOUS
 62
           3
100
AcDbLine
 10
845.532597603645
 20
13279.80005597637
 11
845.532597603645
 21
13313.80005597637
  0
LINE
  5
190
100
AcDbEntity
  8
1
  6
CONTINUOUS
 62
           3
100
AcDbLine
 10
845.532597603645
 20
13312.30005597637
 11
822.032597603645
 21
13312.30005597637
  0
LINE
  5
18F
100
AcDbEntity
  8
1
  6
DOTTED
 62
           1
100
AcDbLine
 10
845.532597603645
 20
13281.80005597637
 11
855.532597603645
 21
13281.80005597637
  0
LINE
  5
18E
100
AcDbEntity
  8
1
  6
CONTINUOUS
 62
           3
100
AcDbLine
 10
855.032597603645
 20
13279.30005597637
 11
846.032597603645
 21
13279.30005597637
  0
LINE
  5
18D
100
AcDbEntity
  8
1
  6
CONTINUOUS
 62
           3
100
AcDbLine
 10
855.532597603645
 20
13313.80005597637
 11
855.532597603645
 21
13279.80005597637
  0
LINE
  5
18C
100
AcDbEntity
  8
1
  6
CONTINUOUS
 62
           3
100
AcDbLine
 10
846.032597603645
 20
13314.30005597637
 11
855.032597603645
 21
13314.30005597637
  0
LINE
  5
18B
100
AcDbEntity
  8
1
  6
CONTINUOUS
 62
           3
100
AcDbLine
 10
725.032597603646
 20
13279.30005597637
 11
716.032597603646
 21
13279.30005597637
  0
LINE
  5
18A
100
AcDbEntity
  8
1
  6
CONTINUOUS
 62
           3
100
AcDbLine
 10
725.532597603646
 20
13313.80005597637
 11
725.532597603646
 21
13279.80005597637
  0
LINE
  5
189
100
AcDbEntity
  8
1
  6
CONTINUOUS
 62
           3
100
AcDbLine
 10
716.032597603646
 20
13314.30005597637
 11
718.870319943478
 21
13314.30005597637
  0
LINE
  5
188
100
AcDbEntity
  8
1
  6
DOTTED
 62
           1
100
AcDbLine
 10
560.532597603646
 20
13308.30005597637
 11
550.532597603646
 21
13308.30005597637
  0
LINE
  5
187
100
AcDbEntity
  8
1
  6
CONTINUOUS
 62
           3
100
AcDbLine
 10
586.532597603646
 20
13340.80005597637
 11
555.532597603646
 21
13340.80005597637
  0
LINE
  5
186
100
AcDbEntity
  8
1
  6
CONTINUOUS
 62
           3
100
AcDbLine
 10
560.032597603646
 20
13305.80005597637
 11
551.032597603646
 21
13305.80005597637
  0
LINE
  5
185
100
AcDbEntity
  8
1
  6
CONTINUOUS
 62
           3
100
AcDbLine
 10
560.532597603646
 20
13340.30005597637
 11
560.532597603646
 21
13306.30005597637
  0
LINE
  5
184
100
AcDbEntity
  8
1
  6
CONTINUOUS
 62
           3
100
AcDbLine
 10
551.032597603646
 20
13340.80005597637
 11
560.532597603646
 21
13340.80005597637
  0
LINE
  5
183
100
AcDbEntity
  8
1
  6
CONTINUOUS
 62
           3
100
AcDbLine
 10
879.282597603645
 20
13328.30005597637
 11
883.032597603645
 21
13328.30005597637
  0
LINE
  5
182
100
AcDbEntity
  8
1
  6
CONTINUOUS
 62
           3
100
AcDbLine
 10
879.282597603645
 20
13326.30005597637
 11
860.532597603645
 21
13326.30005597637
  0
LINE
  5
181
100
AcDbEntity
  8
1
  6
CONTINUOUS
 62
           3
100
AcDbLine
 10
879.282597603645
 20
13328.30005597637
 11
879.282597603645
 21
13326.30005597637
  0
LINE
  5
180
100
AcDbEntity
  8
1
  6
CONTINUOUS
 62
           3
100
AcDbLine
 10
861.782597603645
 20
13328.30005597637
 11
879.282597603645
 21
13328.30005597637
  0
LINE
  5
17F
100
AcDbEntity
  8
1
  6
CONTINUOUS
 62
           3
100
AcDbLine
 10
843.532597603645
 20
13326.30005597637
 11
709.282597603646
 21
13326.30005597637
  0
LINE
  5
17E
100
AcDbEntity
  8
1
  6
CONTINUOUS
 62
           3
100
AcDbLine
 10
861.782597603645
 20
13328.30005597637
 11
861.782597603645
 21
13326.30005597637
  0
LINE
  5
17D
100
AcDbEntity
  8
1
  6
CONTINUOUS
 62
           3
100
AcDbLine
 10
879.282597603645
 20
13376.30005597637
 11
881.032597603645
 21
13376.30005597637
  0
LINE
  5
17C
100
AcDbEntity
  8
1
  6
CONTINUOUS
 62
           3
100
AcDbLine
 10
879.282597603645
 20
13374.30005597637
 11
861.782597603645
 21
13374.30005597637
  0
LINE
  5
17B
100
AcDbEntity
  8
1
  6
CONTINUOUS
 62
           3
100
AcDbLine
 10
879.282597603645
 20
13376.30005597637
 11
879.282597603645
 21
13374.30005597637
  0
LINE
  5
17A
100
AcDbEntity
  8
1
  6
CONTINUOUS
 62
           3
100
AcDbLine
 10
861.782597603645
 20
13374.30005597637
 11
860.032597603645
 21
13374.30005597637
  0
LINE
  5
179
100
AcDbEntity
  8
1
  6
CONTINUOUS
 62
           3
100
AcDbLine
 10
860.532597603645
 20
13376.30005597637
 11
879.282597603645
 21
13376.30005597637
  0
LINE
  5
178
100
AcDbEntity
  8
1
  6
CONTINUOUS
 62
           3
100
AcDbLine
 10
861.782597603645
 20
13376.30005597637
 11
861.782597603645
 21
13374.30005597637
  0
LINE
  5
177
100
AcDbEntity
  8
1
  6
CONTINUOUS
 62
           3
100
AcDbLine
 10
709.282597603646
 20
13326.30005597637
 11
691.782597603646
 21
13326.30005597637
  0
LINE
  5
176
100
AcDbEntity
  8
1
  6
CONTINUOUS
 62
           3
100
AcDbLine
 10
709.282597603646
 20
13328.80005597637
 11
691.782597603646
 21
13328.80005597637
  0
LINE
  5
175
100
AcDbEntity
  8
1
  6
CONTINUOUS
 62
           3
100
AcDbLine
 10
709.282597603646
 20
13328.80005597637
 11
709.282597603646
 21
13326.30005597637
  0
LINE
  5
174
100
AcDbEntity
  8
1
  6
CONTINUOUS
 62
           3
100
AcDbLine
 10
691.782597603646
 20
13326.30005597637
 11
683.532597603646
 21
13326.30005597637
  0
LINE
  5
173
100
AcDbEntity
  8
1
  6
CONTINUOUS
 62
           3
100
AcDbLine
 10
691.782597603646
 20
13328.80005597637
 11
560.532597603646
 21
13328.80005597637
  0
LINE
  5
172
100
AcDbEntity
  8
1
  6
CONTINUOUS
 62
           3
100
AcDbLine
 10
691.782597603646
 20
13328.80005597637
 11
691.782597603646
 21
13326.30005597637
  0
LINE
  5
171
100
AcDbEntity
  8
1
  6
CONTINUOUS
 62
           3
100
AcDbLine
 10
709.282597603646
 20
13376.30005597637
 11
710.532597603646
 21
13376.30005597637
  0
LINE
  5
170
100
AcDbEntity
  8
1
  6
CONTINUOUS
 62
           3
100
AcDbLine
 10
709.282597603646
 20
13373.80005597637
 11
711.032597603646
 21
13373.80005597637
  0
LINE
  5
16F
100
AcDbEntity
  8
1
  6
CONTINUOUS
 62
           3
100
AcDbLine
 10
709.282597603646
 20
13376.30005597637
 11
709.282597603646
 21
13373.80005597637
  0
LINE
  5
16E
100
AcDbEntity
  8
1
  6
CONTINUOUS
 62
           3
100
AcDbLine
 10
691.782597603646
 20
13376.30005597637
 11
709.282597603646
 21
13376.30005597637
  0
LINE
  5
16D
100
AcDbEntity
  8
1
  6
CONTINUOUS
 62
           3
100
AcDbLine
 10
691.782597603646
 20
13373.80005597637
 11
709.282597603646
 21
13373.80005597637
  0
LINE
  5
16C
100
AcDbEntity
  8
1
  6
CONTINUOUS
 62
           3
100
AcDbLine
 10
691.782597603646
 20
13376.30005597637
 11
691.782597603646
 21
13373.80005597637
  0
LINE
  5
16B
100
AcDbEntity
  8
1
  6
CONTINUOUS
 62
           3
100
AcDbLine
 10
684.032597603646
 20
13376.30005597637
 11
691.782597603646
 21
13376.30005597637
  0
LINE
  5
16A
100
AcDbEntity
  8
1
  6
CONTINUOUS
 62
           3
100
AcDbLine
 10
520.032597603646
 20
13373.80005597637
 11
691.782597603646
 21
13373.80005597637
  0
LINE
  5
169
100
AcDbEntity
  8
1
  6
DOT_CENTER
 62
           1
100
AcDbLine
 10
700.532597603646
 20
13410.17219232744
 11
700.532597603646
 21
13291.69219232744
  0
LINE
  5
168
100
AcDbEntity
  8
1
  6
DOT_CENTER
 62
           1
100
AcDbLine
 10
870.532597603645
 20
13410.443929714989
 11
870.532597603645
 21
13292.23392971499
  0
LINE
  5
167
100
AcDbEntity
  8
1
  6
CONTINUOUS
 62
           3
100
AcDbLine
 10
799.032597603646
 20
13312.30005597637
 11
772.032597603646
 21
13312.30005597637
  0
LINE
  5
166
100
AcDbEntity
  8
1
  6
CONTINUOUS
 62
           3
100
AcDbLine
 10
799.032597603646
 20
13319.30005597637
 11
772.032597603646
 21
13319.30005597637
  0
LINE
  5
165
100
AcDbEntity
  8
1
  6
CONTINUOUS
 62
           3
100
AcDbLine
 10
849.032597603645
 20
13319.30005597637
 11
822.032597603645
 21
13319.30005597637
  0
LINE
  5
164
100
AcDbEntity
  8
1
  6
DOTTED
 62
           1
100
AcDbLine
 10
849.032597603645
 20
13312.30005597637
 11
845.532597603645
 21
13312.30005597637
  0
LINE
  5
163
100
AcDbEntity
  8
1
  6
CONTINUOUS
 62
           3
100
AcDbLine
 10
749.032597603646
 20
13312.30005597637
 11
725.532597603646
 21
13312.30005597637
  0
LINE
  5
162
100
AcDbEntity
  8
1
  6
CONTINUOUS
 62
           3
100
AcDbLine
 10
749.032597603646
 20
13319.30005597637
 11
722.032597603646
 21
13319.30005597637
  0
LINE
  5
161
100
AcDbEntity
  8
1
  6
CONTINUOUS
 62
           3
100
AcDbLine
 10
722.032597603646
 20
13383.30005597637
 11
749.032597603646
 21
13383.30005597637
  0
LINE
  5
160
100
AcDbEntity
  8
1
  6
CONTINUOUS
 62
           3
100
AcDbLine
 10
722.032597603646
 20
13390.30005597637
 11
749.032597603646
 21
13390.30005597637
  0
LINE
  5
15F
100
AcDbEntity
  8
1
  6
CONTINUOUS
 62
           3
100
AcDbLine
 10
822.032597603645
 20
13390.30005597637
 11
849.032597603645
 21
13390.30005597637
  0
LINE
  5
15E
100
AcDbEntity
  8
1
  6
CONTINUOUS
 62
           3
100
AcDbLine
 10
822.032597603645
 20
13383.30005597637
 11
849.032597603645
 21
13383.30005597637
  0
LINE
  5
15D
100
AcDbEntity
  8
1
  6
CONTINUOUS
 62
           3
100
AcDbLine
 10
772.032597603646
 20
13383.30005597637
 11
799.032597603646
 21
13383.30005597637
  0
LINE
  5
15C
100
AcDbEntity
  8
1
  6
CONTINUOUS
 62
           3
100
AcDbLine
 10
772.032597603646
 20
13390.30005597637
 11
799.032597603646
 21
13390.30005597637
  0
LINE
  5
15B
100
AcDbEntity
  8
1
  6
CONTINUOUS
 62
           3
100
AcDbLine
 10
870.532597603645
 20
13309.30005597637
 11
855.532597603645
 21
13309.30005597637
  0
LINE
  5
15A
100
AcDbEntity
  8
1
  6
CONTINUOUS
 62
           3
100
AcDbLine
 10
700.532597603646
 20
13321.30005597637
 11
870.532597603645
 21
13321.30005597637
  0
LINE
  5
159
100
AcDbEntity
  8
1
  6
CONTINUOUS
 62
           3
100
AcDbLine
 10
870.532597603645
 20
13381.30005597637
 11
700.532597603646
 21
13381.30005597637
  0
LINE
  5
158
100
AcDbEntity
  8
1
  6
CONTINUOUS
 62
           3
100
AcDbLine
 10
700.532597603646
 20
13393.30005597637
 11
870.532597603645
 21
13393.30005597637
  0
LINE
  5
157
100
AcDbEntity
  8
1
  6
DOT_CENTER
 62
           1
100
AcDbLine
 10
893.032597603645
 20
13301.30005597637
 11
904.852597603646
 21
13301.30005597637
  0
LINE
  5
156
100
AcDbEntity
  8
1
  6
DOT_CENTER
 62
           1
100
AcDbLine
 10
893.032597603645
 20
13401.30005597637
 11
906.092597603645
 21
13401.30005597637
  0
LINE
  5
155
100
AcDbEntity
  8
1
  6
CONTINUOUS
 62
           3
100
AcDbLine
 10
883.032597603645
 20
13374.30005597637
 11
883.032597603645
 21
13328.30005597637
  0
LINE
  5
154
100
AcDbEntity
  8
1
  6
CONTINUOUS
 62
           3
100
AcDbLine
 10
893.032597603645
 20
13301.30005597637
 11
893.032597603645
 21
13288.80005597637
  0
LINE
  5
153
100
AcDbEntity
  8
1
  6
CONTINUOUS
 62
           3
100
AcDbLine
 10
884.032597603645
 20
13301.30005597637
 11
893.032597603645
 21
13301.30005597637
  0
LINE
  5
152
100
AcDbEntity
  8
1
  6
CONTINUOUS
 62
           3
100
AcDbLine
 10
883.032597603645
 20
13328.30005597637
 11
883.032597603645
 21
13302.30005597637
  0
LINE
  5
151
100
AcDbEntity
  8
1
  6
CONTINUOUS
 62
           3
100
AcDbLine
 10
860.032597603645
 20
13328.30005597637
 11
861.782597603645
 21
13328.30005597637
  0
LINE
  5
150
100
AcDbEntity
  8
1
  6
CONTINUOUS
 62
           3
100
AcDbLine
 10
859.532597603645
 20
13373.80005597637
 11
859.532597603645
 21
13328.80005597637
  0
LINE
  5
14F
100
AcDbEntity
  8
1
  6
CONTINUOUS
 62
           3
100
AcDbLine
 10
883.032597603645
 20
13374.30005597637
 11
879.282597603645
 21
13374.30005597637
  0
LINE
  5
14E
100
AcDbEntity
  8
1
  6
CONTINUOUS
 62
           3
100
AcDbLine
 10
883.032597603645
 20
13400.30005597637
 11
883.032597603645
 21
13374.30005597637
  0
LINE
  5
14D
100
AcDbEntity
  8
1
  6
CONTINUOUS
 62
           3
100
AcDbLine
 10
893.032597603645
 20
13401.30005597637
 11
893.032597603645
 21
13301.30005597637
  0
LINE
  5
14C
100
AcDbEntity
  8
1
  6
CONTINUOUS
 62
           3
100
AcDbLine
 10
893.032597603645
 20
13401.30005597637
 11
884.032597603645
 21
13401.30005597637
  0
LINE
  5
14B
100
AcDbEntity
  8
1
  6
CONTINUOUS
 62
           3
100
AcDbLine
 10
881.532597603645
 20
13325.80005597637
 11
881.532597603645
 21
13301.80005597637
  0
LINE
  5
14A
100
AcDbEntity
  8
1
  6
CONTINUOUS
 62
           3
100
AcDbLine
 10
846.532597603645
 20
13373.30005597637
 11
846.532597603645
 21
13329.30005597637
  0
LINE
  5
149
100
AcDbEntity
  8
1
  6
CONTINUOUS
 62
           3
100
AcDbLine
 10
881.032597603645
 20
13326.30005597637
 11
879.282597603645
 21
13326.30005597637
  0
LINE
  5
148
100
AcDbEntity
  8
1
  6
CONTINUOUS
 62
           3
100
AcDbLine
 10
709.282597603646
 20
13376.30005597637
 11
843.532597603645
 21
13376.30005597637
  0
LINE
  5
147
100
AcDbEntity
  8
1
  6
CONTINUOUS
 62
           3
100
AcDbLine
 10
683.532597603646
 20
13376.80005597637
 11
683.532597603646
 21
13400.80005597637
  0
LINE
  5
146
100
AcDbEntity
  8
1
  6
CONTINUOUS
 62
           3
100
AcDbLine
 10
710.532597603646
 20
13326.30005597637
 11
709.282597603646
 21
13326.30005597637
  0
LINE
  5
145
100
AcDbEntity
  8
1
  6
CONTINUOUS
 62
           3
100
AcDbLine
 10
857.532597603645
 20
13329.30005597637
 11
857.532597603645
 21
13373.30005597637
  0
LINE
  5
144
100
AcDbEntity
  8
1
  6
CONTINUOUS
 62
           3
100
AcDbLine
 10
683.532597603646
 20
13301.80005597637
 11
683.532597603646
 21
13326.30005597637
  0
LINE
  5
143
100
AcDbEntity
  8
1
  6
CONTINUOUS
 62
           3
100
AcDbLine
 10
881.032597603645
 20
13301.30005597637
 11
855.532597603645
 21
13301.30005597637
  0
LINE
  5
142
100
AcDbEntity
  8
1
  6
CONTINUOUS
 62
           3
100
AcDbLine
 10
881.532597603645
 20
13400.80005597637
 11
881.532597603645
 21
13376.80005597637
  0
LINE
  5
141
100
AcDbEntity
  8
1
  6
CONTINUOUS
 62
           3
100
AcDbLine
 10
684.032597603646
 20
13401.30005597637
 11
881.032597603645
 21
13401.30005597637
  0
LINE
  5
140
100
AcDbEntity
  8
1
  6
CONTINUOUS
 62
           3
100
AcDbLine
 10
539.282597603646
 20
13343.30005597637
 11
539.282597603646
 21
13341.30005597637
  0
LINE
  5
13F
100
AcDbEntity
  8
1
  6
CONTINUOUS
 62
           3
100
AcDbLine
 10
541.532597603646
 20
13341.30005597637
 11
520.032597603646
 21
13341.30005597637
  0
LINE
  5
13E
100
AcDbEntity
  8
1
  6
CONTINUOUS
 62
           3
100
AcDbLine
 10
541.032597603646
 20
13343.30005597637
 11
519.532597603646
 21
13343.30005597637
  0
LINE
  5
13D
100
AcDbEntity
  8
1
  6
CONTINUOUS
 62
           3
100
AcDbLine
 10
521.782597603646
 20
13343.30005597637
 11
521.782597603646
 21
13341.30005597637
  0
LINE
  5
13C
100
AcDbEntity
  8
1
  6
CONTINUOUS
 62
           3
100
AcDbLine
 10
539.282597603646
 20
13361.30005597637
 11
539.282597603646
 21
13359.30005597637
  0
LINE
  5
13B
100
AcDbEntity
  8
1
  6
CONTINUOUS
 62
           3
100
AcDbLine
 10
521.782597603646
 20
13361.30005597637
 11
521.782597603646
 21
13359.30005597637
  0
LINE
  5
13A
100
AcDbEntity
  8
1
  6
CONTINUOUS
 62
           3
100
AcDbLine
 10
895.032597603645
 20
13288.80005597637
 11
895.032597603645
 21
13413.80005597637
  0
LINE
  5
139
100
AcDbEntity
  8
1
  6
CONTINUOUS
 62
           3
100
AcDbLine
 10
893.032597603645
 20
13288.80005597637
 11
895.032597603645
 21
13288.80005597637
  0
LINE
  5
138
100
AcDbEntity
  8
1
  6
CONTINUOUS
 62
           3
100
AcDbLine
 10
893.032597603645
 20
13413.80005597637
 11
893.032597603645
 21
13401.30005597637
  0
LINE
  5
137
100
AcDbEntity
  8
1
  6
CONTINUOUS
 62
           3
100
AcDbLine
 10
895.032597603645
 20
13413.80005597637
 11
893.032597603645
 21
13413.80005597637
  0
LINE
  5
136
100
AcDbEntity
  8
1
  6
CONTINUOUS
 62
           3
100
AcDbLine
 10
646.532597603646
 20
13343.80005597637
 11
646.532597603646
 21
13358.80005597637
  0
LINE
  5
135
100
AcDbEntity
  8
1
  6
CONTINUOUS
 62
           3
100
AcDbLine
 10
680.532597603646
 20
13340.80005597637
 11
649.532597603646
 21
13340.80005597637
  0
LINE
  5
134
100
AcDbEntity
  8
1
  6
CONTINUOUS
 62
           3
100
AcDbLine
 10
683.532597603646
 20
13358.80005597637
 11
683.532597603646
 21
13343.80005597637
  0
LINE
  5
133
100
AcDbEntity
  8
1
  6
CONTINUOUS
 62
           3
100
AcDbLine
 10
649.532597603646
 20
13361.80005597637
 11
680.532597603646
 21
13361.80005597637
  0
LINE
  5
132
100
AcDbEntity
  8
1
  6
CONTINUOUS
 62
           3
100
AcDbLine
 10
599.532597603646
 20
13343.80005597637
 11
599.532597603646
 21
13358.80005597637
  0
LINE
  5
131
100
AcDbEntity
  8
1
  6
CONTINUOUS
 62
           3
100
AcDbLine
 10
633.532597603646
 20
13340.80005597637
 11
602.532597603646
 21
13340.80005597637
  0
LINE
  5
130
100
AcDbEntity
  8
1
  6
CONTINUOUS
 62
           3
100
AcDbLine
 10
636.532597603646
 20
13358.80005597637
 11
636.532597603646
 21
13343.80005597637
  0
LINE
  5
12F
100
AcDbEntity
  8
1
  6
CONTINUOUS
 62
           3
100
AcDbLine
 10
602.532597603646
 20
13361.80005597637
 11
633.532597603646
 21
13361.80005597637
  0
LINE
  5
12E
100
AcDbEntity
  8
1
  6
CONTINUOUS
 62
           3
100
AcDbLine
 10
552.532597603646
 20
13343.80005597637
 11
552.532597603646
 21
13358.80005597637
  0
LINE
  5
12D
100
AcDbEntity
  8
1
  6
CONTINUOUS
 62
           3
100
AcDbLine
 10
589.532597603646
 20
13358.80005597637
 11
589.532597603646
 21
13343.80005597637
  0
LINE
  5
12C
100
AcDbEntity
  8
1
  6
CONTINUOUS
 62
           3
100
AcDbLine
 10
555.532597603646
 20
13361.80005597637
 11
586.532597603646
 21
13361.80005597637
  0
LINE
  5
12B
100
AcDbEntity
  8
1
  6
DOT_CENTER
 62
           1
100
AcDbLine
 10
530.532597603646
 20
13384.5930385724
 11
530.532597603646
 21
13319.73287512881
  0
LINE
  5
12A
100
AcDbEntity
  8
1
  6
CONTINUOUS
 62
           3
100
AcDbLine
 10
519.532597603646
 20
13361.80005597637
 11
519.532597603646
 21
13373.30005597637
  0
LINE
  5
129
100
AcDbEntity
  8
1
  6
CONTINUOUS
 62
           3
100
AcDbLine
 10
543.532597603646
 20
13359.30005597637
 11
543.532597603646
 21
13343.30005597637
  0
LINE
  5
128
100
AcDbEntity
  8
1
  6
CONTINUOUS
 62
           3
100
AcDbLine
 10
520.032597603646
 20
13361.30005597637
 11
541.532597603646
 21
13361.30005597637
  0
LINE
  5
127
100
AcDbEntity
  8
1
  6
CONTINUOUS
 62
           3
100
AcDbLine
 10
700.532597603646
 20
13336.30005597637
 11
560.532597603646
 21
13336.30005597637
  0
LINE
  5
126
100
AcDbEntity
  8
1
  6
CONTINUOUS
 62
           3
100
AcDbLine
 10
530.532597603646
 20
13366.30005597637
 11
700.532597603646
 21
13366.30005597637
  0
LINE
  5
125
100
AcDbEntity
  8
1
  6
CONTINUOUS
 62
           3
100
AcDbLine
 10
519.532597603646
 20
13329.30005597637
 11
519.532597603646
 21
13340.80005597637
  0
LINE
  5
124
100
AcDbEntity
  8
1
  6
CONTINUOUS
 62
           3
100
AcDbLine
 10
711.032597603646
 20
13328.80005597637
 11
709.282597603646
 21
13328.80005597637
  0
LINE
  5
123
100
AcDbEntity
  8
1
  6
CONTINUOUS
 62
           3
100
AcDbLine
 10
711.532597603646
 20
13373.30005597637
 11
711.532597603646
 21
13329.30005597637
  0
LINE
  5
122
100
AcDbEntity
  8
1
  6
CONTINUOUS
 62
           3
100
AcDbLine
 10
541.532597603646
 20
13358.80005597637
 11
541.532597603646
 21
13343.80005597637
  0
LINE
  5
121
100
AcDbEntity
  8
1
  6
CONTINUOUS
 62
           3
100
AcDbLine
 10
519.532597603646
 20
13359.30005597637
 11
541.032597603646
 21
13359.30005597637
  0
LINE
  5
120
100
AcDbEntity
  8
1
  6
CONTINUOUS
 62
           3
100
AcDbLine
 10
515.532597603646
 20
13333.80005597637
 11
506.634922870688
 21
13333.80005597637
  0
LINE
  5
11F
100
AcDbEntity
  8
1
  6
CONTINUOUS
 62
           3
100
AcDbLine
 10
517.532597603646
 20
13366.80005597637
 11
517.532597603646
 21
13335.80005597637
  0
LINE
  5
11E
100
AcDbEntity
  8
1
  6
CONTINUOUS
 62
           3
100
AcDbLine
 10
506.634922870688
 20
13368.80005597637
 11
515.532597603646
 21
13368.80005597637
  0
LINE
  5
11D
100
AcDbEntity
  8
1
  6
DOT_CENTER
 62
           1
100
AcDbLine
 10
498.032597603646
 20
13381.024671749819
 11
498.032597603646
 21
13319.72345313288
  0
LINE
  5
11C
100
AcDbEntity
  8
1
  6
CONTINUOUS
 62
           3
100
AcDbLine
 10
498.032597603646
 20
13331.80005597637
 11
470.032597603646
 21
13331.80005597637
  0
LINE
  5
11B
100
AcDbEntity
  8
1
  6
CONTINUOUS
 62
           3
100
AcDbLine
 10
498.032597603646
 20
13370.80005597637
 11
470.032597603646
 21
13370.80005597637
  0
LINE
  5
11A
100
AcDbEntity
  8
1
  6
DOT_CENTER
 62
           1
100
AcDbLine
 10
455.361379302456
 20
13351.30005597637
 11
517.532597603646
 21
13351.30005597637
  0
LINE
  5
119
100
AcDbEntity
  8
1
  6
DOT_CENTER
 62
           1
100
AcDbLine
 10
517.532597603646
 20
13351.30005597637
 11
908.149811475335
 21
13351.30005597637
  0
LINE
  5
118
100
AcDbEntity
  8
1
  6
DOT_CENTER
 62
           1
100
AcDbLine
 10
300.704090890003
 20
13351.30005597637
 11
427.518709348104
 21
13351.30005597637
  0
LINE
  5
117
100
AcDbEntity
  8
1
  6
DOT_CENTER
 62
           1
100
AcDbLine
 10
364.095679825923
 20
13418.620706538029
 11
364.095679825923
 21
13282.0302288412
  0
LINE
  5
116
100
AcDbEntity
  8
1
  6
CONTINUOUS
 62
           6
100
AcDbLine
 10
354.595679825923
 20
13340.80005597637
 11
354.595679825923
 21
13339.80005597637
  0
LINE
  5
115
100
AcDbEntity
  8
1
  6
CONTINUOUS
 62
           6
100
AcDbLine
 10
352.095679825923
 20
13339.30005597637
 11
353.095679825923
 21
13339.30005597637
  0
LINE
  5
114
100
AcDbEntity
  8
1
  6
CONTINUOUS
 62
           6
100
AcDbLine
 10
356.095679825923
 20
13338.30005597637
 11
355.095679825923
 21
13338.30005597637
  0
LINE
  5
113
100
AcDbEntity
  8
1
  6
CONTINUOUS
 62
           6
100
AcDbLine
 10
353.595679825923
 20
13336.80005597637
 11
353.595679825923
 21
13337.80005597637
  0
LINE
  5
112
100
AcDbEntity
  8
1
  6
CONTINUOUS
 62
           6
100
AcDbLine
 10
352.095679825923
 20
13338.30005597637
 11
352.095679825923
 21
13339.30005597637
  0
LINE
  5
111
100
AcDbEntity
  8
1
  6
CONTINUOUS
 62
           6
100
AcDbLine
 10
355.095679825923
 20
13339.30005597637
 11
356.095679825923
 21
13339.30005597637
  0
LINE
  5
110
100
AcDbEntity
  8
1
  6
CONTINUOUS
 62
           6
100
AcDbLine
 10
356.095679825923
 20
13339.30005597637
 11
356.095679825923
 21
13338.30005597637
  0
LINE
  5
10F
100
AcDbEntity
  8
1
  6
CONTINUOUS
 62
           6
100
AcDbLine
 10
353.095679825923
 20
13338.30005597637
 11
352.095679825923
 21
13338.30005597637
  0
LINE
  5
10E
100
AcDbEntity
  8
1
  6
CONTINUOUS
 62
           6
100
AcDbLine
 10
353.595679825923
 20
13339.80005597637
 11
353.595679825923
 21
13340.80005597637
  0
LINE
  5
10D
100
AcDbEntity
  8
1
  6
CONTINUOUS
 62
           6
100
AcDbLine
 10
353.595679825923
 20
13340.80005597637
 11
354.595679825923
 21
13340.80005597637
  0
LINE
  5
10C
100
AcDbEntity
  8
1
  6
CONTINUOUS
 62
           6
100
AcDbLine
 10
354.595679825923
 20
13337.80005597637
 11
354.595679825923
 21
13336.80005597637
  0
LINE
  5
10B
100
AcDbEntity
  8
1
  6
CONTINUOUS
 62
           6
100
AcDbLine
 10
354.595679825923
 20
13336.80005597637
 11
353.595679825923
 21
13336.80005597637
  0
LINE
  5
10A
100
AcDbEntity
  8
1
  6
CONTINUOUS
 62
           6
100
AcDbLine
 10
374.595679825923
 20
13336.80005597637
 11
373.595679825923
 21
13336.80005597637
  0
LINE
  5
109
100
AcDbEntity
  8
1
  6
CONTINUOUS
 62
           6
100
AcDbLine
 10
373.595679825923
 20
13336.80005597637
 11
373.595679825923
 21
13337.80005597637
  0
LINE
  5
108
100
AcDbEntity
  8
1
  6
CONTINUOUS
 62
           6
100
AcDbLine
 10
373.595679825923
 20
13340.80005597637
 11
374.595679825923
 21
13340.80005597637
  0
LINE
  5
107
100
AcDbEntity
  8
1
  6
CONTINUOUS
 62
           6
100
AcDbLine
 10
374.595679825923
 20
13340.80005597637
 11
374.595679825923
 21
13339.80005597637
  0
LINE
  5
106
100
AcDbEntity
  8
1
  6
CONTINUOUS
 62
           6
100
AcDbLine
 10
376.095679825923
 20
13338.30005597637
 11
375.095679825923
 21
13338.30005597637
  0
LINE
  5
105
100
AcDbEntity
  8
1
  6
CONTINUOUS
 62
           6
100
AcDbLine
 10
372.095679825923
 20
13338.30005597637
 11
372.095679825923
 21
13339.30005597637
  0
LINE
  5
104
100
AcDbEntity
  8
1
  6
CONTINUOUS
 62
           6
100
AcDbLine
 10
372.095679825923
 20
13339.30005597637
 11
373.095679825923
 21
13339.30005597637
  0
LINE
  5
103
100
AcDbEntity
  8
1
  6
CONTINUOUS
 62
           6
100
AcDbLine
 10
376.095679825923
 20
13339.30005597637
 11
376.095679825923
 21
13338.30005597637
  0
LINE
  5
102
100
AcDbEntity
  8
1
  6
CONTINUOUS
 62
           6
100
AcDbLine
 10
374.595679825923
 20
13337.80005597637
 11
374.595679825923
 21
13336.80005597637
  0
LINE
  5
101
100
AcDbEntity
  8
1
  6
CONTINUOUS
 62
           6
100
AcDbLine
 10
373.095679825923
 20
13338.30005597637
 11
372.095679825923
 21
13338.30005597637
  0
LINE
  5
100
100
AcDbEntity
  8
1
  6
CONTINUOUS
 62
           6
100
AcDbLine
 10
375.095679825923
 20
13339.30005597637
 11
376.095679825923
 21
13339.30005597637
  0
LINE
  5
FF
100
AcDbEntity
  8
1
  6
CONTINUOUS
 62
           6
100
AcDbLine
 10
373.595679825923
 20
13339.80005597637
 11
373.595679825923
 21
13340.80005597637
  0
LINE
  5
FE
100
AcDbEntity
  8
1
  6
CONTINUOUS
 62
           6
100
AcDbLine
 10
373.595679825923
 20
13361.80005597637
 11
373.595679825923
 21
13362.80005597637
  0
LINE
  5
FD
100
AcDbEntity
  8
1
  6
CONTINUOUS
 62
           6
100
AcDbLine
 10
376.095679825923
 20
13363.30005597637
 11
375.095679825923
 21
13363.30005597637
  0
LINE
  5
FC
100
AcDbEntity
  8
1
  6
CONTINUOUS
 62
           6
100
AcDbLine
 10
372.095679825923
 20
13364.30005597637
 11
373.095679825923
 21
13364.30005597637
  0
LINE
  5
FB
100
AcDbEntity
  8
1
  6
CONTINUOUS
 62
           6
100
AcDbLine
 10
374.595679825923
 20
13365.80005597637
 11
374.595679825923
 21
13364.80005597637
  0
LINE
  5
FA
100
AcDbEntity
  8
1
  6
CONTINUOUS
 62
           6
100
AcDbLine
 10
376.095679825923
 20
13364.30005597637
 11
376.095679825923
 21
13363.30005597637
  0
LINE
  5
F9
100
AcDbEntity
  8
1
  6
CONTINUOUS
 62
           6
100
AcDbLine
 10
373.095679825923
 20
13363.30005597637
 11
372.095679825923
 21
13363.30005597637
  0
LINE
  5
F8
100
AcDbEntity
  8
1
  6
CONTINUOUS
 62
           6
100
AcDbLine
 10
372.095679825923
 20
13363.30005597637
 11
372.095679825923
 21
13364.30005597637
  0
LINE
  5
F7
100
AcDbEntity
  8
1
  6
CONTINUOUS
 62
           6
100
AcDbLine
 10
375.095679825923
 20
13364.30005597637
 11
376.095679825923
 21
13364.30005597637
  0
LINE
  5
F6
100
AcDbEntity
  8
1
  6
CONTINUOUS
 62
           6
100
AcDbLine
 10
374.595679825923
 20
13362.80005597637
 11
374.595679825923
 21
13361.80005597637
  0
LINE
  5
F5
100
AcDbEntity
  8
1
  6
CONTINUOUS
 62
           6
100
AcDbLine
 10
374.595679825923
 20
13361.80005597637
 11
373.595679825923
 21
13361.80005597637
  0
LINE
  5
F4
100
AcDbEntity
  8
1
  6
CONTINUOUS
 62
           6
100
AcDbLine
 10
373.595679825923
 20
13364.80005597637
 11
373.595679825923
 21
13365.80005597637
  0
LINE
  5
F3
100
AcDbEntity
  8
1
  6
CONTINUOUS
 62
           6
100
AcDbLine
 10
373.595679825923
 20
13365.80005597637
 11
374.595679825923
 21
13365.80005597637
  0
LINE
  5
F2
100
AcDbEntity
  8
1
  6
CONTINUOUS
 62
           6
100
AcDbLine
 10
353.595679825923
 20
13365.80005597637
 11
354.595679825923
 21
13365.80005597637
  0
LINE
  5
F1
100
AcDbEntity
  8
1
  6
CONTINUOUS
 62
           6
100
AcDbLine
 10
354.595679825923
 20
13365.80005597637
 11
354.595679825923
 21
13364.80005597637
  0
LINE
  5
F0
100
AcDbEntity
  8
1
  6
CONTINUOUS
 62
           6
100
AcDbLine
 10
354.595679825923
 20
13361.80005597637
 11
353.595679825923
 21
13361.80005597637
  0
LINE
  5
EF
100
AcDbEntity
  8
1
  6
CONTINUOUS
 62
           6
100
AcDbLine
 10
353.595679825923
 20
13361.80005597637
 11
353.595679825923
 21
13362.80005597637
  0
LINE
  5
EE
100
AcDbEntity
  8
1
  6
CONTINUOUS
 62
           6
100
AcDbLine
 10
352.095679825923
 20
13364.30005597637
 11
353.095679825923
 21
13364.30005597637
  0
LINE
  5
ED
100
AcDbEntity
  8
1
  6
CONTINUOUS
 62
           6
100
AcDbLine
 10
356.095679825923
 20
13364.30005597637
 11
356.095679825923
 21
13363.30005597637
  0
LINE
  5
EC
100
AcDbEntity
  8
1
  6
CONTINUOUS
 62
           6
100
AcDbLine
 10
356.095679825923
 20
13363.30005597637
 11
355.095679825923
 21
13363.30005597637
  0
LINE
  5
EB
100
AcDbEntity
  8
1
  6
CONTINUOUS
 62
           6
100
AcDbLine
 10
352.095679825923
 20
13363.30005597637
 11
352.095679825923
 21
13364.30005597637
  0
LINE
  5
EA
100
AcDbEntity
  8
1
  6
CONTINUOUS
 62
           6
100
AcDbLine
 10
353.595679825923
 20
13364.80005597637
 11
353.595679825923
 21
13365.80005597637
  0
LINE
  5
E9
100
AcDbEntity
  8
1
  6
CONTINUOUS
 62
           6
100
AcDbLine
 10
355.095679825923
 20
13364.30005597637
 11
356.095679825923
 21
13364.30005597637
  0
LINE
  5
E8
100
AcDbEntity
  8
1
  6
CONTINUOUS
 62
           6
100
AcDbLine
 10
353.095679825923
 20
13363.30005597637
 11
352.095679825923
 21
13363.30005597637
  0
LINE
  5
E7
100
AcDbEntity
  8
1
  6
CONTINUOUS
 62
           6
100
AcDbLine
 10
354.595679825923
 20
13362.80005597637
 11
354.595679825923
 21
13361.80005597637
  0
LINE
  5
E6
100
AcDbEntity
  8
1
  6
DOT_CENTER
 62
           1
100
AcDbLine
 10
326.595679825923
 20
13397.471315272351
 11
326.595679825923
 21
13379.82045831351
  0
LINE
  5
E5
100
AcDbEntity
  8
1
  6
DOT_CENTER
 62
           1
100
AcDbLine
 10
316.309961832249
 20
13388.80005597637
 11
335.590128664209
 21
13388.80005597637
  0
LINE
  5
E4
100
AcDbEntity
  8
1
  6
DOT_CENTER
 62
           1
100
AcDbLine
 10
305.900482087295
 20
13401.30005597637
 11
323.00823575509
 21
13401.30005597637
  0
LINE
  5
E3
100
AcDbEntity
  8
1
  6
DOT_CENTER
 62
           1
100
AcDbLine
 10
314.095679825923
 20
13408.695449953861
 11
314.095679825923
 21
13392.31183400746
  0
LINE
  5
E2
100
AcDbEntity
  8
1
  6
DOT_CENTER
 62
           1
100
AcDbLine
 10
401.595679825923
 20
13322.26996185974
 11
401.595679825923
 21
13304.691830110231
  0
LINE
  5
E1
100
AcDbEntity
  8
1
  6
DOT_CENTER
 62
           1
100
AcDbLine
 10
414.095679825923
 20
13308.550444396709
 11
414.095679825923
 21
13293.68763381176
  0
LINE
  5
E0
100
AcDbEntity
  8
1
  6
DOT_CENTER
 62
           1
100
AcDbLine
 10
405.735127121941
 20
13301.30005597637
 11
422.027054109289
 21
13301.30005597637
  0
LINE
  5
DF
100
AcDbEntity
  8
1
  6
DOT_CENTER
 62
           1
100
AcDbLine
 10
392.94453532047
 20
13313.80005597637
 11
409.093550667578
 21
13313.80005597637
  0
LINE
  5
DE
100
AcDbEntity
  8
1
  6
DOT_CENTER
 62
           1
100
AcDbLine
 10
320.361850209164
 20
13313.80005597637
 11
333.402989633083
 21
13313.80005597637
  0
LINE
  5
DD
100
AcDbEntity
  8
1
  6
DOT_CENTER
 62
           1
100
AcDbLine
 10
321.754217708294
 20
13317.200055976369
 11
331.123267684204
 21
13317.200055976369
  0
LINE
  5
DC
100
AcDbEntity
  8
1
  6
DOT_CENTER
 62
           1
100
AcDbLine
 10
321.701582596073
 20
13310.40005597637
 11
331.386443245324
 21
13310.40005597637
  0
LINE
  5
DB
100
AcDbEntity
  8
1
  6
DOT_CENTER
 62
           1
100
AcDbLine
 10
326.595679825923
 20
13305.254764315499
 11
326.595679825923
 21
13322.62435134949
  0
LINE
  5
DA
100
AcDbEntity
  8
1
  6
CONTINUOUS
 62
           3
100
AcDbLine
 10
329.195679825923
 20
13317.200055976369
 11
329.195679825923
 21
13310.40005597637
  0
LINE
  5
D9
100
AcDbEntity
  8
1
  6
CONTINUOUS
 62
           3
100
AcDbLine
 10
323.995679825922
 20
13310.40005597637
 11
323.995679825922
 21
13317.200055976369
  0
LINE
  5
D8
100
AcDbEntity
  8
1
  6
CONTINUOUS
 62
           3
100
AcDbLine
 10
311.495679825922
 20
13297.90005597637
 11
311.495679825922
 21
13304.700055976369
  0
LINE
  5
D7
100
AcDbEntity
  8
1
  6
CONTINUOUS
 62
           3
100
AcDbLine
 10
316.695679825923
 20
13304.700055976369
 11
316.695679825923
 21
13297.90005597637
  0
LINE
  5
D6
100
AcDbEntity
  8
1
  6
DOT_CENTER
 62
           1
100
AcDbLine
 10
314.095679825923
 20
13292.754764315499
 11
314.095679825923
 21
13310.12435134949
  0
LINE
  5
D5
100
AcDbEntity
  8
1
  6
DOT_CENTER
 62
           1
100
AcDbLine
 10
309.201582596073
 20
13297.90005597637
 11
318.886443245324
 21
13297.90005597637
  0
LINE
  5
D4
100
AcDbEntity
  8
1
  6
DOT_CENTER
 62
           1
100
AcDbLine
 10
309.254217708294
 20
13304.700055976369
 11
318.623267684204
 21
13304.700055976369
  0
LINE
  5
D3
100
AcDbEntity
  8
1
  6
DOT_CENTER
 62
           1
100
AcDbLine
 10
307.861850209164
 20
13301.30005597637
 11
320.902989633083
 21
13301.30005597637
  0
LINE
  5
D2
100
AcDbEntity
  8
1
  6
CONTINUOUS
 62
           3
100
AcDbLine
 10
398.195679825923
 20
13391.40005597637
 11
404.995679825923
 21
13391.40005597637
  0
LINE
  5
D1
100
AcDbEntity
  8
1
  6
CONTINUOUS
 62
           3
100
AcDbLine
 10
404.995679825923
 20
13386.200055976369
 11
398.195679825923
 21
13386.200055976369
  0
LINE
  5
D0
100
AcDbEntity
  8
1
  6
DOT_CENTER
 62
           1
100
AcDbLine
 10
393.050388165055
 20
13388.80005597637
 11
410.419975199038
 21
13388.80005597637
  0
LINE
  5
CF
100
AcDbEntity
  8
1
  6
DOT_CENTER
 62
           1
100
AcDbLine
 10
398.195679825923
 20
13393.694153206219
 11
398.195679825923
 21
13384.00929255697
  0
LINE
  5
CE
100
AcDbEntity
  8
1
  6
DOT_CENTER
 62
           1
100
AcDbLine
 10
404.995679825923
 20
13393.641518094
 11
404.995679825923
 21
13384.27246811809
  0
LINE
  5
CD
100
AcDbEntity
  8
1
  6
DOT_CENTER
 62
           1
100
AcDbLine
 10
401.595679825923
 20
13395.03388559313
 11
401.595679825923
 21
13381.99274616921
  0
LINE
  5
CC
100
AcDbEntity
  8
1
  6
DOT_CENTER
 62
           1
100
AcDbLine
 10
322.187696631151
 20
13393.208039171141
 11
331.409174752204
 21
13383.986561050089
  0
LINE
  5
CB
100
AcDbEntity
  8
1
  6
DOT_CENTER
 62
           1
100
AcDbLine
 10
325.576412187724
 20
13394.627649726641
 11
332.201330958966
 21
13388.002730955401
  0
LINE
  5
CA
100
AcDbEntity
  8
1
  6
DOT_CENTER
 62
           1
100
AcDbLine
 10
320.730867430876
 20
13389.856542259349
 11
327.579098070808
 21
13383.00831161942
  0
LINE
  5
C9
100
AcDbEntity
  8
1
  6
DOT_CENTER
 62
           1
100
AcDbLine
 10
320.553246145306
 20
13382.75762229575
 11
332.835398923446
 21
13395.039775073899
  0
LINE
  5
C8
100
AcDbEntity
  8
1
  6
CONTINUOUS
 62
           3
100
AcDbLine
 10
330.838320513043
 20
13389.36574140132
 11
326.029994400974
 21
13384.55741528925
  0
LINE
  5
C7
100
AcDbEntity
  8
1
  6
CONTINUOUS
 62
           3
100
AcDbLine
 10
322.353039138804
 20
13388.23437055143
 11
327.161365250872
 21
13393.04269666349
  0
LINE
  5
C6
100
AcDbEntity
  8
1
  6
CONTINUOUS
 62
           3
100
AcDbLine
 10
309.853039138804
 20
13400.73437055143
 11
314.661365250872
 21
13405.54269666349
  0
LINE
  5
C5
100
AcDbEntity
  8
1
  6
CONTINUOUS
 62
           3
100
AcDbLine
 10
318.338320513043
 20
13401.86574140132
 11
313.529994400974
 21
13397.05741528925
  0
LINE
  5
C4
100
AcDbEntity
  8
1
  6
DOT_CENTER
 62
           1
100
AcDbLine
 10
308.053246145306
 20
13395.25762229575
 11
320.335398923445
 21
13407.539775073899
  0
LINE
  5
C3
100
AcDbEntity
  8
1
  6
DOT_CENTER
 62
           1
100
AcDbLine
 10
308.230867430876
 20
13402.356542259349
 11
315.079098070808
 21
13395.50831161942
  0
LINE
  5
C2
100
AcDbEntity
  8
1
  6
DOT_CENTER
 62
           1
100
AcDbLine
 10
313.076412187724
 20
13407.127649726641
 11
319.701330958966
 21
13400.502730955401
  0
LINE
  5
C1
100
AcDbEntity
  8
1
  6
DOT_CENTER
 62
           1
100
AcDbLine
 10
309.687696631151
 20
13405.708039171141
 11
318.909174752204
 21
13396.486561050089
  0
LINE
  5
C0
100
AcDbEntity
  8
1
  6
DOT_CENTER
 62
           1
100
AcDbLine
 10
414.095679825923
 20
13407.53388559313
 11
414.095679825923
 21
13394.49274616921
  0
LINE
  5
BF
100
AcDbEntity
  8
1
  6
DOT_CENTER
 62
           1
100
AcDbLine
 10
417.495679825923
 20
13406.141518094
 11
417.495679825923
 21
13396.77246811809
  0
LINE
  5
BE
100
AcDbEntity
  8
1
  6
DOT_CENTER
 62
           1
100
AcDbLine
 10
410.695679825923
 20
13406.194153206219
 11
410.695679825923
 21
13396.50929255697
  0
LINE
  5
BD
100
AcDbEntity
  8
1
  6
DOT_CENTER
 62
           1
100
AcDbLine
 10
405.550388165055
 20
13401.30005597637
 11
422.919975199038
 21
13401.30005597637
  0
LINE
  5
BC
100
AcDbEntity
  8
1
  6
CONTINUOUS
 62
           3
100
AcDbLine
 10
417.495679825923
 20
13398.700055976369
 11
410.695679825923
 21
13398.700055976369
  0
LINE
  5
BB
100
AcDbEntity
  8
1
  6
CONTINUOUS
 62
           3
100
AcDbLine
 10
410.695679825923
 20
13403.90005597637
 11
417.495679825923
 21
13403.90005597637
  0
LINE
  5
BA
100
AcDbEntity
  8
1
  6
CONTINUOUS
 62
           3
100
AcDbLine
 10
395.844880287801
 20
13356.95021588399
 11
422.346479364045
 21
13395.64989606875
  0
LINE
  5
B9
100
AcDbEntity
  8
1
  6
CONTINUOUS
 62
           3
100
AcDbLine
 10
422.346479364045
 20
13306.95021588399
 11
395.844880287801
 21
13345.64989606875
  0
LINE
  5
B8
100
AcDbEntity
  8
1
  6
CONTINUOUS
 62
           3
100
AcDbLine
 10
369.745839733548
 20
13319.550855514501
 11
408.445519918299
 21
13293.049256438249
  0
LINE
  5
B7
100
AcDbEntity
  8
1
  6
CONTINUOUS
 62
           3
100
AcDbLine
 10
319.745839733547
 20
13293.049256438249
 11
358.445519918299
 21
13319.550855514501
  0
LINE
  5
B6
100
AcDbEntity
  8
1
  6
CONTINUOUS
 62
           3
100
AcDbLine
 10
332.346479364045
 20
13345.64989606875
 11
305.844880287801
 21
13306.95021588399
  0
LINE
  5
B5
100
AcDbEntity
  8
1
  6
CONTINUOUS
 62
           3
100
AcDbLine
 10
305.844880287801
 20
13395.64989606875
 11
332.346479364045
 21
13356.95021588399
  0
LINE
  5
B4
100
AcDbEntity
  8
1
  6
CONTINUOUS
 62
           3
100
AcDbLine
 10
358.445519918299
 20
13383.049256438249
 11
319.745839733547
 21
13409.550855514501
  0
LINE
  5
B3
100
AcDbEntity
  8
1
  6
CONTINUOUS
 62
           3
100
AcDbLine
 10
408.445519918299
 20
13409.550855514501
 11
369.745839733547
 21
13383.049256438249
  0
LINE
  5
B2
100
AcDbEntity
  8
1
  6
CONTINUOUS
 62
           6
100
AcDbLine
 10
1006.892260751948
 20
13321.80005597637
 11
1005.892260751948
 21
13321.80005597637
  0
LINE
  5
B1
100
AcDbEntity
  8
1
  6
CONTINUOUS
 62
           6
100
AcDbLine
 10
1006.892260751948
 20
13322.80005597637
 11
1006.892260751948
 21
13321.80005597637
  0
LINE
  5
B0
100
AcDbEntity
  8
1
  6
CONTINUOUS
 62
           6
100
AcDbLine
 10
1005.892260751948
 20
13325.80005597637
 11
1006.892260751948
 21
13325.80005597637
  0
LINE
  5
AF
100
AcDbEntity
  8
1
  6
CONTINUOUS
 62
           6
100
AcDbLine
 10
1005.892260751948
 20
13324.80005597637
 11
1005.892260751948
 21
13325.80005597637
  0
LINE
  5
AE
100
AcDbEntity
  8
1
  6
CONTINUOUS
 62
           6
100
AcDbLine
 10
1005.392260751948
 20
13323.30005597637
 11
1004.392260751948
 21
13323.30005597637
  0
LINE
  5
AD
100
AcDbEntity
  8
1
  6
CONTINUOUS
 62
           6
100
AcDbLine
 10
1008.392260751948
 20
13324.30005597637
 11
1008.392260751948
 21
13323.30005597637
  0
LINE
  5
AC
100
AcDbEntity
  8
1
  6
CONTINUOUS
 62
           6
100
AcDbLine
 10
1007.392260751948
 20
13324.30005597637
 11
1008.392260751948
 21
13324.30005597637
  0
LINE
  5
AB
100
AcDbEntity
  8
1
  6
CONTINUOUS
 62
           6
100
AcDbLine
 10
1004.392260751948
 20
13323.30005597637
 11
1004.392260751948
 21
13324.30005597637
  0
LINE
  5
AA
100
AcDbEntity
  8
1
  6
CONTINUOUS
 62
           6
100
AcDbLine
 10
1005.892260751948
 20
13321.80005597637
 11
1005.892260751948
 21
13322.80005597637
  0
LINE
  5
A9
100
AcDbEntity
  8
1
  6
CONTINUOUS
 62
           6
100
AcDbLine
 10
1008.392260751948
 20
13323.30005597637
 11
1007.392260751948
 21
13323.30005597637
  0
LINE
  5
A8
100
AcDbEntity
  8
1
  6
CONTINUOUS
 62
           6
100
AcDbLine
 10
1004.392260751948
 20
13324.30005597637
 11
1005.392260751948
 21
13324.30005597637
  0
LINE
  5
A7
100
AcDbEntity
  8
1
  6
CONTINUOUS
 62
           6
100
AcDbLine
 10
1006.892260751948
 20
13325.80005597637
 11
1006.892260751948
 21
13324.80005597637
  0
LINE
  5
A6
100
AcDbEntity
  8
1
  6
CONTINUOUS
 62
           6
100
AcDbLine
 10
1035.892260751948
 20
13324.80005597637
 11
1035.892260751948
 21
13325.80005597637
  0
LINE
  5
A5
100
AcDbEntity
  8
1
  6
CONTINUOUS
 62
           6
100
AcDbLine
 10
1037.392260751948
 20
13324.30005597637
 11
1038.392260751948
 21
13324.30005597637
  0
LINE
  5
A4
100
AcDbEntity
  8
1
  6
CONTINUOUS
 62
           6
100
AcDbLine
 10
1035.392260751948
 20
13323.30005597637
 11
1034.392260751948
 21
13323.30005597637
  0
LINE
  5
A3
100
AcDbEntity
  8
1
  6
CONTINUOUS
 62
           6
100
AcDbLine
 10
1036.892260751948
 20
13322.80005597637
 11
1036.892260751948
 21
13321.80005597637
  0
LINE
  5
A2
100
AcDbEntity
  8
1
  6
CONTINUOUS
 62
           6
100
AcDbLine
 10
1038.392260751948
 20
13324.30005597637
 11
1038.392260751948
 21
13323.30005597637
  0
LINE
  5
A1
100
AcDbEntity
  8
1
  6
CONTINUOUS
 62
           6
100
AcDbLine
 10
1034.392260751948
 20
13324.30005597637
 11
1035.392260751948
 21
13324.30005597637
  0
LINE
  5
A0
100
AcDbEntity
  8
1
  6
CONTINUOUS
 62
           6
100
AcDbLine
 10
1034.392260751948
 20
13323.30005597637
 11
1034.392260751948
 21
13324.30005597637
  0
LINE
  5
9F
100
AcDbEntity
  8
1
  6
CONTINUOUS
 62
           6
100
AcDbLine
 10
1038.392260751948
 20
13323.30005597637
 11
1037.392260751948
 21
13323.30005597637
  0
LINE
  5
9E
100
AcDbEntity
  8
1
  6
CONTINUOUS
 62
           6
100
AcDbLine
 10
1036.892260751948
 20
13325.80005597637
 11
1036.892260751948
 21
13324.80005597637
  0
LINE
  5
9D
100
AcDbEntity
  8
1
  6
CONTINUOUS
 62
           6
100
AcDbLine
 10
1035.892260751948
 20
13325.80005597637
 11
1036.892260751948
 21
13325.80005597637
  0
LINE
  5
9C
100
AcDbEntity
  8
1
  6
CONTINUOUS
 62
           6
100
AcDbLine
 10
1035.892260751948
 20
13321.80005597637
 11
1035.892260751948
 21
13322.80005597637
  0
LINE
  5
9B
100
AcDbEntity
  8
1
  6
CONTINUOUS
 62
           6
100
AcDbLine
 10
1036.892260751948
 20
13321.80005597637
 11
1035.892260751948
 21
13321.80005597637
  0
LINE
  5
9A
100
AcDbEntity
  8
1
  6
CONTINUOUS
 62
           6
100
AcDbLine
 10
1035.892260751948
 20
13380.80005597637
 11
1036.892260751948
 21
13380.80005597637
  0
LINE
  5
99
100
AcDbEntity
  8
1
  6
CONTINUOUS
 62
           6
100
AcDbLine
 10
1035.892260751948
 20
13379.80005597637
 11
1035.892260751948
 21
13380.80005597637
  0
LINE
  5
98
100
AcDbEntity
  8
1
  6
CONTINUOUS
 62
           6
100
AcDbLine
 10
1036.892260751948
 20
13376.80005597637
 11
1035.892260751948
 21
13376.80005597637
  0
LINE
  5
97
100
AcDbEntity
  8
1
  6
CONTINUOUS
 62
           6
100
AcDbLine
 10
1036.892260751948
 20
13377.80005597637
 11
1036.892260751948
 21
13376.80005597637
  0
LINE
  5
96
100
AcDbEntity
  8
1
  6
CONTINUOUS
 62
           6
100
AcDbLine
 10
1037.392260751948
 20
13379.30005597637
 11
1038.392260751948
 21
13379.30005597637
  0
LINE
  5
95
100
AcDbEntity
  8
1
  6
CONTINUOUS
 62
           6
100
AcDbLine
 10
1034.392260751948
 20
13378.30005597637
 11
1034.392260751948
 21
13379.30005597637
  0
LINE
  5
94
100
AcDbEntity
  8
1
  6
CONTINUOUS
 62
           6
100
AcDbLine
 10
1035.392260751948
 20
13378.30005597637
 11
1034.392260751948
 21
13378.30005597637
  0
LINE
  5
93
100
AcDbEntity
  8
1
  6
CONTINUOUS
 62
           6
100
AcDbLine
 10
1038.392260751948
 20
13379.30005597637
 11
1038.392260751948
 21
13378.30005597637
  0
LINE
  5
92
100
AcDbEntity
  8
1
  6
CONTINUOUS
 62
           6
100
AcDbLine
 10
1036.892260751948
 20
13380.80005597637
 11
1036.892260751948
 21
13379.80005597637
  0
LINE
  5
91
100
AcDbEntity
  8
1
  6
CONTINUOUS
 62
           6
100
AcDbLine
 10
1034.392260751948
 20
13379.30005597637
 11
1035.392260751948
 21
13379.30005597637
  0
LINE
  5
90
100
AcDbEntity
  8
1
  6
CONTINUOUS
 62
           6
100
AcDbLine
 10
1038.392260751948
 20
13378.30005597637
 11
1037.392260751948
 21
13378.30005597637
  0
LINE
  5
8F
100
AcDbEntity
  8
1
  6
CONTINUOUS
 62
           6
100
AcDbLine
 10
1035.892260751948
 20
13376.80005597637
 11
1035.892260751948
 21
13377.80005597637
  0
LINE
  5
8E
100
AcDbEntity
  8
1
  6
CONTINUOUS
 62
           6
100
AcDbLine
 10
1006.892260751948
 20
13377.80005597637
 11
1006.892260751948
 21
13376.80005597637
  0
LINE
  5
8D
100
AcDbEntity
  8
1
  6
CONTINUOUS
 62
           6
100
AcDbLine
 10
1005.392260751948
 20
13378.30005597637
 11
1004.392260751948
 21
13378.30005597637
  0
LINE
  5
8C
100
AcDbEntity
  8
1
  6
CONTINUOUS
 62
           6
100
AcDbLine
 10
1007.392260751948
 20
13379.30005597637
 11
1008.392260751948
 21
13379.30005597637
  0
LINE
  5
8B
100
AcDbEntity
  8
1
  6
CONTINUOUS
 62
           6
100
AcDbLine
 10
1005.892260751948
 20
13379.80005597637
 11
1005.892260751948
 21
13380.80005597637
  0
LINE
  5
8A
100
AcDbEntity
  8
1
  6
CONTINUOUS
 62
           6
100
AcDbLine
 10
1004.392260751948
 20
13378.30005597637
 11
1004.392260751948
 21
13379.30005597637
  0
LINE
  5
89
100
AcDbEntity
  8
1
  6
CONTINUOUS
 62
           6
100
AcDbLine
 10
1008.392260751948
 20
13378.30005597637
 11
1007.392260751948
 21
13378.30005597637
  0
LINE
  5
88
100
AcDbEntity
  8
1
  6
CONTINUOUS
 62
           6
100
AcDbLine
 10
1008.392260751948
 20
13379.30005597637
 11
1008.392260751948
 21
13378.30005597637
  0
LINE
  5
87
100
AcDbEntity
  8
1
  6
CONTINUOUS
 62
           6
100
AcDbLine
 10
1004.392260751948
 20
13379.30005597637
 11
1005.392260751948
 21
13379.30005597637
  0
LINE
  5
86
100
AcDbEntity
  8
1
  6
CONTINUOUS
 62
           6
100
AcDbLine
 10
1005.892260751948
 20
13376.80005597637
 11
1005.892260751948
 21
13377.80005597637
  0
LINE
  5
85
100
AcDbEntity
  8
1
  6
CONTINUOUS
 62
           6
100
AcDbLine
 10
1006.892260751948
 20
13376.80005597637
 11
1005.892260751948
 21
13376.80005597637
  0
LINE
  5
84
100
AcDbEntity
  8
1
  6
CONTINUOUS
 62
           6
100
AcDbLine
 10
1006.892260751948
 20
13380.80005597637
 11
1006.892260751948
 21
13379.80005597637
  0
LINE
  5
83
100
AcDbEntity
  8
1
  6
CONTINUOUS
 62
           6
100
AcDbLine
 10
1005.892260751948
 20
13380.80005597637
 11
1006.892260751948
 21
13380.80005597637
  0
LINE
  5
82
100
AcDbEntity
  8
1
  6
DOT_CENTER
 62
           1
100
AcDbLine
 10
1021.392260751948
 20
13423.08812657041
 11
1021.392260751948
 21
13278.046153161689
  0
LINE
  5
81
100
AcDbEntity
  8
1
  6
DOT_CENTER
 62
           1
100
AcDbLine
 10
965.711729862379
 20
13351.30005597637
 11
1080.341676588627
 21
13351.30005597637
  0
LINE
  5
80
100
AcDbEntity
  8
1
  6
DOT_CENTER
 62
           1
100
AcDbLine
 10
986.392260751948
 20
13308.88705341571
 11
986.392260751948
 21
13293.932055366629
  0
LINE
  5
7F
100
AcDbEntity
  8
1
  6
DOT_CENTER
 62
           1
100
AcDbLine
 10
993.964918650312
 20
13301.30005597637
 11
978.889315778253
 21
13301.30005597637
  0
LINE
  5
7E
100
AcDbEntity
  8
1
  6
DOT_CENTER
 62
           1
100
AcDbLine
 10
1063.895205725643
 20
13301.30005597637
 11
1048.819602853584
 21
13301.30005597637
  0
LINE
  5
7D
100
AcDbEntity
  8
1
  6
DOT_CENTER
 62
           1
100
AcDbLine
 10
1056.392260751948
 20
13293.932055366629
 11
1056.392260751948
 21
13308.88705341571
  0
LINE
  5
7C
100
AcDbEntity
  8
1
  6
DOT_CENTER
 62
           1
100
AcDbLine
 10
1056.392260751948
 20
13393.713058537031
 11
1056.392260751948
 21
13408.66805658611
  0
LINE
  5
7B
100
AcDbEntity
  8
1
  6
DOT_CENTER
 62
           1
100
AcDbLine
 10
1048.819602853584
 20
13401.30005597637
 11
1063.895205725643
 21
13401.30005597637
  0
LINE
  5
7A
100
AcDbEntity
  8
1
  6
DOT_CENTER
 62
           1
100
AcDbLine
 10
978.889315778253
 20
13401.30005597637
 11
993.964918650312
 21
13401.30005597637
  0
LINE
  5
79
100
AcDbEntity
  8
1
  6
DOT_CENTER
 62
           1
100
AcDbLine
 10
986.392260751948
 20
13408.66805658611
 11
986.392260751948
 21
13393.713058537031
  0
LINE
  5
78
100
AcDbEntity
  8
1
  6
CONTINUOUS
 62
           3
100
AcDbLine
 10
973.892260751948
 20
13292.80005597637
 11
973.892260751948
 21
13409.80005597637
  0
LINE
  5
77
100
AcDbEntity
  8
1
  6
CONTINUOUS
 62
           3
100
AcDbLine
 10
1064.892260751948
 20
13288.80005597637
 11
977.892260751948
 21
13288.80005597637
  0
LINE
  5
76
100
AcDbEntity
  8
1
  6
CONTINUOUS
 62
           3
100
AcDbLine
 10
1068.892260751948
 20
13409.80005597637
 11
1068.892260751948
 21
13292.80005597637
  0
LINE
  5
75
100
AcDbEntity
  8
1
  6
CONTINUOUS
 62
           3
100
AcDbLine
 10
977.892260751948
 20
13413.80005597637
 11
1064.892260751948
 21
13413.80005597637
  0
LINE
  5
74
100
AcDbEntity
  8
1
  6
DOT_CENTER
 62
           1
100
AcDbLine
 10
859.728710163605
 20
13549.500318611499
 11
843.140498275647
 21
13769.602672076089
  0
LINE
  5
73
100
AcDbEntity
  8
1
  6
DOT_CENTER
 62
           1
100
AcDbLine
 10
872.372756042241
 20
13769.602672076089
 11
855.784544154284
 21
13549.500318611499
  0
LINE
  5
72
100
AcDbEntity
  8
1
  6
CONTINUOUS
 62
           3
100
AcDbLine
 10
859.563705250758
 20
13746.01302568055
 11
857.756627158944
 21
13722.03562874415
  0
LINE
  5
71
100
AcDbEntity
  8
1
  6
CONTINUOUS
 62
           3
100
AcDbLine
 10
881.501489956533
 20
13744.359664799469
 11
881.501489956533
 21
13744.35966479946
  0
LINE
  5
70
100
AcDbEntity
  8
1
  6
CONTINUOUS
 62
           3
100
AcDbLine
 10
831.980656714242
 20
13740.186345239999
 11
827.480656714242
 21
13740.186345239999
  0
LINE
  5
6F
100
AcDbEntity
  8
1
  6
CONTINUOUS
 62
           3
100
AcDbLine
 10
827.480656714242
 20
13740.186345239999
 11
827.480656714242
 21
13739.186345239999
  0
LINE
  5
6E
100
AcDbEntity
  8
1
  6
CONTINUOUS
 62
           3
100
AcDbLine
 10
831.980656714242
 20
13751.186345239999
 11
782.480656714242
 21
13751.186345239999
  0
LINE
  5
6D
100
AcDbEntity
  8
1
  6
CONTINUOUS
 62
           3
100
AcDbLine
 10
797.480656714243
 20
13750.186345239999
 11
827.480656714242
 21
13750.186345239999
  0
LINE
  5
6C
100
AcDbEntity
  8
1
  6
CONTINUOUS
 62
           3
100
AcDbLine
 10
827.480656714242
 20
13751.186345239999
 11
827.480656714242
 21
13750.186345239999
  0
LINE
  5
6B
100
AcDbEntity
  8
1
  6
CONTINUOUS
 62
           3
100
AcDbLine
 10
827.480656714242
 20
13740.186345239999
 11
797.480656714242
 21
13740.186345239999
  0
LINE
  5
6A
100
AcDbEntity
  8
1
  6
CONTINUOUS
 62
           3
100
AcDbLine
 10
782.480656714243
 20
13786.186345239999
 11
829.980656714244
 21
13786.186345239999
  0
LINE
  5
69
100
AcDbEntity
  8
1
  6
CONTINUOUS
 62
           3
100
AcDbLine
 10
831.980656714243
 20
13784.186345239999
 11
831.980656714242
 21
13751.186345239999
  0
LINE
  5
68
100
AcDbEntity
  8
1
  6
CONTINUOUS
 62
           3
100
AcDbLine
 10
782.480656714243
 20
13739.186345239999
 11
831.980656714242
 21
13739.186345239999
  0
LINE
  5
67
100
AcDbEntity
  8
1
  6
CONTINUOUS
 62
           3
100
AcDbLine
 10
831.980656714242
 20
13739.186345239999
 11
831.980656714242
 21
13706.186345239999
  0
LINE
  5
66
100
AcDbEntity
  8
1
  6
CONTINUOUS
 62
           3
100
AcDbLine
 10
829.980656714243
 20
13704.186345239999
 11
782.480656714243
 21
13704.186345239999
  0
LINE
  5
65
100
AcDbEntity
  8
1
  6
CONTINUOUS
 62
           3
100
AcDbLine
 10
833.980656714243
 20
13755.186345239999
 11
833.980656714242
 21
13752.186345239999
  0
LINE
  5
64
100
AcDbEntity
  8
1
  6
CONTINUOUS
 62
           3
100
AcDbLine
 10
833.980656714243
 20
13738.186345239999
 11
833.980656714243
 21
13735.186345239999
  0
LINE
  5
63
100
AcDbEntity
  8
1
  6
CONTINUOUS
 62
           3
100
AcDbLine
 10
827.480656714242
 20
13750.186345239999
 11
831.980656714242
 21
13750.186345239999
  0
LINE
  5
62
100
AcDbEntity
  8
1
  6
CONTINUOUS
 62
           3
100
AcDbLine
 10
832.980656714242
 20
13749.186345239999
 11
832.980656714242
 21
13741.186345239999
  0
LINE
  5
61
100
AcDbEntity
  8
1
  6
CONTINUOUS
 62
           3
100
AcDbLine
 10
846.787734806057
 20
13574.84041934575
 11
834.011764361356
 21
13744.35966479946
  0
LINE
  5
60
100
AcDbEntity
  8
1
  6
DOTTED
 62
           1
100
AcDbLine
 10
868.725519511831
 20
13576.49378022683
 11
857.756627158944
 21
13722.03562874415
  0
LINE
  5
5F
100
AcDbEntity
  8
1
  6
DOT_CENTER
 62
           1
100
AcDbLine
 10
904.716931656722
 20
13745.186345239999
 11
758.267737443653
 21
13745.186345239999
  0
LINE
  5
5E
100
AcDbEntity
  8
1
  6
CONTINUOUS
 62
           3
100
AcDbLine
 10
878.032597603645
 20
13756.186345239999
 11
870.532597603645
 21
13756.186345239999
  0
LINE
  5
5D
100
AcDbEntity
  8
1
  6
CONTINUOUS
 62
           3
100
AcDbLine
 10
895.032597603645
 20
13697.686345239999
 11
893.032597603645
 21
13697.686345239999
  0
LINE
  5
5C
100
AcDbEntity
  8
1
  6
CONTINUOUS
 62
           3
100
AcDbLine
 10
895.032597603645
 20
13792.686345239999
 11
895.032597603645
 21
13697.686345239999
  0
LINE
  5
5B
100
AcDbEntity
  8
1
  6
CONTINUOUS
 62
           3
100
AcDbLine
 10
893.032597603645
 20
13792.686345239999
 11
895.032597603645
 21
13792.686345239999
  0
LINE
  5
5A
100
AcDbEntity
  8
1
  6
CONTINUOUS
 62
           3
100
AcDbLine
 10
893.032597603645
 20
13770.186345239999
 11
893.032597603645
 21
13792.686345239999
  0
LINE
  5
59
100
AcDbEntity
  8
1
  6
CONTINUOUS
 62
           3
100
AcDbLine
 10
885.032597603645
 20
13720.186345239999
 11
893.032597603645
 21
13720.186345239999
  0
LINE
  5
58
100
AcDbEntity
  8
1
  6
CONTINUOUS
 62
           3
100
AcDbLine
 10
893.032597603645
 20
13697.686345239999
 11
893.032597603645
 21
13720.186345239999
  0
LINE
  5
57
100
AcDbEntity
  8
1
  6
CONTINUOUS
 62
           3
100
AcDbLine
 10
893.032597603645
 20
13770.186345239999
 11
885.032597603645
 21
13770.186345239999
  0
LINE
  5
56
100
AcDbEntity
  8
1
  6
CONTINUOUS
 62
           3
100
AcDbLine
 10
893.032597603645
 20
13720.186345239999
 11
893.032597603645
 21
13770.186345239999
  0
LINE
  5
55
100
AcDbEntity
  8
1
  6
CONTINUOUS
 62
           3
100
AcDbLine
 10
883.032597603645
 20
13768.186345239999
 11
883.032597603645
 21
13722.186345239999
  0
LINE
  5
54
100
AcDbEntity
  8
1
  6
DOT_CENTER
 62
           1
100
AcDbLine
 10
902.513727777727
 20
13710.186345239999
 11
886.693727777727
 21
13710.186345239999
  0
LINE
  5
53
100
AcDbEntity
  8
1
  6
DOT_CENTER
 62
           1
100
AcDbLine
 10
902.673727777727
 20
13780.186345239999
 11
886.693727777727
 21
13780.186345239999
  0
LINE
  5
52
100
AcDbEntity
  8
1
  6
DOT_CENTER
 62
           1
100
AcDbLine
 10
881.139835790093
 20
13575.667099786289
 11
834.68937301655
 21
13575.667099786289
  0
LINE
  5
51
100
AcDbEntity
  8
1
  6
DOTTED
 62
           1
100
AcDbLine
 10
878.032597603645
 20
13734.186345239999
 11
870.532597603645
 21
13734.186345239999
  0
LINE
  5
50
100
AcDbEntity
  8
1
  6
CONTINUOUS
 62
           3
100
AcDbLine
 10
834.980656714243
 20
13756.186345239999
 11
844.980656714243
 21
13756.186345239999
  0
LINE
  5
4F
100
AcDbEntity
  8
1
  6
DOTTED
 62
           1
100
AcDbLine
 10
834.980656714242
 20
13734.186345239999
 11
844.980656714243
 21
13734.186345239999
  0
LINE
  5
4E
100
AcDbEntity
  8
1
  6
CONTINUOUS
 62
           3
100
AcDbLine
 10
857.756627158944
 20
13722.03562874415
 11
846.787734806057
 21
13576.49378022683
  0
LINE
  5
4D
100
AcDbEntity
  8
1
  6
CONTINUOUS
 62
           3
100
AcDbLine
 10
857.756627158944
 20
13722.03562874415
 11
855.94954906713
 21
13746.013025680541
  0
LINE
  5
4C
100
AcDbEntity
  8
1
  6
CONTINUOUS
 62
           3
100
AcDbLine
 10
880.677719104811
 20
13733.42937861768
 11
868.725519511831
 21
13574.84041934575
  0
LINE
  5
4B
100
AcDbEntity
  8
1
  6
CONTINUOUS
 62
           3
100
AcDbLine
 10
881.501489956533
 20
13744.35966479946
 11
880.677719104811
 21
13733.42937861768
  0
LINE
  5
4A
100
AcDbEntity
  8
1
  6
CONTINUOUS
 62
           3
100
AcDbLine
 10
797.480656714243
 20
13751.186345239999
 11
797.480656714243
 21
13750.186345239999
  0
LINE
  5
49
100
AcDbEntity
  8
1
  6
CONTINUOUS
 62
           3
100
AcDbLine
 10
785.480656714243
 20
13751.186345239999
 11
785.480656714243
 21
13739.186345239999
  0
LINE
  5
48
100
AcDbEntity
  8
1
  6
CONTINUOUS
 62
           3
100
AcDbLine
 10
783.480656714242
 20
13751.186345239999
 11
783.480656714242
 21
13784.186345239999
  0
LINE
  5
47
100
AcDbEntity
  8
1
  6
CONTINUOUS
 62
           3
100
AcDbLine
 10
783.480656714242
 20
13706.186345239999
 11
783.480656714242
 21
13739.186345239999
  0
LINE
  5
46
100
AcDbEntity
  8
1
  6
CONTINUOUS
 62
           3
100
AcDbLine
 10
794.980656714242
 20
13750.186345239999
 11
797.480656714243
 21
13750.186345239999
  0
LINE
  5
45
100
AcDbEntity
  8
1
  6
CONTINUOUS
 62
           3
100
AcDbLine
 10
797.480656714242
 20
13740.186345239999
 11
797.480656714243
 21
13739.186345239999
  0
LINE
  5
44
100
AcDbEntity
  8
1
  6
CONTINUOUS
 62
           3
100
AcDbLine
 10
797.480656714242
 20
13740.186345239999
 11
794.980656714243
 21
13740.186345239999
  0
LINE
  5
43
100
AcDbEntity
  8
1
  6
CONTINUOUS
 62
           3
100
AcDbLine
 10
794.980656714243
 20
13740.186345239999
 11
794.980656714242
 21
13750.186345239999
  0
LINE
  5
42
100
AcDbEntity
  8
1
  6
CONTINUOUS
 62
           3
100
AcDbLine
 10
782.480656714243
 20
13805.186345239999
 11
782.480656714243
 21
13685.186345239999
  0
LINE
  5
41
100
AcDbEntity
  8
1
  6
CONTINUOUS
 62
           3
100
AcDbLine
 10
780.480656714243
 20
13805.186345239999
 11
782.480656714243
 21
13805.186345239999
  0
LINE
  5
40
100
AcDbEntity
  8
1
  6
CONTINUOUS
 62
           3
100
AcDbLine
 10
780.480656714243
 20
13685.186345239999
 11
780.480656714243
 21
13805.186345239999
  0
LINE
  5
3F
100
AcDbEntity
  8
1
  6
DOTTED
 62
           1
100
AcDbLine
 10
780.480656714243
 20
13800.18547037443
 11
782.480656714243
 21
13800.18547037443
  0
LINE
  5
3E
100
AcDbEntity
  8
1
  6
DOTTED
 62
           1
100
AcDbLine
 10
780.480656714243
 20
13790.187434281461
 11
782.480656714243
 21
13790.187434281461
  0
LINE
  5
3D
100
AcDbEntity
  8
1
  6
DOT_CENTER
 62
           1
100
AcDbLine
 10
774.70670448268
 20
13795.186345239999
 11
787.980780142149
 21
13795.186345239999
  0
LINE
  5
3C
100
AcDbEntity
  8
1
  6
DOTTED
 62
           1
100
AcDbLine
 10
782.480656714243
 20
13701.186345239999
 11
780.480656714243
 21
13701.186345239999
  0
LINE
  5
3B
100
AcDbEntity
  8
1
  6
DOTTED
 62
           1
100
AcDbLine
 10
782.480656714243
 20
13689.186345239999
 11
780.480656714243
 21
13689.186345239999
  0
LINE
  5
3A
100
AcDbEntity
  8
1
  6
DOT_CENTER
 62
           1
100
AcDbLine
 10
787.144653512803
 20
13695.186345239999
 11
774.70670448268
 21
13695.186345239999
  0
LINE
  5
39
100
AcDbEntity
  8
1
  6
DOT_CENTER
 62
           1
100
AcDbLine
 10
787.144653512803
 20
13707.686345239999
 11
774.70670448268
 21
13707.686345239999
  0
LINE
  5
38
100
AcDbEntity
  8
1
  6
DOTTED
 62
           1
100
AcDbLine
 10
782.480656714243
 20
13701.686345239999
 11
780.480656714243
 21
13701.686345239999
  0
LINE
  5
37
100
AcDbEntity
  8
1
  6
DOTTED
 62
           1
100
AcDbLine
 10
782.480656714243
 20
13713.686345239999
 11
780.480656714243
 21
13713.686345239999
  0
LINE
  5
36
100
AcDbEntity
  8
1
  6
DOT_CENTER
 62
           1
100
AcDbLine
 10
774.70670448268
 20
13782.686345239999
 11
787.980780142149
 21
13782.686345239999
  0
LINE
  5
35
100
AcDbEntity
  8
1
  6
DOTTED
 62
           1
100
AcDbLine
 10
780.480656714243
 20
13777.687434281461
 11
782.480656714243
 21
13777.687434281461
  0
LINE
  5
34
100
AcDbEntity
  8
1
  6
DOTTED
 62
           1
100
AcDbLine
 10
780.480656714243
 20
13787.68547037443
 11
782.480656714243
 21
13787.68547037443
  0
LINE
  5
33
100
AcDbEntity
  8
1
  6
DOT_CENTER
 62
           1
100
AcDbLine
 10
812.480656714243
 20
13803.698828172421
 11
812.480656714243
 21
13688.962900995801
  0
LINE
  5
32
100
AcDbEntity
  8
1
  6
CONTINUOUS
 62
           3
100
AcDbLine
 10
782.480656714243
 20
13685.186345239999
 11
780.480656714243
 21
13685.186345239999
  0
LINE
  5
31
100
AcDbEntity
  8
1
  6
DOTTED
 62
           1
100
AcDbLine
 10
893.032597603645
 20
13784.23634524001
 11
895.032597603645
 21
13784.23634524001
  0
LINE
  5
30
100
AcDbEntity
  8
1
  6
DOTTED
 62
           1
100
AcDbLine
 10
893.032597603645
 20
13776.13634524
 11
895.032597603645
 21
13776.13634524
  0
LINE
  5
2F
100
AcDbEntity
  8
1
  6
DOTTED
 62
           1
100
AcDbLine
 10
893.032597603645
 20
13714.23634524001
 11
895.032597603645
 21
13714.23634524001
  0
LINE
  5
2E
100
AcDbEntity
  8
1
  6
DOTTED
 62
           1
100
AcDbLine
 10
893.032597603645
 20
13706.13634524
 11
895.032597603645
 21
13706.13634524
  0
LINE
  5
2D
100
AcDbEntity
  8
1
  6
DOT_CENTER
 62
           1
100
AcDbLine
 10
881.532597603645
 20
13487.97552925038
 11
439.798644396269
 21
13487.97552925038
  0
LINE
  5
2C
100
AcDbEntity
  8
1
  6
DOT_CENTER
 62
           1
100
AcDbLine
 10
870.532597603645
 20
13505.65994810411
 11
870.532597603645
 21
13498.97552925038
  0
LINE
  5
2B
100
AcDbEntity
  8
1
  6
DOT_CENTER
 62
           1
100
AcDbLine
 10
870.532597603645
 20
13476.97552925038
 11
870.532597603645
 21
13470.80739271548
  0
LINE
  5
2A
100
AcDbEntity
  8
1
  6
DOT_CENTER
 62
           1
100
AcDbLine
 10
870.532597603645
 20
13498.97552925038
 11
870.532597603645
 21
13476.97552925038
  0
POINT
  5
29
100
AcDbEntity
  8
1
 62
           1
100
AcDbPoint
 10
560.532597603646
 20
13336.30005597637
  0
POINT
  5
28
100
AcDbEntity
  8
1
 62
           1
100
AcDbPoint
 10
560.532597603646
 20
13328.80005597637
  0
ENDSEC
  0
SECTION
  2
OBJECTS
  0
DICTIONARY
  5
19
100
AcDbDictionary
  3
ACAD_GROUP
350
1A
  3
ACAD_MLINESTYLE
350
1B
  0
DICTIONARY
  5
1A
102
{ACAD_REACTORS
330
19
102
}
100
AcDbDictionary
  0
DICTIONARY
  5
1B
102
{ACAD_REACTORS
330
19
102
}
100
AcDbDictionary
  3
STANDARD
350
1C
  0
MLINESTYLE
  5
1C
102
{ACAD_REACTORS
330
1B
102
}
100
AcDbMlineStyle
  2
STANDARD
 70
           0
  3

 62
           0
 51
90.0
 52
90.0
 71
           2
 49
0.5
 62
         256
  6
BYLAYER
 49
-0.5
 62
         256
  6
BYLAYER
  0
ENDSEC
  0
EOF
