  0
SECTION
  2
HEADER
  9
$ACADVER
  1
AC1014
  9
$ACADMAINTVER
 70
           0
  9
$DWGCODEPAGE
  3
DOS932
  9
$INSBASE
 10
0.0
 20
0.0
 30
0.0
  9
$EXTMIN
 10
1.000000000000E+20
 20
1.000000000000E+20
 30
1.000000000000E+20
  9
$EXTMAX
 10
-1.000000000000E+20
 20
-1.000000000000E+20
 30
-1.000000000000E+20
  9
$LIMMIN
 10
0.0
 20
0.0
  9
$LIMMAX
 10
0.0
 20
0.0
  9
$ORTHOMODE
 70
           0
  9
$REGENMODE
 70
           1
  9
$FILLMODE
 70
           1
  9
$QTEXTMODE
 70
           0
  9
$MIRRTEXT
 70
           1
  9
$DRAGMODE
 70
           2
  9
$LTSCALE
 40
1.0
  9
$OSMODE
 70
           0
  9
$ATTMODE
 70
           1
  9
$TEXTSIZE
 40
0.2
  9
$TRACEWID
 40
0.05
  9
$TEXTSTYLE
  7
STANDARD
  9
$CLAYER
  8
0
  9
$CELTYPE
  6
CONTINUOUS
  9
$CECOLOR
 62
         256
  9
$CELTSCALE
 40
1.0
  9
$DELOBJ
 70
           1
  9
$DISPSILH
 70
           0
  9
$DIMSCALE
 40
1.0
  9
$DIMASZ
 40
0.18
  9
$DIMEXO
 40
0.0625
  9
$DIMDLI
 40
0.38
  9
$DIMRND
 40
0.0
  9
$DIMDLE
 40
0.0
  9
$DIMEXE
 40
0.18
  9
$DIMTP
 40
0.0
  9
$DIMTM
 40
0.0
  9
$DIMTXT
 40
0.18
  9
$DIMCEN
 40
0.09
  9
$DIMTSZ
 40
0.0
  9
$DIMTOL
 70
           0
  9
$DIMLIM
 70
           0
  9
$DIMTIH
 70
           1
  9
$DIMTOH
 70
           1
  9
$DIMSE1
 70
           0
  9
$DIMSE2
 70
           0
  9
$DIMTAD
 70
           0
  9
$DIMZIN
 70
           0
  9
$DIMBLK
  1

  9
$DIMASO
 70
           1
  9
$DIMSHO
 70
           1
  9
$DIMPOST
  1

  9
$DIMAPOST
  1

  9
$DIMALT
 70
           0
  9
$DIMALTD
 70
           2
  9
$DIMALTF
 40
25.4
  9
$DIMLFAC
 40
1.0
  9
$DIMTOFL
 70
           0
  9
$DIMTVP
 40
0.0
  9
$DIMTIX
 70
           0
  9
$DIMSOXD
 70
           0
  9
$DIMSAH
 70
           0
  9
$DIMBLK1
  1

  9
$DIMBLK2
  1

  9
$DIMSTYLE
  2
STANDARD
  9
$DIMCLRD
 70
           0
  9
$DIMCLRE
 70
           0
  9
$DIMCLRT
 70
           0
  9
$DIMTFAC
 40
1.0
  9
$DIMGAP
 40
0.09
  9
$DIMJUST
 70
           0
  9
$DIMSD1
 70
           0
  9
$DIMSD2
 70
           0
  9
$DIMTOLJ
 70
           1
  9
$DIMTZIN
 70
           0
  9
$DIMALTZ
 70
           0
  9
$DIMALTTZ
 70
           0
  9
$DIMFIT
 70
           3
  9
$DIMUPT
 70
           0
  9
$DIMUNIT
 70
           2
  9
$DIMDEC
 70
           4
  9
$DIMTDEC
 70
           4
  9
$DIMALTU
 70
           2
  9
$DIMALTTD
 70
           2
  9
$DIMTXSTY
  7
STANDARD
  9
$DIMAUNIT
 70
           0
  9
$LUNITS
 70
           2
  9
$LUPREC
 70
           4
  9
$SKETCHINC
 40
0.1
  9
$FILLETRAD
 40
0.0
  9
$AUNITS
 70
           0
  9
$AUPREC
 70
           0
  9
$MENU
  1
acad
  9
$ELEVATION
 40
0.0
  9
$PELEVATION
 40
0.0
  9
$THICKNESS
 40
0.0
  9
$LIMCHECK
 70
           0
  9
$BLIPMODE
 70
           1
  9
$CHAMFERA
 40
0.0
  9
$CHAMFERB
 40
0.0
  9
$CHAMFERC
 40
0.0
  9
$CHAMFERD
 40
0.0
  9
$SKPOLY
 70
           0
  9
$TDCREATE
 40
0.000000000
  9
$TDUPDATE
 40
0.000000000
  9
$TDINDWG
 40
0.0000000000
  9
$TDUSRTIMER
 40
0.0000000000
  9
$USRTIMER
 70
           1
  9
$ANGBASE
 50
0.0
  9
$ANGDIR
 70
           0
  9
$PDMODE
 70
           0
  9
$PDSIZE
 40
0.0
  9
$PLINEWID
 40
0.0
  9
$COORDS
 70
           0
  9
$SPLFRAME
 70
           0
  9
$SPLINETYPE
 70
           6
  9
$SPLINESEGS
 70
           8
  9
$ATTDIA
 70
           0
  9
$ATTREQ
 70
           1
  9
$HANDLING
 70
           1
  9
$HANDSEED
  5
2DC
  9
$SURFTAB1
 70
           6
  9
$SURFTAB2
 70
           6
  9
$SURFTYPE
 70
           6
  9
$SURFU
 70
           6
  9
$SURFV
 70
           6
  9
$UCSNAME
  2

  9
$UCSORG
 10
0.0
 20
0.0
 30
0.0
  9
$UCSXDIR
 10
1.0
 20
0.0
 30
0.0
  9
$UCSYDIR
 10
0.0
 20
1.0
 30
0.0
  9
$PUCSNAME
  2

  9
$PUCSORG
 10
0.0
 20
0.0
 30
0.0
  9
$PUCSXDIR
 10
1.0
 20
0.0
 30
0.0
  9
$PUCSYDIR
 10
0.0
 20
1.0
 30
0.0
  9
$USERI1
 70
           0
  9
$USERI2
 70
           0
  9
$USERI3
 70
           0
  9
$USERI4
 70
           0
  9
$USERI5
 70
           0
  9
$USERR1
 40
0.0
  9
$USERR2
 40
0.0
  9
$USERR3
 40
0.0
  9
$USERR4
 40
0.0
  9
$USERR5
 40
0.0
  9
$WORLDVIEW
 70
           1
  9
$SHADEDGE
 70
           3
  9
$SHADEDIF
 70
          70
  9
$TILEMODE
 70
           1
  9
$MAXACTVP
 70
          16
  9
$PINSBASE
 10
0.0
 20
0.0
 30
0.0
  9
$PLIMCHECK
 70
           0
  9
$PEXTMIN
 10
1.000000000000E+20
 20
1.000000000000E+20
 30
1.000000000000E+20
  9
$PEXTMAX
 10
-1.000000000000E+20
 20
-1.000000000000E+20
 30
-1.000000000000E+20
  9
$PLIMMIN
 10
0.0
 20
0.0
  9
$PLIMMAX
 10
12.0
 20
9.0
  9
$UNITMODE
 70
           0
  9
$VISRETAIN
 70
           0
  9
$PLINEGEN
 70
           1
  9
$PSLTSCALE
 70
           0
  9
$TREEDEPTH
 70
        3020
  9
$PICKSTYLE
 70
           1
  9
$CMLSTYLE
  2
STANDARD
  9
$CMLJUST
 70
           0
  9
$CMLSCALE
 40
1.0
  9
$PROXYGRAPHICS
 70
           0
  9
$MEASUREMENT
 70
           1
  0
ENDSEC
  0
SECTION
  2
CLASSES
  0
CLASS
  1
LWPOLYLINE
  2
AcDbPolyline
  3
"AutoCAD"
 90
        0
280
           0
281
           1
  0
CLASS
  1
IMAGE
  2
AcDbRasterImage
  3
ISM
 90
      127
280
           0
281
           1
  0
CLASS
  1
OLE2FRAME
  2
AcDbOle2Frame
  3
""
 90
        0
280
           0
281
           1
  0
CLASS
  1
HATCH
  2
AcDbHatch
  3
"ACAD_SEDONA"
 90
        0
280
           0
281
           1
  0
CLASS
  1
DICTIONARYVAR
  2
AcDbDictionaryVar
  3
"AutoCAD"
 90
        0
280
           0
281
           0
  0
CLASS
  1
RASTERVARIABLES
  2
AcDbRasterVariables
  3
ISM
 90
        0
280
           0
281
           0
  0
CLASS
  1
IMAGEDEF
  2
AcDbRasterImageDef
  3
ISM
 90
        0
280
           0
281
           0
  0
CLASS
  1
IMAGEDEF_REACTOR
  2
AcDbRasterImageDefReactor
  3
ISM
 90
        1
280
           0
281
           0
  0
CLASS
  1
IDBUFFER
  2
AcDbIdBuffer
  3
"Acad"
 90
        0
280
           0
281
           0
  0
CLASS
  1
SPATIAL_FILTER
  2
AcDbSpatialFilter
  3
"Acad"
 90
        0
280
           0
281
           0
  0
CLASS
  1
XRECORD
  2
AcDbXrecord
  3
"<Built In>"
 90
        0
280
           0
281
           0
  0
CLASS
  1
SORTENTSTABLE
  2
AcDbSortentsTable
  3
"AutoCAD"
 90
        0
280
           0
281
           0
  0
CLASS
  1
LAYER_INDEX
  2
AcDbLayerIndex
  3
"Acad"
 90
        0
280
           0
281
           0
  0
CLASS
  1
SPATIAL_INDEX
  2
AcDbSpatialIndex
  3
"Acad"
 90
        0
280
           0
281
           0
  0
CLASS
  1
OBJECT_PTR
  2
CAseDLPNTableRecord
  3
"ASE-LPNTableRecord"
 90
        1
280
           0
281
           0
  0
CLASS
  1
LAYOUT
  2
AcDbLayout
  3
"AutoCAD 2000"
 90
        1
280
           0
281
           0
  0
CLASS
  1
PLOTSETTINGS
  2
AcDbPlotSettings
  3
"AutoCAD 2000"
 90
        1
280
           0
281
           0
  0
CLASS
  1
ACDBDICTIONARYWDFLT
  2
AcDbDictionaryWithDefault
  3
"AutoCAD 2000"
 90
        1
280
           0
281
           0
  0
CLASS
  1
ACDBPLACEHOLDER
  2
AcDbPlaceHolder
  3
"AutoCAD 2000"
 90
        1
280
           0
281
           0
  0
CLASS
  1
VBA_PROJECT
  2
AcDbVbaProject
  3
"acadvba"
 90
        1
280
           0
281
           0
  0
CLASS
  1
WIPEOUT
  2
AcDbWipeout
  3
WipeOut|AutoCAD Express Tool|expresstools@autodesk.com
 90
      127
280
           0
281
           1
  0
CLASS
  1
WIPEOUTVARIABLES
  2
AcDbWipeoutVariables
  3
WipeOut|AutoCAD Express Tool|expresstools@autodesk.com
 90
        0
280
           0
281
           0
  0
CLASS
  1
RTEXT
  2
RText
  3
RText|AutoCAD Express Tool|expresstools@autodesk.com
 90
        0
280
           0
281
           1
  0
CLASS
  1
ARCALIGNEDTEXT
  2
AcDbArcAlignedText
  3
ATEXT|AutoCAD Express Tool|expresstools@autodesk.com
 90
        0
280
           0
281
           1
  0
ENDSEC
  0
SECTION
  2
TABLES
  0
TABLE
  2
VPORT
  5
7
100
AcDbSymbolTable
 70
           1
  0
VPORT
  5
15
100
AcDbSymbolTableRecord
100
AcDbViewportTableRecord
  2
*ACTIVE
 70
           0
 10
0.0
 20
0.0
 11
1.0
 21
1.0
 12
6.591288
 22
4.579184
 13
0.0
 23
0.0
 14
1.0
 24
1.0
 15
0.0
 25
0.0
 16
0.0
 26
0.0
 36
1.0
 17
0.0
 27
0.0
 37
0.0
 40
9.158369
 41
0.688564
 42
50.0
 43
0.0
 44
0.0
 50
0.0
 51
0.0
 71
           0
 72
         100
 73
           1
 74
           1
 75
           0
 76
           0
 77
           0
 78
           0
  0
ENDTAB
  0
TABLE
  2
LTYPE
  5
4
100
AcDbSymbolTable
 70
          10
  0
LTYPE
  5
11
100
AcDbSymbolTableRecord
100
AcDbLinetypeTableRecord
  2
BYBLOCK
 70
          64
  3

 72
          65
 73
           0
 40
0.0
  0
LTYPE
  5
12
100
AcDbSymbolTableRecord
100
AcDbLinetypeTableRecord
  2
BYLAYER
 70
          64
  3

 72
          65
 73
           0
 40
0.0
  0
LTYPE
  5
13
100
AcDbSymbolTableRecord
100
AcDbLinetypeTableRecord
  2
CONTINUOUS
 70
          64
  3
Solid line
 72
          65
 73
           0
 40
0.0
  0
LTYPE
  5
1D
100
AcDbSymbolTableRecord
100
AcDbLinetypeTableRecord
  2
DASHED
 70
          64
  3
Dashed
 72
          65
 73
           2
 40
15.0
 49
12.0
 74
           0
 49
-3.0
 74
           0
  0
LTYPE
  5
1E
100
AcDbSymbolTableRecord
100
AcDbLinetypeTableRecord
  2
DOTTED
 70
          64
  3
Dotted
 72
          65
 73
           2
 40
3.5
 49
0.5
 74
           0
 49
-3.0
 74
           0
  0
LTYPE
  5
1F
100
AcDbSymbolTableRecord
100
AcDbLinetypeTableRecord
  2
DOT_CENTER
 70
          64
  3
Dot_Center
 72
          65
 73
           4
 40
2.0
 49
1.25
 74
           0
 49
-0.25
 74
           0
 49
0.25
 74
           0
 49
-0.25
 74
           0
  0
LTYPE
  5
20
100
AcDbSymbolTableRecord
100
AcDbLinetypeTableRecord
  2
LONG_DASHED
 70
          64
  3
Long_Dashed
 72
          65
 73
           2
 40
2.0
 49
1.5
 74
           0
 49
-0.5
 74
           0
  0
LTYPE
  5
21
100
AcDbSymbolTableRecord
100
AcDbLinetypeTableRecord
  2
DASH_CENTER
 70
          64
  3
Dash_Center
 72
          65
 73
           4
 40
36.0
 49
24.0
 74
           0
 49
-3.0
 74
           0
 49
6.0
 74
           0
 49
-3.0
 74
           0
  0
LTYPE
  5
22
100
AcDbSymbolTableRecord
100
AcDbLinetypeTableRecord
  2
PHANTOM
 70
          64
  3
Phantom
 72
          65
 73
           6
 40
2.5
 49
1.25
 74
           0
 49
-0.25
 74
           0
 49
0.25
 74
           0
 49
-0.25
 74
           0
 49
0.25
 74
           0
 49
-0.25
 74
           0
  0
LTYPE
  5
23
100
AcDbSymbolTableRecord
100
AcDbLinetypeTableRecord
  2
CENTER_DASH_DASH
 70
          64
  3
Center_Dash_Dash
 72
          65
 73
           6
 40
22.0
 49
12.0
 74
           0
 49
-3.0
 74
           0
 49
0.5
 74
           0
 49
-3.0
 74
           0
 49
0.5
 74
           0
 49
-3.0
 74
           0
  0
ENDTAB
  0
TABLE
  2
LAYER
  5
2
100
AcDbSymbolTable
 70
           2
  0
LAYER
  5
14
100
AcDbSymbolTableRecord
100
AcDbLayerTableRecord
  2
0
 70
           0
 62
           7
  6
CONTINUOUS
  0
LAYER
  5
24
100
AcDbSymbolTableRecord
100
AcDbLayerTableRecord
  2
1
 70
           0
 62
           7
  6
CONTINUOUS
  0
ENDTAB
  0
TABLE
  2
STYLE
  5
3
100
AcDbSymbolTable
 70
           3
  0
STYLE
  5
17
100
AcDbSymbolTableRecord
100
AcDbTextStyleTableRecord
  2
STANDARD
 70
           0
 40
0.0
 41
1.0
 50
0.0
 71
           0
 42
0.0
  3
txt
  4

  0
STYLE
  5
2D7
100
AcDbSymbolTableRecord
100
AcDbTextStyleTableRecord
  2
CONVERTER_1
 70
           0
 40
0.0
 41
1.125
 50
0.0
 71
           0
 42
0.0
  3
txt
  4

  0
STYLE
  5
2D9
100
AcDbSymbolTableRecord
100
AcDbTextStyleTableRecord
  2
CONVERTER_2
 70
           0
 40
0.0
 41
0.72
 50
0.0
 71
           0
 42
0.0
  3
MS Gothic
  4

1001
ACAD
1000
MS Gothic
1071
    32785
  0
ENDTAB
  0
TABLE
  2
VIEW
  5
5
100
AcDbSymbolTable
 70
           0
  0
ENDTAB
  0
TABLE
  2
UCS
  5
6
100
AcDbSymbolTable
 70
           0
  0
ENDTAB
  0
TABLE
  2
APPID
  5
8
100
AcDbSymbolTable
 70
           1
  0
APPID
  5
16
100
AcDbSymbolTableRecord
100
AcDbRegAppTableRecord
  2
ACAD
 70
           0
  0
ENDTAB
  0
TABLE
  2
DIMSTYLE
  5
9
100
AcDbSymbolTable
 70
           1
  0
DIMSTYLE
105
18
100
AcDbSymbolTableRecord
100
AcDbDimStyleTableRecord
  2
STANDARD
 70
           0
  3

  4

  5

  6

  7

 40
1.0
 41
0.18
 42
0.0625
 43
0.38
 44
0.18
 45
0.0
 46
0.0
 47
0.0
 48
0.0
 71
           0
 72
           0
 73
           1
 74
           1
 75
           0
 76
           0
 77
           0
 78
           0
140
0.18
141
0.09
142
0.0
143
25.4
144
1.0
145
0.0
146
1.0
147
0.09
170
           0
171
           2
172
           0
173
           0
174
           0
175
           0
176
           0
177
           0
178
           0
270
           2
271
           4
272
           4
273
           2
274
           2
275
           0
280
           0
281
           0
282
           0
283
           1
284
           0
285
           0
286
           0
287
           0
288
           0
340
17
  0
ENDTAB
  0
TABLE
  2
BLOCK_RECORD
  5
1
100
AcDbSymbolTable
 70
           0
  0
BLOCK_RECORD
  5
A
100
AcDbSymbolTableRecord
100
AcDbBlockTableRecord
  2
*MODEL_SPACE
  0
BLOCK_RECORD
  5
B
100
AcDbSymbolTableRecord
100
AcDbBlockTableRecord
  2
*PAPER_SPACE
  0
ENDTAB
  0
ENDSEC
  0
SECTION
  2
BLOCKS
  0
BLOCK
  5
D
100
AcDbEntity
  8
0
100
AcDbBlockBegin
  2
*MODEL_SPACE
 70
           0
 10
0.0
 20
0.0
 30
0.0
  3
*MODEL_SPACE
  1

  0
ENDBLK
  5
E
100
AcDbEntity
  8
0
100
AcDbBlockEnd
  0
BLOCK
  5
F
100
AcDbEntity
 67
           1
  8
0
100
AcDbBlockBegin
  2
*PAPER_SPACE
 70
           0
 10
0.0
 20
0.0
 30
0.0
  3
*PAPER_SPACE
  1

  0
ENDBLK
  5
10
100
AcDbEntity
 67
           1
  8
0
100
AcDbBlockEnd
  0
ENDSEC
  0
SECTION
  2
ENTITIES
  0
MTEXT
  5
2DA
100
AcDbEntity
  8
1
 62
           1
100
AcDbMText
 10
422.071028897635
 20
13135.57764709967
 30
0.0
 40
7.799804672134
 41
0.0
 71
           5
 72
           1
  1
Ｎ-ＴＶアーム ３軸・壁付け型・標準アーム
  7
CONVERTER_2
 11
1.0
 21
0.0
 31
0.0
  0
MTEXT
  5
2D8
100
AcDbEntity
  8
1
 62
           1
100
AcDbMText
 10
422.071028897635
 20
13153.227647099669
 30
0.0
 40
7.799804672134
 41
0.0
 71
           5
 72
           1
  1
NTV-3
  7
CONVERTER_1
 11
1.0
 21
0.0
 31
0.0
  0
ARC
  5
2D6
100
AcDbEntity
  8
1
  6
DOTTED
 62
           1
100
AcDbCircle
 10
882.409005052097
 20
13113.10834757331
 40
1.0
100
AcDbArc
 50
90.0
 51
180.0
  0
ARC
  5
2D5
100
AcDbEntity
  8
1
  6
CONTINUOUS
 62
           3
100
AcDbCircle
 10
877.409005052097
 20
13142.10834757331
 40
2.0
100
AcDbArc
 50
0.0
 51
89.999999999974
  0
ARC
  5
2D4
100
AcDbEntity
  8
1
  6
CONTINUOUS
 62
           3
100
AcDbCircle
 10
877.409005052097
 20
13064.10834757331
 40
2.0
100
AcDbArc
 50
-90.0
 51
0.0
  0
ARC
  5
2D3
100
AcDbEntity
  8
1
  6
CONTINUOUS
 62
           3
100
AcDbCircle
 10
879.409005052096
 20
13107.10834757331
 40
1.0
100
AcDbArc
 50
0.0
 51
90.0
  0
ARC
  5
2D2
100
AcDbEntity
  8
1
  6
CONTINUOUS
 62
           3
100
AcDbCircle
 10
879.409005052096
 20
13099.10834757331
 40
1.0
100
AcDbArc
 50
-90.0
 51
0.0
  0
ARC
  5
2D1
100
AcDbEntity
  8
1
  6
DOTTED
 62
           1
100
AcDbCircle
 10
882.409005052097
 20
13093.10834757331
 40
1.0
100
AcDbArc
 50
180.0
 51
-90.000000000052
  0
ARC
  5
2D0
100
AcDbEntity
  8
1
  6
CONTINUOUS
 62
           3
100
AcDbCircle
 10
879.409005052096
 20
13110.10834757331
 40
2.0
100
AcDbArc
 50
-90.0
 51
0.0
  0
ARC
  5
2CF
100
AcDbEntity
  8
1
  6
CONTINUOUS
 62
           3
100
AcDbCircle
 10
879.409005052097
 20
13096.10834757331
 40
2.0
100
AcDbArc
 50
0.0
 51
90.000000000026
  0
ARC
  5
2CE
100
AcDbEntity
  8
1
  6
CONTINUOUS
 62
           3
100
AcDbCircle
 10
906.909005052097
 20
13115.10834757331
 40
2.0
100
AcDbArc
 50
180.0
 51
-90.0
  0
ARC
  5
2CD
100
AcDbEntity
  8
1
  6
CONTINUOUS
 62
           3
100
AcDbCircle
 10
906.909005052097
 20
13161.10834757331
 40
2.0
100
AcDbArc
 50
90.0
 51
180.0
  0
ARC
  5
2CC
100
AcDbEntity
  8
1
  6
DOTTED
 62
           1
100
AcDbCircle
 10
899.909005052097
 20
13122.10834757331
 40
4.999999999998
100
AcDbArc
 50
45.572995999178
 51
90.0
  0
ARC
  5
2CB
100
AcDbEntity
  8
1
  6
CONTINUOUS
 62
           3
100
AcDbCircle
 10
899.909005052097
 20
13154.10834757331
 40
5.0
100
AcDbArc
 50
-90.0
 51
0.0
  0
ARC
  5
2CA
100
AcDbEntity
  8
1
  6
CONTINUOUS
 62
           3
100
AcDbCircle
 10
899.909005052097
 20
13122.10834757331
 40
5.0
100
AcDbArc
 50
0.0
 51
45.572995999178
  0
ARC
  5
2C9
100
AcDbEntity
  8
1
  6
CONTINUOUS
 62
           3
100
AcDbCircle
 10
833.909005052096
 20
13087.10834757331
 40
4.0
100
AcDbArc
 50
180.0
 51
-138.590377890664
  0
ARC
  5
2C8
100
AcDbEntity
  8
1
  6
CONTINUOUS
 62
           3
100
AcDbCircle
 10
832.909005052096
 20
13142.10834757331
 40
2.0
100
AcDbArc
 50
90.0
 51
180.0
  0
ARC
  5
2C7
100
AcDbEntity
  8
1
  6
CONTINUOUS
 62
           3
100
AcDbCircle
 10
832.909005052096
 20
13064.10834757331
 40
2.0
100
AcDbArc
 50
180.0
 51
-90.0
  0
ARC
  5
2C6
100
AcDbEntity
  8
1
  6
CONTINUOUS
 62
           3
100
AcDbCircle
 10
833.909005052096
 20
13119.10834757331
 40
3.999999999997
100
AcDbArc
 50
138.590377890781
 51
180.0
  0
ARC
  5
2C5
100
AcDbEntity
  8
1
  6
CONTINUOUS
 62
           3
100
AcDbCircle
 10
526.909005052097
 20
12764.936301946371
 40
1.0
100
AcDbArc
 50
90.0
 51
180.0
  0
ARC
  5
2C4
100
AcDbEntity
  8
1
  6
CONTINUOUS
 62
           3
100
AcDbCircle
 10
526.909005052097
 20
12727.936301946371
 40
1.0
100
AcDbArc
 50
180.0
 51
-90.0
  0
ARC
  5
2C3
100
AcDbEntity
  8
1
  6
CONTINUOUS
 62
           3
100
AcDbCircle
 10
528.909005052097
 20
12869.34684870146
 40
4.0
100
AcDbArc
 50
180.0
 51
-138.590377890781
  0
ARC
  5
2C2
100
AcDbEntity
  8
1
  6
CONTINUOUS
 62
           3
100
AcDbCircle
 10
527.909005052096
 20
12924.34684870146
 40
2.0
100
AcDbArc
 50
90.0
 51
180.0
  0
ARC
  5
2C1
100
AcDbEntity
  8
1
  6
CONTINUOUS
 62
           3
100
AcDbCircle
 10
527.909005052096
 20
12846.34684870146
 40
2.0
100
AcDbArc
 50
180.0
 51
-90.0
  0
ARC
  5
2C0
100
AcDbEntity
  8
1
  6
CONTINUOUS
 62
           3
100
AcDbCircle
 10
528.909005052097
 20
12901.34684870146
 40
4.000000000004
100
AcDbArc
 50
138.590377890664
 51
180.0
  0
ARC
  5
2BF
100
AcDbEntity
  8
1
  6
CONTINUOUS
 62
           3
100
AcDbCircle
 10
899.909005052097
 20
12869.34684870146
 40
5.0
100
AcDbArc
 50
0.0
 51
45.572995999193
  0
ARC
  5
2BE
100
AcDbEntity
  8
1
  6
CONTINUOUS
 62
           3
100
AcDbCircle
 10
572.409005052097
 20
12924.34684870146
 40
2.0
100
AcDbArc
 50
0.0
 51
90.0
  0
ARC
  5
2BD
100
AcDbEntity
  8
1
  6
CONTINUOUS
 62
           3
100
AcDbCircle
 10
572.409005052097
 20
12846.34684870146
 40
2.0
100
AcDbArc
 50
-90.0
 51
0.0
  0
ARC
  5
2BC
100
AcDbEntity
  8
1
  6
CONTINUOUS
 62
           3
100
AcDbCircle
 10
574.409005052097
 20
12889.34684870146
 40
1.0
100
AcDbArc
 50
0.0
 51
90.0
  0
ARC
  5
2BB
100
AcDbEntity
  8
1
  6
CONTINUOUS
 62
           3
100
AcDbCircle
 10
574.409005052097
 20
12881.34684870146
 40
1.0
100
AcDbArc
 50
-90.0
 51
0.0
  0
ARC
  5
2BA
100
AcDbEntity
  8
1
  6
CONTINUOUS
 62
           3
100
AcDbCircle
 10
577.409005052097
 20
12875.34684870146
 40
1.0
100
AcDbArc
 50
180.0
 51
-90.0
  0
ARC
  5
2B9
100
AcDbEntity
  8
1
  6
CONTINUOUS
 62
           3
100
AcDbCircle
 10
574.409005052097
 20
12892.34684870146
 40
2.0
100
AcDbArc
 50
-90.0
 51
0.0
  0
ARC
  5
2B8
100
AcDbEntity
  8
1
  6
CONTINUOUS
 62
           3
100
AcDbCircle
 10
574.409005052097
 20
12878.34684870146
 40
2.0
100
AcDbArc
 50
0.0
 51
90.0
  0
ARC
  5
2B7
100
AcDbEntity
  8
1
  6
CONTINUOUS
 62
           3
100
AcDbCircle
 10
899.909005052097
 20
12901.34684870146
 40
5.0
100
AcDbArc
 50
-90.0
 51
0.0
  0
ARC
  5
2B6
100
AcDbEntity
  8
1
  6
CONTINUOUS
 62
           3
100
AcDbCircle
 10
899.909005052097
 20
12869.34684870146
 40
5.0
100
AcDbArc
 50
45.572995999193
 51
90.0
  0
ARC
  5
2B5
100
AcDbEntity
  8
1
  6
CONTINUOUS
 62
           3
100
AcDbCircle
 10
906.909005052097
 20
12908.34684870146
 40
2.0
100
AcDbArc
 50
90.0
 51
180.0
  0
ARC
  5
2B4
100
AcDbEntity
  8
1
  6
CONTINUOUS
 62
           3
100
AcDbCircle
 10
906.909005052097
 20
12862.34684870146
 40
2.0
100
AcDbArc
 50
180.0
 51
-90.0
  0
ARC
  5
2B3
100
AcDbEntity
  8
1
  6
CONTINUOUS
 62
           3
100
AcDbCircle
 10
876.909005052097
 20
12674.936301946371
 40
0.5
100
AcDbArc
 50
-90.0
 51
0.0
  0
ARC
  5
2B2
100
AcDbEntity
  8
1
  6
CONTINUOUS
 62
           3
100
AcDbCircle
 10
867.909005052097
 20
12674.936301946371
 40
0.5
100
AcDbArc
 50
180.0
 51
-90.0
  0
ARC
  5
2B1
100
AcDbEntity
  8
1
  6
CONTINUOUS
 62
           3
100
AcDbCircle
 10
876.909005052097
 20
12708.936301946371
 40
0.5
100
AcDbArc
 50
0.0
 51
90.0
  0
ARC
  5
2B0
100
AcDbEntity
  8
1
  6
CONTINUOUS
 62
           3
100
AcDbCircle
 10
867.909005052097
 20
12708.936301946371
 40
0.5
100
AcDbArc
 50
90.0
 51
180.0
  0
ARC
  5
2AF
100
AcDbEntity
  8
1
  6
CONTINUOUS
 62
           3
100
AcDbCircle
 10
746.909005052097
 20
12674.936301946371
 40
0.5
100
AcDbArc
 50
-90.0
 51
0.0
  0
ARC
  5
2AE
100
AcDbEntity
  8
1
  6
CONTINUOUS
 62
           3
100
AcDbCircle
 10
737.909005052097
 20
12674.936301946371
 40
0.5
100
AcDbArc
 50
180.0
 51
-90.0
  0
ARC
  5
2AD
100
AcDbEntity
  8
1
  6
CONTINUOUS
 62
           3
100
AcDbCircle
 10
746.909005052097
 20
12708.936301946371
 40
0.5
100
AcDbArc
 50
0.0
 51
90.0
  0
ARC
  5
2AC
100
AcDbEntity
  8
1
  6
CONTINUOUS
 62
           3
100
AcDbCircle
 10
737.909005052097
 20
12708.936301946371
 40
0.5
100
AcDbArc
 50
90.0
 51
180.0
  0
ARC
  5
2AB
100
AcDbEntity
  8
1
  6
CONTINUOUS
 62
           3
100
AcDbCircle
 10
617.909005052097
 20
12701.436301946371
 40
0.5
100
AcDbArc
 50
-90.0
 51
0.0
  0
ARC
  5
2AA
100
AcDbEntity
  8
1
  6
CONTINUOUS
 62
           3
100
AcDbCircle
 10
608.909005052097
 20
12701.436301946371
 40
0.5
100
AcDbArc
 50
180.0
 51
-90.0
  0
ARC
  5
2A9
100
AcDbEntity
  8
1
  6
CONTINUOUS
 62
           3
100
AcDbCircle
 10
617.909005052097
 20
12735.436301946371
 40
0.5
100
AcDbArc
 50
0.0
 51
90.0
  0
ARC
  5
2A8
100
AcDbEntity
  8
1
  6
CONTINUOUS
 62
           3
100
AcDbCircle
 10
608.909005052097
 20
12735.436301946371
 40
0.5
100
AcDbArc
 50
90.0
 51
180.0
  0
ARC
  5
2A7
100
AcDbEntity
  8
1
  6
CONTINUOUS
 62
           3
100
AcDbCircle
 10
705.909005052097
 20
12771.936301946371
 40
0.5
100
AcDbArc
 50
180.0
 51
-90.0
  0
ARC
  5
2A6
100
AcDbEntity
  8
1
  6
CONTINUOUS
 62
           3
100
AcDbCircle
 10
705.909005052097
 20
12795.936301946371
 40
0.5
100
AcDbArc
 50
90.0
 51
180.0
  0
ARC
  5
2A5
100
AcDbEntity
  8
1
  6
CONTINUOUS
 62
           3
100
AcDbCircle
 10
705.909005052097
 20
12696.936301946371
 40
0.5
100
AcDbArc
 50
180.0
 51
-90.0
  0
ARC
  5
2A4
100
AcDbEntity
  8
1
  6
CONTINUOUS
 62
           3
100
AcDbCircle
 10
865.409005052096
 20
12768.436301946371
 40
3.0
100
AcDbArc
 50
0.0
 51
90.0
  0
ARC
  5
2A3
100
AcDbEntity
  8
1
  6
CONTINUOUS
 62
           3
100
AcDbCircle
 10
882.409005052096
 20
12768.436301946371
 40
3.0
100
AcDbArc
 50
90.0
 51
180.0
  0
ARC
  5
2A2
100
AcDbEntity
  8
1
  6
CONTINUOUS
 62
           3
100
AcDbCircle
 10
882.409005052096
 20
12724.436301946371
 40
3.0
100
AcDbArc
 50
180.0
 51
-90.0
  0
ARC
  5
2A1
100
AcDbEntity
  8
1
  6
CONTINUOUS
 62
           3
100
AcDbCircle
 10
865.409005052096
 20
12724.436301946371
 40
3.0
100
AcDbArc
 50
-90.0
 51
0.0
  0
ARC
  5
2A0
100
AcDbEntity
  8
1
  6
CONTINUOUS
 62
           3
100
AcDbCircle
 10
905.909005052097
 20
12697.436301946371
 40
1.0
100
AcDbArc
 50
180.0
 51
-90.0
  0
ARC
  5
29F
100
AcDbEntity
  8
1
  6
CONTINUOUS
 62
           3
100
AcDbCircle
 10
905.909005052097
 20
12795.436301946371
 40
1.0
100
AcDbArc
 50
90.0
 51
180.0
  0
ARC
  5
29E
100
AcDbEntity
  8
1
  6
CONTINUOUS
 62
           3
100
AcDbCircle
 10
881.909005052097
 20
12723.936301946371
 40
0.5
100
AcDbArc
 50
180.0
 51
-90.0
  0
ARC
  5
29D
100
AcDbEntity
  8
1
  6
CONTINUOUS
 62
           3
100
AcDbCircle
 10
881.909005052097
 20
12768.936301946371
 40
0.5
100
AcDbArc
 50
90.0
 51
180.0
  0
ARC
  5
29C
100
AcDbEntity
  8
1
  6
CONTINUOUS
 62
           3
100
AcDbCircle
 10
902.909005052097
 20
12696.936301946371
 40
0.5
100
AcDbArc
 50
-90.0
 51
0.0
  0
ARC
  5
29B
100
AcDbEntity
  8
1
  6
CONTINUOUS
 62
           3
100
AcDbCircle
 10
902.909005052097
 20
12720.936301946371
 40
0.5
100
AcDbArc
 50
0.0
 51
90.0
  0
ARC
  5
29A
100
AcDbEntity
  8
1
  6
CONTINUOUS
 62
           3
100
AcDbCircle
 10
902.909005052097
 20
12771.936301946371
 40
0.5
100
AcDbArc
 50
-90.0
 51
0.0
  0
ARC
  5
299
100
AcDbEntity
  8
1
  6
CONTINUOUS
 62
           3
100
AcDbCircle
 10
902.909005052097
 20
12795.936301946371
 40
0.5
100
AcDbArc
 50
0.0
 51
90.0
  0
ARC
  5
298
100
AcDbEntity
  8
1
  6
CONTINUOUS
 62
           3
100
AcDbCircle
 10
705.409005052097
 20
12753.936301946371
 40
3.0
100
AcDbArc
 50
0.0
 51
90.0
  0
ARC
  5
297
100
AcDbEntity
  8
1
  6
CONTINUOUS
 62
           3
100
AcDbCircle
 10
705.409005052097
 20
12738.936301946371
 40
3.0
100
AcDbArc
 50
-90.0
 51
0.0
  0
ARC
  5
296
100
AcDbEntity
  8
1
  6
CONTINUOUS
 62
           3
100
AcDbCircle
 10
684.409005052097
 20
12738.936301946371
 40
3.0
100
AcDbArc
 50
180.0
 51
-90.0
  0
ARC
  5
295
100
AcDbEntity
  8
1
  6
CONTINUOUS
 62
           3
100
AcDbCircle
 10
684.409005052097
 20
12753.936301946371
 40
3.0
100
AcDbArc
 50
90.0
 51
180.0
  0
ARC
  5
294
100
AcDbEntity
  8
1
  6
CONTINUOUS
 62
           3
100
AcDbCircle
 10
598.409005052097
 20
12738.436301946371
 40
2.0
100
AcDbArc
 50
-90.0
 51
0.0
  0
ARC
  5
293
100
AcDbEntity
  8
1
  6
CONTINUOUS
 62
           3
100
AcDbCircle
 10
598.409005052097
 20
12754.436301946371
 40
2.0
100
AcDbArc
 50
0.0
 51
90.0
  0
ARC
  5
292
100
AcDbEntity
  8
1
  6
CONTINUOUS
 62
           3
100
AcDbCircle
 10
732.909005052097
 20
12724.436301946371
 40
0.5
100
AcDbArc
 50
-90.0
 51
0.0
  0
ARC
  5
291
100
AcDbEntity
  8
1
  6
CONTINUOUS
 62
           3
100
AcDbCircle
 10
732.909005052097
 20
12768.436301946371
 40
0.5
100
AcDbArc
 50
0.0
 51
90.0
  0
ARC
  5
290
100
AcDbEntity
  8
1
  6
CONTINUOUS
 62
           3
100
AcDbCircle
 10
597.909005052097
 20
12738.936301946371
 40
0.5
100
AcDbArc
 50
-90.0
 51
0.0
  0
ARC
  5
28F
100
AcDbEntity
  8
1
  6
CONTINUOUS
 62
           3
100
AcDbCircle
 10
597.909005052097
 20
12753.936301946371
 40
0.5
100
AcDbArc
 50
0.0
 51
90.0
  0
ARC
  5
28E
100
AcDbEntity
  8
1
  6
CONTINUOUS
 62
           3
100
AcDbCircle
 10
576.909005052097
 20
12735.936301946371
 40
0.5
100
AcDbArc
 50
90.0
 51
180.0
  0
ARC
  5
28D
100
AcDbEntity
  8
1
  6
CONTINUOUS
 62
           3
100
AcDbCircle
 10
576.909005052097
 20
12724.436301946371
 40
0.5
100
AcDbArc
 50
180.0
 51
-90.0
  0
ARC
  5
28C
100
AcDbEntity
  8
1
  6
CONTINUOUS
 62
           3
100
AcDbCircle
 10
576.909005052097
 20
12756.936301946371
 40
0.5
100
AcDbArc
 50
180.0
 51
-90.0
  0
ARC
  5
28B
100
AcDbEntity
  8
1
  6
CONTINUOUS
 62
           3
100
AcDbCircle
 10
576.909005052097
 20
12768.436301946371
 40
0.5
100
AcDbArc
 50
90.0
 51
180.0
  0
ARC
  5
28A
100
AcDbEntity
  8
1
  6
CONTINUOUS
 62
           3
100
AcDbCircle
 10
576.409005052097
 20
12740.436301946371
 40
2.0
100
AcDbArc
 50
180.0
 51
-90.0
  0
ARC
  5
289
100
AcDbEntity
  8
1
  6
CONTINUOUS
 62
           3
100
AcDbCircle
 10
576.409005052097
 20
12752.436301946371
 40
2.0
100
AcDbArc
 50
90.0
 51
180.0
  0
ARC
  5
288
100
AcDbEntity
  8
1
  6
CONTINUOUS
 62
           3
100
AcDbCircle
 10
572.409005052097
 20
12730.936301946371
 40
2.0
100
AcDbArc
 50
-90.0
 51
0.0
  0
ARC
  5
287
100
AcDbEntity
  8
1
  6
CONTINUOUS
 62
           3
100
AcDbCircle
 10
576.409005052097
 20
12736.436301946371
 40
2.0
100
AcDbArc
 50
90.0
 51
180.0
  0
ARC
  5
286
100
AcDbEntity
  8
1
  6
CONTINUOUS
 62
           3
100
AcDbCircle
 10
576.409005052097
 20
12756.436301946371
 40
2.0
100
AcDbArc
 50
180.0
 51
-90.0
  0
ARC
  5
285
100
AcDbEntity
  8
1
  6
CONTINUOUS
 62
           3
100
AcDbCircle
 10
572.409005052097
 20
12761.936301946371
 40
2.0
100
AcDbArc
 50
0.0
 51
90.0
  0
ARC
  5
284
100
AcDbEntity
  8
1
  6
CONTINUOUS
 62
           6
100
AcDbCircle
 10
390.120440578605
 20
12732.936301946371
 40
0.5
100
AcDbArc
 50
90.0
 51
180.0
  0
ARC
  5
283
100
AcDbEntity
  8
1
  6
CONTINUOUS
 62
           6
100
AcDbCircle
 10
390.120440578605
 20
12734.936301946371
 40
0.5
100
AcDbArc
 50
180.0
 51
-90.0
  0
ARC
  5
282
100
AcDbEntity
  8
1
  6
CONTINUOUS
 62
           6
100
AcDbCircle
 10
388.120440578605
 20
12734.936301946371
 40
0.5
100
AcDbArc
 50
-90.0
 51
0.0
  0
ARC
  5
281
100
AcDbEntity
  8
1
  6
CONTINUOUS
 62
           6
100
AcDbCircle
 10
388.120440578605
 20
12732.936301946371
 40
0.5
100
AcDbArc
 50
0.0
 51
90.0
  0
ARC
  5
280
100
AcDbEntity
  8
1
  6
CONTINUOUS
 62
           6
100
AcDbCircle
 10
410.120440578605
 20
12732.936301946371
 40
0.5
100
AcDbArc
 50
90.0
 51
180.0
  0
ARC
  5
27F
100
AcDbEntity
  8
1
  6
CONTINUOUS
 62
           6
100
AcDbCircle
 10
410.120440578605
 20
12734.936301946371
 40
0.5
100
AcDbArc
 50
180.0
 51
-90.0
  0
ARC
  5
27E
100
AcDbEntity
  8
1
  6
CONTINUOUS
 62
           6
100
AcDbCircle
 10
408.120440578605
 20
12734.936301946371
 40
0.5
100
AcDbArc
 50
-90.0
 51
0.0
  0
ARC
  5
27D
100
AcDbEntity
  8
1
  6
CONTINUOUS
 62
           6
100
AcDbCircle
 10
408.120440578605
 20
12732.936301946371
 40
0.5
100
AcDbArc
 50
0.0
 51
90.0
  0
ARC
  5
27C
100
AcDbEntity
  8
1
  6
CONTINUOUS
 62
           6
100
AcDbCircle
 10
408.120440578605
 20
12759.936301946371
 40
0.5
100
AcDbArc
 50
-90.0
 51
0.0
  0
ARC
  5
27B
100
AcDbEntity
  8
1
  6
CONTINUOUS
 62
           6
100
AcDbCircle
 10
408.120440578605
 20
12757.936301946371
 40
0.5
100
AcDbArc
 50
0.0
 51
90.0
  0
ARC
  5
27A
100
AcDbEntity
  8
1
  6
CONTINUOUS
 62
           6
100
AcDbCircle
 10
410.120440578605
 20
12757.936301946371
 40
0.5
100
AcDbArc
 50
90.0
 51
180.0
  0
ARC
  5
279
100
AcDbEntity
  8
1
  6
CONTINUOUS
 62
           6
100
AcDbCircle
 10
410.120440578605
 20
12759.936301946371
 40
0.5
100
AcDbArc
 50
180.0
 51
-90.0
  0
ARC
  5
278
100
AcDbEntity
  8
1
  6
CONTINUOUS
 62
           6
100
AcDbCircle
 10
388.120440578605
 20
12759.936301946371
 40
0.5
100
AcDbArc
 50
-90.0
 51
0.0
  0
ARC
  5
277
100
AcDbEntity
  8
1
  6
CONTINUOUS
 62
           6
100
AcDbCircle
 10
388.120440578605
 20
12757.936301946371
 40
0.5
100
AcDbArc
 50
0.0
 51
90.0
  0
ARC
  5
276
100
AcDbEntity
  8
1
  6
CONTINUOUS
 62
           6
100
AcDbCircle
 10
390.120440578605
 20
12757.936301946371
 40
0.5
100
AcDbArc
 50
90.0
 51
180.0
  0
ARC
  5
275
100
AcDbEntity
  8
1
  6
CONTINUOUS
 62
           6
100
AcDbCircle
 10
390.120440578605
 20
12759.936301946371
 40
0.5
100
AcDbArc
 50
180.0
 51
-90.0
  0
ARC
  5
274
100
AcDbEntity
  8
1
  6
CONTINUOUS
 62
           3
100
AcDbCircle
 10
361.620440578604
 20
12712.33630194637
 40
2.6
100
AcDbArc
 50
90.000000000009
 51
180.0
  0
ARC
  5
273
100
AcDbEntity
  8
1
  6
CONTINUOUS
 62
           3
100
AcDbCircle
 10
361.620440578604
 20
12712.33630194637
 40
2.600000000001
100
AcDbArc
 50
0.0
 51
90.000000000009
  0
ARC
  5
272
100
AcDbEntity
  8
1
  6
CONTINUOUS
 62
           3
100
AcDbCircle
 10
361.620440578604
 20
12705.536301946369
 40
2.599999999999
100
AcDbArc
 50
-90.0
 51
0.0
  0
ARC
  5
271
100
AcDbEntity
  8
1
  6
CONTINUOUS
 62
           3
100
AcDbCircle
 10
361.620440578604
 20
12705.536301946369
 40
2.6
100
AcDbArc
 50
180.0
 51
-90.0
  0
ARC
  5
270
100
AcDbEntity
  8
1
  6
CONTINUOUS
 62
           3
100
AcDbCircle
 10
349.120440578604
 20
12693.036301946369
 40
2.6
100
AcDbArc
 50
180.0
 51
-90.0
  0
ARC
  5
26F
100
AcDbEntity
  8
1
  6
CONTINUOUS
 62
           3
100
AcDbCircle
 10
349.120440578604
 20
12693.036301946369
 40
2.599999999999
100
AcDbArc
 50
-90.0
 51
0.0
  0
ARC
  5
26E
100
AcDbEntity
  8
1
  6
CONTINUOUS
 62
           3
100
AcDbCircle
 10
349.120440578604
 20
12699.83630194637
 40
2.600000000001
100
AcDbArc
 50
0.0
 51
90.000000000009
  0
ARC
  5
26D
100
AcDbEntity
  8
1
  6
CONTINUOUS
 62
           3
100
AcDbCircle
 10
349.120440578604
 20
12699.83630194637
 40
2.6
100
AcDbArc
 50
90.000000000009
 51
180.0
  0
ARC
  5
26C
100
AcDbEntity
  8
1
  6
CONTINUOUS
 62
           3
100
AcDbCircle
 10
433.220440578605
 20
12783.936301946371
 40
2.599999999999
100
AcDbArc
 50
90.0
 51
180.0
  0
ARC
  5
26B
100
AcDbEntity
  8
1
  6
CONTINUOUS
 62
           3
100
AcDbCircle
 10
433.220440578605
 20
12783.936301946371
 40
2.6
100
AcDbArc
 50
180.0
 51
-90.0
  0
ARC
  5
26A
100
AcDbEntity
  8
1
  6
CONTINUOUS
 62
           3
100
AcDbCircle
 10
440.020440578605
 20
12783.936301946371
 40
2.6
100
AcDbArc
 50
-90.0
 51
0.0
  0
ARC
  5
269
100
AcDbEntity
  8
1
  6
CONTINUOUS
 62
           3
100
AcDbCircle
 10
440.020440578605
 20
12783.936301946371
 40
2.6
100
AcDbArc
 50
0.0
 51
90.0
  0
ARC
  5
268
100
AcDbEntity
  8
1
  6
CONTINUOUS
 62
           3
100
AcDbCircle
 10
364.024603634639
 20
12786.3404650024
 40
2.600000000004
100
AcDbArc
 50
45.000000000084
 51
134.999999999915
  0
ARC
  5
267
100
AcDbEntity
  8
1
  6
CONTINUOUS
 62
           3
100
AcDbCircle
 10
364.024603634639
 20
12786.3404650024
 40
2.599999999996
100
AcDbArc
 50
-44.999999999908
 51
45.000000000084
  0
ARC
  5
266
100
AcDbEntity
  8
1
  6
CONTINUOUS
 62
           3
100
AcDbCircle
 10
359.216277522571
 20
12781.532138890339
 40
2.599999999996
100
AcDbArc
 50
-135.000000000086
 51
-45.00000000005
  0
ARC
  5
265
100
AcDbEntity
  8
1
  6
CONTINUOUS
 62
           3
100
AcDbCircle
 10
359.216277522571
 20
12781.532138890339
 40
2.600000000004
100
AcDbArc
 50
134.999999999916
 51
-135.000000000086
  0
ARC
  5
264
100
AcDbEntity
  8
1
  6
CONTINUOUS
 62
           3
100
AcDbCircle
 10
346.716277522571
 20
12794.032138890339
 40
2.600000000004
100
AcDbArc
 50
134.999999999916
 51
-135.000000000086
  0
ARC
  5
263
100
AcDbEntity
  8
1
  6
CONTINUOUS
 62
           3
100
AcDbCircle
 10
346.716277522571
 20
12794.032138890339
 40
2.599999999996
100
AcDbArc
 50
-135.000000000086
 51
-45.00000000005
  0
ARC
  5
262
100
AcDbEntity
  8
1
  6
CONTINUOUS
 62
           3
100
AcDbCircle
 10
351.524603634639
 20
12798.8404650024
 40
2.599999999996
100
AcDbArc
 50
-44.999999999908
 51
45.000000000084
  0
ARC
  5
261
100
AcDbEntity
  8
1
  6
CONTINUOUS
 62
           3
100
AcDbCircle
 10
351.524603634639
 20
12798.8404650024
 40
2.600000000004
100
AcDbArc
 50
45.000000000084
 51
134.999999999915
  0
ARC
  5
260
100
AcDbEntity
  8
1
  6
CONTINUOUS
 62
           3
100
AcDbCircle
 10
452.520440578605
 20
12796.436301946371
 40
2.6
100
AcDbArc
 50
-90.0
 51
90.0
  0
ARC
  5
25F
100
AcDbEntity
  8
1
  6
CONTINUOUS
 62
           3
100
AcDbCircle
 10
445.720440578605
 20
12796.436301946371
 40
2.599999999999
100
AcDbArc
 50
90.0
 51
-90.0
  0
ARC
  5
25E
100
AcDbEntity
  8
1
  6
CONTINUOUS
 62
           6
100
AcDbCircle
 10
1027.268668200399
 20
12717.936301946371
 40
0.5
100
AcDbArc
 50
0.0
 51
90.0
  0
ARC
  5
25D
100
AcDbEntity
  8
1
  6
CONTINUOUS
 62
           6
100
AcDbCircle
 10
1027.268668200399
 20
12719.936301946371
 40
0.5
100
AcDbArc
 50
-90.0
 51
0.0
  0
ARC
  5
25C
100
AcDbEntity
  8
1
  6
CONTINUOUS
 62
           6
100
AcDbCircle
 10
1029.268668200399
 20
12719.936301946371
 40
0.5
100
AcDbArc
 50
180.0
 51
-90.0
  0
ARC
  5
25B
100
AcDbEntity
  8
1
  6
CONTINUOUS
 62
           6
100
AcDbCircle
 10
1029.268668200399
 20
12717.936301946371
 40
0.5
100
AcDbArc
 50
90.0
 51
180.0
  0
ARC
  5
25A
100
AcDbEntity
  8
1
  6
CONTINUOUS
 62
           6
100
AcDbCircle
 10
1057.268668200399
 20
12717.936301946371
 40
0.5
100
AcDbArc
 50
0.0
 51
90.0
  0
ARC
  5
259
100
AcDbEntity
  8
1
  6
CONTINUOUS
 62
           6
100
AcDbCircle
 10
1057.268668200399
 20
12719.936301946371
 40
0.5
100
AcDbArc
 50
-90.0
 51
0.0
  0
ARC
  5
258
100
AcDbEntity
  8
1
  6
CONTINUOUS
 62
           6
100
AcDbCircle
 10
1059.268668200399
 20
12719.936301946371
 40
0.5
100
AcDbArc
 50
180.0
 51
-90.0
  0
ARC
  5
257
100
AcDbEntity
  8
1
  6
CONTINUOUS
 62
           6
100
AcDbCircle
 10
1059.268668200399
 20
12717.936301946371
 40
0.5
100
AcDbArc
 50
90.0
 51
180.0
  0
ARC
  5
256
100
AcDbEntity
  8
1
  6
CONTINUOUS
 62
           6
100
AcDbCircle
 10
1059.268668200399
 20
12774.936301946371
 40
0.5
100
AcDbArc
 50
180.0
 51
-90.0
  0
ARC
  5
255
100
AcDbEntity
  8
1
  6
CONTINUOUS
 62
           6
100
AcDbCircle
 10
1059.268668200399
 20
12772.936301946371
 40
0.5
100
AcDbArc
 50
90.0
 51
180.0
  0
ARC
  5
254
100
AcDbEntity
  8
1
  6
CONTINUOUS
 62
           6
100
AcDbCircle
 10
1057.268668200399
 20
12772.936301946371
 40
0.5
100
AcDbArc
 50
0.0
 51
90.0
  0
ARC
  5
253
100
AcDbEntity
  8
1
  6
CONTINUOUS
 62
           6
100
AcDbCircle
 10
1057.268668200399
 20
12774.936301946371
 40
0.5
100
AcDbArc
 50
-90.0
 51
0.0
  0
ARC
  5
252
100
AcDbEntity
  8
1
  6
CONTINUOUS
 62
           6
100
AcDbCircle
 10
1029.268668200399
 20
12774.936301946371
 40
0.5
100
AcDbArc
 50
180.0
 51
-90.0
  0
ARC
  5
251
100
AcDbEntity
  8
1
  6
CONTINUOUS
 62
           6
100
AcDbCircle
 10
1029.268668200399
 20
12772.936301946371
 40
0.5
100
AcDbArc
 50
90.0
 51
180.0
  0
ARC
  5
250
100
AcDbEntity
  8
1
  6
CONTINUOUS
 62
           6
100
AcDbCircle
 10
1027.268668200399
 20
12772.936301946371
 40
0.5
100
AcDbArc
 50
0.0
 51
90.0
  0
ARC
  5
24F
100
AcDbEntity
  8
1
  6
CONTINUOUS
 62
           6
100
AcDbCircle
 10
1027.268668200399
 20
12774.936301946371
 40
0.5
100
AcDbArc
 50
-90.0
 51
0.0
  0
ARC
  5
24E
100
AcDbEntity
  8
1
  6
CONTINUOUS
 62
           3
100
AcDbCircle
 10
1086.768668200399
 20
12687.936301946371
 40
4.0
100
AcDbArc
 50
-90.0
 51
0.0
  0
ARC
  5
24D
100
AcDbEntity
  8
1
  6
CONTINUOUS
 62
           3
100
AcDbCircle
 10
1086.768668200399
 20
12804.936301946371
 40
4.0
100
AcDbArc
 50
0.0
 51
90.0
  0
ARC
  5
24C
100
AcDbEntity
  8
1
  6
CONTINUOUS
 62
           3
100
AcDbCircle
 10
999.768668200399
 20
12804.936301946371
 40
4.0
100
AcDbArc
 50
90.0
 51
180.0
  0
ARC
  5
24B
100
AcDbEntity
  8
1
  6
CONTINUOUS
 62
           3
100
AcDbCircle
 10
999.768668200399
 20
12687.936301946371
 40
4.0
100
AcDbArc
 50
180.0
 51
-90.0
  0
ARC
  5
24A
100
AcDbEntity
  8
1
  6
CONTINUOUS
 62
           3
100
AcDbCircle
 10
649.409005052097
 20
12753.936301946371
 40
3.0
100
AcDbArc
 50
90.0
 51
180.0
  0
ARC
  5
249
100
AcDbEntity
  8
1
  6
CONTINUOUS
 62
           3
100
AcDbCircle
 10
649.409005052097
 20
12738.936301946371
 40
3.0
100
AcDbArc
 50
180.0
 51
-90.0
  0
ARC
  5
248
100
AcDbEntity
  8
1
  6
CONTINUOUS
 62
           3
100
AcDbCircle
 10
670.409005052097
 20
12738.936301946371
 40
3.0
100
AcDbArc
 50
-90.0
 51
0.0
  0
ARC
  5
247
100
AcDbEntity
  8
1
  6
CONTINUOUS
 62
           3
100
AcDbCircle
 10
670.409005052097
 20
12753.936301946371
 40
3.0
100
AcDbArc
 50
0.0
 51
90.0
  0
ARC
  5
246
100
AcDbEntity
  8
1
  6
CONTINUOUS
 62
           3
100
AcDbCircle
 10
614.409005052097
 20
12753.936301946371
 40
3.0
100
AcDbArc
 50
90.0
 51
180.0
  0
ARC
  5
245
100
AcDbEntity
  8
1
  6
CONTINUOUS
 62
           3
100
AcDbCircle
 10
614.409005052097
 20
12738.936301946371
 40
3.0
100
AcDbArc
 50
180.0
 51
-90.0
  0
ARC
  5
244
100
AcDbEntity
  8
1
  6
CONTINUOUS
 62
           3
100
AcDbCircle
 10
635.409005052097
 20
12738.936301946371
 40
3.0
100
AcDbArc
 50
-90.0
 51
0.0
  0
ARC
  5
243
100
AcDbEntity
  8
1
  6
CONTINUOUS
 62
           3
100
AcDbCircle
 10
635.409005052097
 20
12753.936301946371
 40
3.0
100
AcDbArc
 50
0.0
 51
90.0
  0
CIRCLE
  5
242
100
AcDbEntity
  8
1
  6
DOTTED
 62
           1
100
AcDbCircle
 10
892.409005052096
 20
13103.10834757331
 40
8.749999999995
  0
CIRCLE
  5
241
100
AcDbEntity
  8
1
  6
CONTINUOUS
 62
           3
100
AcDbCircle
 10
892.409005052096
 20
12968.10834757331
 40
8.75
  0
CIRCLE
  5
240
100
AcDbEntity
  8
1
  6
CONTINUOUS
 62
           3
100
AcDbCircle
 10
892.409005052097
 20
13138.10834757331
 40
8.75
  0
CIRCLE
  5
23F
100
AcDbEntity
  8
1
  6
CONTINUOUS
 62
           3
100
AcDbCircle
 10
587.409005052097
 20
12885.34684870146
 40
8.75
  0
CIRCLE
  5
23E
100
AcDbEntity
  8
1
  6
CONTINUOUS
 62
           3
100
AcDbCircle
 10
892.409005052097
 20
12885.34684870146
 40
8.75
  0
CIRCLE
  5
23D
100
AcDbEntity
  8
1
  6
CONTINUOUS
 62
           3
100
AcDbCircle
 10
722.409005052097
 20
12885.34684870146
 40
8.75
  0
CIRCLE
  5
23C
100
AcDbEntity
  8
1
  6
CONTINUOUS
 62
           6
100
AcDbCircle
 10
389.120440578605
 20
12733.936301946371
 40
3.5
  0
CIRCLE
  5
23B
100
AcDbEntity
  8
1
  6
CONTINUOUS
 62
           6
100
AcDbCircle
 10
409.120440578605
 20
12733.936301946371
 40
3.5
  0
CIRCLE
  5
23A
100
AcDbEntity
  8
1
  6
CONTINUOUS
 62
           6
100
AcDbCircle
 10
409.120440578605
 20
12758.936301946371
 40
3.5
  0
CIRCLE
  5
239
100
AcDbEntity
  8
1
  6
CONTINUOUS
 62
           6
100
AcDbCircle
 10
389.120440578605
 20
12758.936301946371
 40
3.5
  0
CIRCLE
  5
238
100
AcDbEntity
  8
1
  6
CONTINUOUS
 62
           3
100
AcDbCircle
 10
436.620440578605
 20
12708.936301946371
 40
2.6
  0
CIRCLE
  5
237
100
AcDbEntity
  8
1
  6
CONTINUOUS
 62
           3
100
AcDbCircle
 10
449.120440578605
 20
12696.436301946371
 40
2.6
  0
CIRCLE
  5
236
100
AcDbEntity
  8
1
  6
CONTINUOUS
 62
           6
100
AcDbCircle
 10
1028.268668200399
 20
12718.936301946371
 40
3.5
  0
CIRCLE
  5
235
100
AcDbEntity
  8
1
  6
CONTINUOUS
 62
           6
100
AcDbCircle
 10
1058.268668200399
 20
12718.936301946371
 40
3.5
  0
CIRCLE
  5
234
100
AcDbEntity
  8
1
  6
CONTINUOUS
 62
           6
100
AcDbCircle
 10
1058.268668200399
 20
12773.936301946371
 40
3.5
  0
CIRCLE
  5
233
100
AcDbEntity
  8
1
  6
CONTINUOUS
 62
           6
100
AcDbCircle
 10
1028.268668200399
 20
12773.936301946371
 40
3.5
  0
CIRCLE
  5
232
100
AcDbEntity
  8
1
  6
CONTINUOUS
 62
           3
100
AcDbCircle
 10
1008.268668200399
 20
12696.436301946371
 40
4.05
  0
CIRCLE
  5
231
100
AcDbEntity
  8
1
  6
CONTINUOUS
 62
           3
100
AcDbCircle
 10
1078.268668200399
 20
12696.436301946371
 40
4.05
  0
CIRCLE
  5
230
100
AcDbEntity
  8
1
  6
CONTINUOUS
 62
           3
100
AcDbCircle
 10
1078.268668200399
 20
12796.436301946371
 40
4.05
  0
CIRCLE
  5
22F
100
AcDbEntity
  8
1
  6
CONTINUOUS
 62
           3
100
AcDbCircle
 10
1008.268668200399
 20
12796.436301946371
 40
4.05
  0
ARC
  5
22E
100
AcDbEntity
  8
1
  6
DOTTED
 62
           1
100
AcDbCircle
 10
892.409005052096
 20
13103.10834757331
 40
11.0
100
AcDbArc
 50
-90.0
 51
4.309999999952
  0
ARC
  5
22D
100
AcDbEntity
  8
1
  6
CONTINUOUS
 62
           3
100
AcDbCircle
 10
892.409005052096
 20
12968.10834757331
 40
11.0
100
AcDbArc
 50
180.0
 51
0.0
  0
ARC
  5
22C
100
AcDbEntity
  8
1
  6
DOTTED
 62
           1
100
AcDbCircle
 10
892.409005052097
 20
13138.10834757331
 40
11.0
100
AcDbArc
 50
180.0
 51
-90.0
  0
ARC
  5
22B
100
AcDbEntity
  8
1
  6
DOTTED
 62
           1
100
AcDbCircle
 10
892.409005052096
 20
13103.10834757331
 40
10.999999999999
100
AcDbArc
 50
4.309999999952
 51
180.0
  0
ARC
  5
22A
100
AcDbEntity
  8
1
  6
CONTINUOUS
 62
           3
100
AcDbCircle
 10
892.409005052097
 20
13138.10834757331
 40
10.999999999992
100
AcDbArc
 50
94.310000000003
 51
180.0
  0
ARC
  5
229
100
AcDbEntity
  8
1
  6
CONTINUOUS
 62
           3
100
AcDbCircle
 10
892.409005052097
 20
13138.10834757331
 40
11.0
100
AcDbArc
 50
0.0
 51
94.310000000003
  0
ARC
  5
228
100
AcDbEntity
  8
1
  6
CONTINUOUS
 62
           3
100
AcDbCircle
 10
892.409005052097
 20
12885.34684870146
 40
11.0
100
AcDbArc
 50
-89.999999999994
 51
4.309999999999
  0
ARC
  5
227
100
AcDbEntity
  8
1
  6
CONTINUOUS
 62
           3
100
AcDbCircle
 10
892.409005052097
 20
12885.34684870146
 40
11.0
100
AcDbArc
 50
4.309999999999
 51
89.999999999989
  0
ARC
  5
226
100
AcDbEntity
  8
1
  6
DOTTED
 62
           1
100
AcDbCircle
 10
587.409005052097
 20
12885.34684870146
 40
11.0
100
AcDbArc
 50
-90.0
 51
90.0
  0
ARC
  5
225
100
AcDbEntity
  8
1
  6
CONTINUOUS
 62
           3
100
AcDbCircle
 10
587.409005052097
 20
12885.34684870146
 40
11.0
100
AcDbArc
 50
90.0
 51
-90.0
  0
ARC
  5
224
100
AcDbEntity
  8
1
  6
DOTTED
 62
           1
100
AcDbCircle
 10
892.409005052097
 20
12885.34684870146
 40
11.0
100
AcDbArc
 50
89.999999999989
 51
-90.0
  0
ARC
  5
223
100
AcDbEntity
  8
1
  6
DOTTED
 62
           1
100
AcDbCircle
 10
722.409005052097
 20
12885.34684870146
 40
11.0
100
AcDbArc
 50
-90.0
 51
90.0
  0
ARC
  5
222
100
AcDbEntity
  8
1
  6
CONTINUOUS
 62
           3
100
AcDbCircle
 10
722.409005052097
 20
12885.34684870146
 40
11.0
100
AcDbArc
 50
90.0
 51
-90.0
  0
ARC
  5
221
100
AcDbEntity
  8
1
  6
CONTINUOUS
 62
           3
100
AcDbCircle
 10
743.909005052097
 20
12710.936301946371
 40
3.5
100
AcDbArc
 50
90.0
 51
-154.623066474842
  0
ARC
  5
220
100
AcDbEntity
  8
1
  6
DOTTED
 62
           1
100
AcDbCircle
 10
870.909005052096
 20
12710.936301946371
 40
3.5
100
AcDbArc
 50
-90.0
 51
-25.376933525158
  0
ARC
  5
21F
100
AcDbEntity
  8
1
  6
CONTINUOUS
 62
           3
100
AcDbCircle
 10
793.909005052097
 20
12710.936301946371
 40
3.5
100
AcDbArc
 50
90.0
 51
-90.0
  0
ARC
  5
21E
100
AcDbEntity
  8
1
  6
CONTINUOUS
 62
           3
100
AcDbCircle
 10
820.909005052097
 20
12710.936301946371
 40
3.5
100
AcDbArc
 50
-90.0
 51
90.0
  0
ARC
  5
21D
100
AcDbEntity
  8
1
  6
CONTINUOUS
 62
           3
100
AcDbCircle
 10
843.909005052096
 20
12710.936301946371
 40
3.5
100
AcDbArc
 50
90.0
 51
-90.0
  0
ARC
  5
21C
100
AcDbEntity
  8
1
  6
CONTINUOUS
 62
           3
100
AcDbCircle
 10
870.909005052096
 20
12710.936301946371
 40
3.499999999999
100
AcDbArc
 50
-25.376933525158
 51
90.0
  0
ARC
  5
21B
100
AcDbEntity
  8
1
  6
DOTTED
 62
           1
100
AcDbCircle
 10
743.909005052097
 20
12710.936301946371
 40
3.499999999999
100
AcDbArc
 50
-154.623066474842
 51
-90.0
  0
ARC
  5
21A
100
AcDbEntity
  8
1
  6
CONTINUOUS
 62
           3
100
AcDbCircle
 10
770.909005052097
 20
12710.936301946371
 40
3.5
100
AcDbArc
 50
-90.0
 51
90.0
  0
ARC
  5
219
100
AcDbEntity
  8
1
  6
CONTINUOUS
 62
           3
100
AcDbCircle
 10
770.909005052097
 20
12781.936301946371
 40
3.5
100
AcDbArc
 50
-90.0
 51
90.0
  0
ARC
  5
218
100
AcDbEntity
  8
1
  6
CONTINUOUS
 62
           3
100
AcDbCircle
 10
743.909005052097
 20
12781.936301946371
 40
3.5
100
AcDbArc
 50
90.0
 51
-90.0
  0
ARC
  5
217
100
AcDbEntity
  8
1
  6
CONTINUOUS
 62
           3
100
AcDbCircle
 10
870.909005052096
 20
12781.936301946371
 40
3.5
100
AcDbArc
 50
-90.0
 51
90.0
  0
ARC
  5
216
100
AcDbEntity
  8
1
  6
CONTINUOUS
 62
           3
100
AcDbCircle
 10
843.909005052096
 20
12781.936301946371
 40
3.5
100
AcDbArc
 50
90.0
 51
-90.0
  0
ARC
  5
215
100
AcDbEntity
  8
1
  6
CONTINUOUS
 62
           3
100
AcDbCircle
 10
820.909005052097
 20
12781.936301946371
 40
3.5
100
AcDbArc
 50
-90.0
 51
90.0
  0
ARC
  5
214
100
AcDbEntity
  8
1
  6
CONTINUOUS
 62
           3
100
AcDbCircle
 10
793.909005052097
 20
12781.936301946371
 40
3.5
100
AcDbArc
 50
90.0
 51
-90.0
  0
ARC
  5
213
100
AcDbEntity
  8
1
  6
CONTINUOUS
 62
           3
100
AcDbCircle
 10
892.409005052097
 20
12758.655051946371
 40
38.78125
100
AcDbArc
 50
76.960396496686
 51
103.039603503314
  0
ARC
  5
212
100
AcDbEntity
  8
1
  6
CONTINUOUS
 62
           3
100
AcDbCircle
 10
722.409005052097
 20
12758.655051946371
 40
38.78125
100
AcDbArc
 50
76.960396496686
 51
103.039603503314
  0
ARC
  5
211
100
AcDbEntity
  8
1
  6
CONTINUOUS
 62
           3
100
AcDbCircle
 10
587.409005052097
 20
12731.155051946371
 40
38.78125
100
AcDbArc
 50
76.960396496686
 51
103.039603503314
  0
ARC
  5
210
100
AcDbEntity
  8
1
  6
CONTINUOUS
 62
           3
100
AcDbCircle
 10
554.909005052097
 20
12746.436301946371
 40
19.5
100
AcDbArc
 50
-90.0
 51
-63.823047828333
  0
ARC
  5
20F
100
AcDbEntity
  8
1
  6
CONTINUOUS
 62
           3
100
AcDbCircle
 10
554.909005052097
 20
12746.436301946371
 40
19.5
100
AcDbArc
 50
0.0
 51
63.823047828333
  0
ARC
  5
20E
100
AcDbEntity
  8
1
  6
CONTINUOUS
 62
           3
100
AcDbCircle
 10
554.909005052097
 20
12746.436301946371
 40
19.5
100
AcDbArc
 50
-63.823047828333
 51
0.0
  0
ARC
  5
20D
100
AcDbEntity
  8
1
  6
CONTINUOUS
 62
           3
100
AcDbCircle
 10
554.909005052097
 20
12746.436301946371
 40
19.5
100
AcDbArc
 50
63.823047828333
 51
90.0
  0
ARC
  5
20C
100
AcDbEntity
  8
1
  6
CONTINUOUS
 62
           3
100
AcDbCircle
 10
439.120440578605
 20
12746.436301946371
 40
9.999999999998
100
AcDbArc
 50
145.596598256202
 51
-145.596598256202
  0
ARC
  5
20B
100
AcDbEntity
  8
1
  6
CONTINUOUS
 62
           3
100
AcDbCircle
 10
449.120440578605
 20
12796.436301946371
 40
9.999999999998
100
AcDbArc
 50
-34.403401743797
 51
124.403401743795
  0
ARC
  5
20A
100
AcDbEntity
  8
1
  6
CONTINUOUS
 62
           3
100
AcDbCircle
 10
449.120440578605
 20
12696.436301946371
 40
9.999999999999
100
AcDbArc
 50
-124.403401743824
 51
34.403401743798
  0
ARC
  5
209
100
AcDbEntity
  8
1
  6
CONTINUOUS
 62
           3
100
AcDbCircle
 10
399.120440578605
 20
12706.436301946371
 40
10.000000000006
100
AcDbArc
 50
55.596598256204
 51
124.403401743795
  0
ARC
  5
208
100
AcDbEntity
  8
1
  6
CONTINUOUS
 62
           3
100
AcDbCircle
 10
349.120440578605
 20
12696.436301946371
 40
9.999999999998
100
AcDbArc
 50
145.596598256202
 51
-55.596598256175
  0
ARC
  5
207
100
AcDbEntity
  8
1
  6
CONTINUOUS
 62
           3
100
AcDbCircle
 10
359.120440578605
 20
12746.436301946371
 40
9.999999999998
100
AcDbArc
 50
-34.403401743797
 51
34.403401743798
  0
ARC
  5
206
100
AcDbEntity
  8
1
  6
CONTINUOUS
 62
           3
100
AcDbCircle
 10
349.120440578605
 20
12796.436301946371
 40
10.000000000006
100
AcDbArc
 50
55.596598256204
 51
-145.596598256202
  0
ARC
  5
205
100
AcDbEntity
  8
1
  6
CONTINUOUS
 62
           3
100
AcDbCircle
 10
399.120440578605
 20
12786.436301946371
 40
9.999999999999
100
AcDbArc
 50
-124.403401743824
 51
-55.596598256175
  0
LINE
  5
204
100
AcDbEntity
  8
1
  6
DOT_CENTER
 62
           1
100
AcDbLine
 10
892.409005052097
 20
12896.34684870146
 11
892.409005052097
 21
12874.34684870146
  0
LINE
  5
203
100
AcDbEntity
  8
1
  6
DOT_CENTER
 62
           1
100
AcDbLine
 10
892.409005052096
 20
12906.22406944646
 11
892.409005052097
 21
12896.34684870146
  0
LINE
  5
202
100
AcDbEntity
  8
1
  6
DOT_CENTER
 62
           1
100
AcDbLine
 10
892.409005052097
 20
12874.34684870146
 11
892.409005052097
 21
12864.573676261551
  0
LINE
  5
201
100
AcDbEntity
  8
1
  6
DOT_CENTER
 62
           1
100
AcDbLine
 10
805.362922239905
 20
13103.10834757331
 11
908.570135226179
 21
13103.10834757331
  0
LINE
  5
200
100
AcDbEntity
  8
1
  6
CONTINUOUS
 62
           3
100
AcDbLine
 10
881.409005052096
 20
13103.10834757331
 11
881.409005052096
 21
12968.10834757331
  0
LINE
  5
1FF
100
AcDbEntity
  8
1
  6
DOT_CENTER
 62
           1
100
AcDbLine
 10
874.533893174932
 20
12968.10834757331
 11
911.793893174932
 21
12968.10834757331
  0
LINE
  5
1FE
100
AcDbEntity
  8
1
  6
DOT_CENTER
 62
           1
100
AcDbLine
 10
903.409005052096
 20
13138.10834757331
 11
810.49867569111
 21
13138.10834757331
  0
LINE
  5
1FD
100
AcDbEntity
  8
1
  6
CONTINUOUS
 62
           3
100
AcDbLine
 10
903.409005052096
 20
13125.679061787579
 11
903.409005052096
 21
12968.10834757331
  0
LINE
  5
1FC
100
AcDbEntity
  8
1
  6
DOT_CENTER
 62
           1
100
AcDbLine
 10
892.409005052096
 20
13162.59391881935
 11
892.409005052096
 21
12941.86735772103
  0
LINE
  5
1FB
100
AcDbEntity
  8
1
  6
CONTINUOUS
 62
           3
100
AcDbLine
 10
881.409005052096
 20
13138.10834757331
 11
881.409005052096
 21
13114.06295102687
  0
LINE
  5
1FA
100
AcDbEntity
  8
1
  6
CONTINUOUS
 62
           3
100
AcDbLine
 10
903.377897404984
 20
13137.281667132769
 11
903.377897404984
 21
13137.28166713276
  0
LINE
  5
1F9
100
AcDbEntity
  8
1
  6
CONTINUOUS
 62
           3
100
AcDbLine
 10
879.409005052096
 20
13098.10834757331
 11
874.909005052096
 21
13098.10834757331
  0
LINE
  5
1F8
100
AcDbEntity
  8
1
  6
CONTINUOUS
 62
           3
100
AcDbLine
 10
874.909005052096
 20
13098.10834757331
 11
874.909005052096
 21
13097.10834757331
  0
LINE
  5
1F7
100
AcDbEntity
  8
1
  6
CONTINUOUS
 62
           3
100
AcDbLine
 10
879.409005052096
 20
13109.10834757331
 11
829.909005052096
 21
13109.10834757331
  0
LINE
  5
1F6
100
AcDbEntity
  8
1
  6
CONTINUOUS
 62
           3
100
AcDbLine
 10
844.909005052097
 20
13108.10834757331
 11
874.909005052096
 21
13108.10834757331
  0
LINE
  5
1F5
100
AcDbEntity
  8
1
  6
CONTINUOUS
 62
           3
100
AcDbLine
 10
874.909005052096
 20
13109.10834757331
 11
874.909005052096
 21
13108.10834757331
  0
LINE
  5
1F4
100
AcDbEntity
  8
1
  6
CONTINUOUS
 62
           3
100
AcDbLine
 10
874.909005052096
 20
13098.10834757331
 11
844.909005052096
 21
13098.10834757331
  0
LINE
  5
1F3
100
AcDbEntity
  8
1
  6
CONTINUOUS
 62
           3
100
AcDbLine
 10
829.909005052097
 20
13144.10834757331
 11
877.409005052098
 21
13144.10834757331
  0
LINE
  5
1F2
100
AcDbEntity
  8
1
  6
CONTINUOUS
 62
           3
100
AcDbLine
 10
879.409005052097
 20
13142.10834757331
 11
879.409005052096
 21
13109.10834757331
  0
LINE
  5
1F1
100
AcDbEntity
  8
1
  6
CONTINUOUS
 62
           3
100
AcDbLine
 10
829.909005052097
 20
13097.10834757331
 11
879.409005052096
 21
13097.10834757331
  0
LINE
  5
1F0
100
AcDbEntity
  8
1
  6
CONTINUOUS
 62
           3
100
AcDbLine
 10
879.409005052096
 20
13097.10834757331
 11
879.409005052096
 21
13064.10834757331
  0
LINE
  5
1EF
100
AcDbEntity
  8
1
  6
CONTINUOUS
 62
           3
100
AcDbLine
 10
877.409005052097
 20
13062.10834757331
 11
829.909005052097
 21
13062.10834757331
  0
LINE
  5
1EE
100
AcDbEntity
  8
1
  6
CONTINUOUS
 62
           3
100
AcDbLine
 10
881.409005052097
 20
13113.10834757331
 11
881.409005052096
 21
13110.10834757331
  0
LINE
  5
1ED
100
AcDbEntity
  8
1
  6
CONTINUOUS
 62
           3
100
AcDbLine
 10
881.409005052097
 20
13096.10834757331
 11
881.409005052097
 21
13093.10834757331
  0
LINE
  5
1EC
100
AcDbEntity
  8
1
  6
CONTINUOUS
 62
           3
100
AcDbLine
 10
874.909005052096
 20
13108.10834757331
 11
879.409005052096
 21
13108.10834757331
  0
LINE
  5
1EB
100
AcDbEntity
  8
1
  6
CONTINUOUS
 62
           3
100
AcDbLine
 10
880.409005052096
 20
13107.10834757331
 11
880.409005052096
 21
13099.10834757331
  0
LINE
  5
1EA
100
AcDbEntity
  8
1
  6
DOT_CENTER
 62
           1
100
AcDbLine
 10
926.593339105174
 20
13138.10834757331
 11
903.409005052096
 21
13138.10834757331
  0
LINE
  5
1E9
100
AcDbEntity
  8
1
  6
CONTINUOUS
 62
           3
100
AcDbLine
 10
899.909005052097
 20
13149.10834757331
 11
892.409005052097
 21
13149.10834757331
  0
LINE
  5
1E8
100
AcDbEntity
  8
1
  6
CONTINUOUS
 62
           3
100
AcDbLine
 10
916.909005052097
 20
13090.60834757331
 11
914.909005052097
 21
13090.60834757331
  0
LINE
  5
1E7
100
AcDbEntity
  8
1
  6
CONTINUOUS
 62
           3
100
AcDbLine
 10
916.909005052097
 20
13185.60834757331
 11
916.909005052097
 21
13090.60834757331
  0
LINE
  5
1E6
100
AcDbEntity
  8
1
  6
CONTINUOUS
 62
           3
100
AcDbLine
 10
914.909005052097
 20
13185.60834757331
 11
916.909005052097
 21
13185.60834757331
  0
LINE
  5
1E5
100
AcDbEntity
  8
1
  6
CONTINUOUS
 62
           3
100
AcDbLine
 10
914.909005052097
 20
13163.10834757331
 11
914.909005052097
 21
13185.60834757331
  0
LINE
  5
1E4
100
AcDbEntity
  8
1
  6
CONTINUOUS
 62
           3
100
AcDbLine
 10
906.909005052097
 20
13113.10834757331
 11
914.909005052097
 21
13113.10834757331
  0
LINE
  5
1E3
100
AcDbEntity
  8
1
  6
CONTINUOUS
 62
           3
100
AcDbLine
 10
914.909005052097
 20
13090.60834757331
 11
914.909005052097
 21
13113.10834757331
  0
LINE
  5
1E2
100
AcDbEntity
  8
1
  6
CONTINUOUS
 62
           3
100
AcDbLine
 10
914.909005052097
 20
13163.10834757331
 11
906.909005052097
 21
13163.10834757331
  0
LINE
  5
1E1
100
AcDbEntity
  8
1
  6
CONTINUOUS
 62
           3
100
AcDbLine
 10
914.909005052097
 20
13113.10834757331
 11
914.909005052097
 21
13163.10834757331
  0
LINE
  5
1E0
100
AcDbEntity
  8
1
  6
CONTINUOUS
 62
           3
100
AcDbLine
 10
904.909005052097
 20
13161.10834757331
 11
904.909005052097
 21
13115.10834757331
  0
LINE
  5
1DF
100
AcDbEntity
  8
1
  6
DOT_CENTER
 62
           1
100
AcDbLine
 10
924.390135226178
 20
13103.10834757331
 11
908.570135226179
 21
13103.10834757331
  0
LINE
  5
1DE
100
AcDbEntity
  8
1
  6
DOT_CENTER
 62
           1
100
AcDbLine
 10
924.550135226179
 20
13173.10834757331
 11
908.570135226179
 21
13173.10834757331
  0
LINE
  5
1DD
100
AcDbEntity
  8
1
  6
DOTTED
 62
           1
100
AcDbLine
 10
899.909005052097
 20
13127.10834757331
 11
892.409005052097
 21
13127.10834757331
  0
LINE
  5
1DC
100
AcDbEntity
  8
1
  6
DOTTED
 62
           1
100
AcDbLine
 10
882.409005052097
 20
13114.10834757331
 11
892.409005052096
 21
13114.10834757331
  0
LINE
  5
1DB
100
AcDbEntity
  8
1
  6
DOTTED
 62
           1
100
AcDbLine
 10
882.409005052096
 20
13092.10834757331
 11
892.409005052096
 21
13092.10834757331
  0
LINE
  5
1DA
100
AcDbEntity
  8
1
  6
CONTINUOUS
 62
           3
100
AcDbLine
 10
881.409005052096
 20
13114.06295102687
 11
881.409005052096
 21
13103.10834757331
  0
LINE
  5
1D9
100
AcDbEntity
  8
1
  6
CONTINUOUS
 62
           3
100
AcDbLine
 10
903.409005052096
 20
13138.10834757331
 11
903.409005052096
 21
13125.679061787579
  0
LINE
  5
1D8
100
AcDbEntity
  8
1
  6
CONTINUOUS
 62
           3
100
AcDbLine
 10
844.909005052096
 20
13109.10834757331
 11
844.909005052097
 21
13108.10834757331
  0
LINE
  5
1D7
100
AcDbEntity
  8
1
  6
CONTINUOUS
 62
           3
100
AcDbLine
 10
832.909005052096
 20
13109.10834757331
 11
832.909005052096
 21
13097.10834757331
  0
LINE
  5
1D6
100
AcDbEntity
  8
1
  6
CONTINUOUS
 62
           3
100
AcDbLine
 10
830.909005052096
 20
13109.10834757331
 11
830.909005052096
 21
13142.10834757331
  0
LINE
  5
1D5
100
AcDbEntity
  8
1
  6
CONTINUOUS
 62
           3
100
AcDbLine
 10
830.909005052096
 20
13064.10834757331
 11
830.909005052096
 21
13097.10834757331
  0
LINE
  5
1D4
100
AcDbEntity
  8
1
  6
CONTINUOUS
 62
           3
100
AcDbLine
 10
842.409005052096
 20
13108.10834757331
 11
844.909005052097
 21
13108.10834757331
  0
LINE
  5
1D3
100
AcDbEntity
  8
1
  6
CONTINUOUS
 62
           3
100
AcDbLine
 10
844.909005052096
 20
13098.10834757331
 11
844.909005052096
 21
13097.10834757331
  0
LINE
  5
1D2
100
AcDbEntity
  8
1
  6
CONTINUOUS
 62
           3
100
AcDbLine
 10
844.909005052096
 20
13098.10834757331
 11
842.409005052096
 21
13098.10834757331
  0
LINE
  5
1D1
100
AcDbEntity
  8
1
  6
CONTINUOUS
 62
           3
100
AcDbLine
 10
842.409005052096
 20
13098.10834757331
 11
842.409005052096
 21
13108.10834757331
  0
LINE
  5
1D0
100
AcDbEntity
  8
1
  6
CONTINUOUS
 62
           3
100
AcDbLine
 10
829.909005052096
 20
13163.10834757331
 11
829.909005052096
 21
13043.10834757331
  0
LINE
  5
1CF
100
AcDbEntity
  8
1
  6
CONTINUOUS
 62
           3
100
AcDbLine
 10
827.909005052096
 20
13163.10834757331
 11
829.909005052096
 21
13163.10834757331
  0
LINE
  5
1CE
100
AcDbEntity
  8
1
  6
CONTINUOUS
 62
           3
100
AcDbLine
 10
827.909005052096
 20
13043.10834757331
 11
827.909005052096
 21
13163.10834757331
  0
LINE
  5
1CD
100
AcDbEntity
  8
1
  6
DOTTED
 62
           1
100
AcDbLine
 10
827.909005052096
 20
13158.10747270773
 11
829.909005052096
 21
13158.10747270773
  0
LINE
  5
1CC
100
AcDbEntity
  8
1
  6
DOTTED
 62
           1
100
AcDbLine
 10
827.909005052096
 20
13148.109436614761
 11
829.909005052096
 21
13148.109436614761
  0
LINE
  5
1CB
100
AcDbEntity
  8
1
  6
DOT_CENTER
 62
           1
100
AcDbLine
 10
822.135052820534
 20
13153.10834757331
 11
835.409128480003
 21
13153.10834757331
  0
LINE
  5
1CA
100
AcDbEntity
  8
1
  6
DOTTED
 62
           1
100
AcDbLine
 10
829.909005052096
 20
13059.10834757331
 11
827.909005052096
 21
13059.10834757331
  0
LINE
  5
1C9
100
AcDbEntity
  8
1
  6
DOTTED
 62
           1
100
AcDbLine
 10
829.909005052096
 20
13047.10834757331
 11
827.909005052096
 21
13047.10834757331
  0
LINE
  5
1C8
100
AcDbEntity
  8
1
  6
DOT_CENTER
 62
           1
100
AcDbLine
 10
834.573001850657
 20
13053.10834757331
 11
822.135052820534
 21
13053.10834757331
  0
LINE
  5
1C7
100
AcDbEntity
  8
1
  6
DOT_CENTER
 62
           1
100
AcDbLine
 10
834.573001850657
 20
13065.60834757331
 11
822.135052820534
 21
13065.60834757331
  0
LINE
  5
1C6
100
AcDbEntity
  8
1
  6
DOTTED
 62
           1
100
AcDbLine
 10
829.909005052096
 20
13059.60834757331
 11
827.909005052096
 21
13059.60834757331
  0
LINE
  5
1C5
100
AcDbEntity
  8
1
  6
DOTTED
 62
           1
100
AcDbLine
 10
829.909005052096
 20
13071.60834757331
 11
827.909005052096
 21
13071.60834757331
  0
LINE
  5
1C4
100
AcDbEntity
  8
1
  6
DOT_CENTER
 62
           1
100
AcDbLine
 10
822.135052820534
 20
13140.60834757331
 11
835.409128480003
 21
13140.60834757331
  0
LINE
  5
1C3
100
AcDbEntity
  8
1
  6
DOTTED
 62
           1
100
AcDbLine
 10
827.909005052096
 20
13135.609436614761
 11
829.909005052096
 21
13135.609436614761
  0
LINE
  5
1C2
100
AcDbEntity
  8
1
  6
DOTTED
 62
           1
100
AcDbLine
 10
827.909005052096
 20
13145.60747270773
 11
829.909005052096
 21
13145.60747270773
  0
LINE
  5
1C1
100
AcDbEntity
  8
1
  6
DOT_CENTER
 62
           1
100
AcDbLine
 10
859.909005052096
 20
13161.620830505721
 11
859.909005052096
 21
13046.88490332911
  0
LINE
  5
1C0
100
AcDbEntity
  8
1
  6
CONTINUOUS
 62
           3
100
AcDbLine
 10
829.909005052096
 20
13043.10834757331
 11
827.909005052096
 21
13043.10834757331
  0
LINE
  5
1BF
100
AcDbEntity
  8
1
  6
DOTTED
 62
           1
100
AcDbLine
 10
914.909005052097
 20
13177.1583475733
 11
916.909005052097
 21
13177.1583475733
  0
LINE
  5
1BE
100
AcDbEntity
  8
1
  6
DOTTED
 62
           1
100
AcDbLine
 10
914.909005052097
 20
13169.0583475733
 11
916.909005052097
 21
13169.0583475733
  0
LINE
  5
1BD
100
AcDbEntity
  8
1
  6
DOTTED
 62
           1
100
AcDbLine
 10
914.909005052097
 20
13107.1583475733
 11
916.909005052097
 21
13107.1583475733
  0
LINE
  5
1BC
100
AcDbEntity
  8
1
  6
DOTTED
 62
           1
100
AcDbLine
 10
914.909005052097
 20
13099.0583475733
 11
916.909005052097
 21
13099.0583475733
  0
LINE
  5
1BB
100
AcDbEntity
  8
1
  6
DOTTED
 62
           1
100
AcDbLine
 10
916.909005052097
 20
12692.38630194637
 11
914.909005052097
 21
12692.38630194637
  0
LINE
  5
1BA
100
AcDbEntity
  8
1
  6
DOTTED
 62
           1
100
AcDbLine
 10
916.909005052097
 20
12700.48630194637
 11
914.909005052097
 21
12700.48630194637
  0
LINE
  5
1B9
100
AcDbEntity
  8
1
  6
DOTTED
 62
           1
100
AcDbLine
 10
916.909005052097
 20
12792.38630194637
 11
914.909005052097
 21
12792.38630194637
  0
LINE
  5
1B8
100
AcDbEntity
  8
1
  6
DOTTED
 62
           1
100
AcDbLine
 10
916.909005052097
 20
12800.48630194637
 11
914.909005052097
 21
12800.48630194637
  0
LINE
  5
1B7
100
AcDbEntity
  8
1
  6
DOTTED
 62
           1
100
AcDbLine
 10
914.909005052097
 20
12846.29684870146
 11
916.909005052097
 21
12846.29684870146
  0
LINE
  5
1B6
100
AcDbEntity
  8
1
  6
DOTTED
 62
           1
100
AcDbLine
 10
914.909005052097
 20
12854.39684870147
 11
916.909005052097
 21
12854.39684870147
  0
LINE
  5
1B5
100
AcDbEntity
  8
1
  6
DOTTED
 62
           1
100
AcDbLine
 10
914.909005052097
 20
12916.29684870146
 11
916.909005052097
 21
12916.29684870146
  0
LINE
  5
1B4
100
AcDbEntity
  8
1
  6
DOTTED
 62
           1
100
AcDbLine
 10
914.909005052097
 20
12924.39684870147
 11
916.909005052097
 21
12924.39684870147
  0
LINE
  5
1B3
100
AcDbEntity
  8
1
  6
CONTINUOUS
 62
           3
100
AcDbLine
 10
524.909005052097
 20
12825.34684870146
 11
522.909005052097
 21
12825.34684870146
  0
LINE
  5
1B2
100
AcDbEntity
  8
1
  6
CONTINUOUS
 62
           3
100
AcDbLine
 10
525.909005052097
 20
12727.936301946371
 11
525.909005052097
 21
12728.936301946371
  0
LINE
  5
1B1
100
AcDbEntity
  8
1
  6
DOTTED
 62
           1
100
AcDbLine
 10
522.909005052097
 20
12799.036301946369
 11
524.909005052097
 21
12799.036301946369
  0
LINE
  5
1B0
100
AcDbEntity
  8
1
  6
DOTTED
 62
           1
100
AcDbLine
 10
522.909005052097
 20
12793.83630194637
 11
524.909005052097
 21
12793.83630194637
  0
LINE
  5
1AF
100
AcDbEntity
  8
1
  6
DOT_CENTER
 62
           1
100
AcDbLine
 10
517.135052820534
 20
12796.436301946371
 11
533.675052820534
 21
12796.436301946371
  0
LINE
  5
1AE
100
AcDbEntity
  8
1
  6
DOT_CENTER
 62
           1
100
AcDbLine
 10
533.675052820534
 20
12696.436301946371
 11
517.135052820534
 21
12696.436301946371
  0
LINE
  5
1AD
100
AcDbEntity
  8
1
  6
DOTTED
 62
           1
100
AcDbLine
 10
524.909005052097
 20
12699.036301946369
 11
522.909005052097
 21
12699.036301946369
  0
LINE
  5
1AC
100
AcDbEntity
  8
1
  6
DOTTED
 62
           1
100
AcDbLine
 10
524.909005052097
 20
12693.83630194637
 11
522.909005052097
 21
12693.83630194637
  0
LINE
  5
1AB
100
AcDbEntity
  8
1
  6
CONTINUOUS
 62
           3
100
AcDbLine
 10
524.909005052097
 20
12728.936301946371
 11
524.909005052097
 21
12686.436301946371
  0
LINE
  5
1AA
100
AcDbEntity
  8
1
  6
CONTINUOUS
 62
           3
100
AcDbLine
 10
524.909005052097
 20
12763.936301946371
 11
524.909005052097
 21
12728.936301946371
  0
LINE
  5
1A9
100
AcDbEntity
  8
1
  6
CONTINUOUS
 62
           3
100
AcDbLine
 10
522.909005052097
 20
12806.436301946371
 11
524.909005052097
 21
12806.436301946371
  0
LINE
  5
1A8
100
AcDbEntity
  8
1
  6
CONTINUOUS
 62
           3
100
AcDbLine
 10
524.909005052097
 20
12686.436301946371
 11
522.909005052097
 21
12686.436301946371
  0
LINE
  5
1A7
100
AcDbEntity
  8
1
  6
CONTINUOUS
 62
           3
100
AcDbLine
 10
524.909005052097
 20
12806.436301946371
 11
524.909005052097
 21
12763.936301946371
  0
LINE
  5
1A6
100
AcDbEntity
  8
1
  6
CONTINUOUS
 62
           3
100
AcDbLine
 10
522.909005052097
 20
12686.436301946371
 11
522.909005052097
 21
12806.436301946371
  0
LINE
  5
1A5
100
AcDbEntity
  8
1
  6
CONTINUOUS
 62
           3
100
AcDbLine
 10
525.909005052097
 20
12763.936301946371
 11
524.909005052097
 21
12763.936301946371
  0
LINE
  5
1A4
100
AcDbEntity
  8
1
  6
CONTINUOUS
 62
           3
100
AcDbLine
 10
525.909005052097
 20
12728.936301946371
 11
524.909005052097
 21
12728.936301946371
  0
LINE
  5
1A3
100
AcDbEntity
  8
1
  6
CONTINUOUS
 62
           3
100
AcDbLine
 10
525.909005052097
 20
12763.936301946371
 11
525.909005052097
 21
12764.936301946371
  0
LINE
  5
1A2
100
AcDbEntity
  8
1
  6
CONTINUOUS
 62
           3
100
AcDbLine
 10
525.909005052097
 20
12728.936301946371
 11
525.909005052097
 21
12763.936301946371
  0
LINE
  5
1A1
100
AcDbEntity
  8
1
  6
DOT_CENTER
 62
           1
100
AcDbLine
 10
517.135052820534
 20
12783.936301946371
 11
533.675052820534
 21
12783.936301946371
  0
LINE
  5
1A0
100
AcDbEntity
  8
1
  6
DOTTED
 62
           1
100
AcDbLine
 10
522.909005052097
 20
12781.33630194637
 11
524.909005052097
 21
12781.33630194637
  0
LINE
  5
19F
100
AcDbEntity
  8
1
  6
DOTTED
 62
           1
100
AcDbLine
 10
522.909005052097
 20
12786.536301946369
 11
524.909005052097
 21
12786.536301946369
  0
LINE
  5
19E
100
AcDbEntity
  8
1
  6
DOTTED
 62
           1
100
AcDbLine
 10
524.909005052097
 20
12706.33630194637
 11
522.909005052097
 21
12706.33630194637
  0
LINE
  5
19D
100
AcDbEntity
  8
1
  6
DOTTED
 62
           1
100
AcDbLine
 10
524.909005052097
 20
12711.536301946369
 11
522.909005052097
 21
12711.536301946369
  0
LINE
  5
19C
100
AcDbEntity
  8
1
  6
DOT_CENTER
 62
           1
100
AcDbLine
 10
533.675052820534
 20
12708.936301946371
 11
517.135052820534
 21
12708.936301946371
  0
LINE
  5
19B
100
AcDbEntity
  8
1
  6
CONTINUOUS
 62
           3
100
AcDbLine
 10
539.909005052097
 20
12891.34684870146
 11
539.909005052097
 21
12890.34684870146
  0
LINE
  5
19A
100
AcDbEntity
  8
1
  6
CONTINUOUS
 62
           3
100
AcDbLine
 10
527.909005052097
 20
12891.34684870146
 11
527.909005052097
 21
12879.34684870146
  0
LINE
  5
199
100
AcDbEntity
  8
1
  6
CONTINUOUS
 62
           3
100
AcDbLine
 10
525.909005052096
 20
12891.34684870146
 11
525.909005052096
 21
12924.34684870146
  0
LINE
  5
198
100
AcDbEntity
  8
1
  6
CONTINUOUS
 62
           3
100
AcDbLine
 10
525.909005052096
 20
12846.34684870146
 11
525.909005052096
 21
12879.34684870146
  0
LINE
  5
197
100
AcDbEntity
  8
1
  6
CONTINUOUS
 62
           3
100
AcDbLine
 10
537.409005052097
 20
12890.34684870146
 11
539.909005052097
 21
12890.34684870146
  0
LINE
  5
196
100
AcDbEntity
  8
1
  6
CONTINUOUS
 62
           3
100
AcDbLine
 10
539.909005052097
 20
12880.34684870146
 11
539.909005052097
 21
12879.34684870146
  0
LINE
  5
195
100
AcDbEntity
  8
1
  6
CONTINUOUS
 62
           3
100
AcDbLine
 10
539.909005052097
 20
12880.34684870146
 11
537.409005052097
 21
12880.34684870146
  0
LINE
  5
194
100
AcDbEntity
  8
1
  6
CONTINUOUS
 62
           3
100
AcDbLine
 10
537.409005052097
 20
12880.34684870146
 11
537.409005052097
 21
12890.34684870146
  0
LINE
  5
193
100
AcDbEntity
  8
1
  6
CONTINUOUS
 62
           3
100
AcDbLine
 10
524.909005052097
 20
12945.34684870146
 11
524.909005052097
 21
12825.34684870146
  0
LINE
  5
192
100
AcDbEntity
  8
1
  6
CONTINUOUS
 62
           3
100
AcDbLine
 10
522.909005052097
 20
12945.34684870146
 11
524.909005052097
 21
12945.34684870146
  0
LINE
  5
191
100
AcDbEntity
  8
1
  6
CONTINUOUS
 62
           3
100
AcDbLine
 10
522.909005052097
 20
12825.34684870146
 11
522.909005052097
 21
12945.34684870146
  0
LINE
  5
190
100
AcDbEntity
  8
1
  6
DOTTED
 62
           1
100
AcDbLine
 10
522.909005052097
 20
12940.345973835891
 11
524.909005052097
 21
12940.345973835891
  0
LINE
  5
18F
100
AcDbEntity
  8
1
  6
DOTTED
 62
           1
100
AcDbLine
 10
522.909005052097
 20
12930.347937742919
 11
524.909005052097
 21
12930.347937742919
  0
LINE
  5
18E
100
AcDbEntity
  8
1
  6
DOT_CENTER
 62
           1
100
AcDbLine
 10
517.135052820534
 20
12935.34684870146
 11
530.409128480003
 21
12935.34684870146
  0
LINE
  5
18D
100
AcDbEntity
  8
1
  6
DOTTED
 62
           1
100
AcDbLine
 10
524.909005052097
 20
12841.34684870146
 11
522.909005052097
 21
12841.34684870146
  0
LINE
  5
18C
100
AcDbEntity
  8
1
  6
DOTTED
 62
           1
100
AcDbLine
 10
524.909005052097
 20
12829.34684870146
 11
522.909005052097
 21
12829.34684870146
  0
LINE
  5
18B
100
AcDbEntity
  8
1
  6
DOT_CENTER
 62
           1
100
AcDbLine
 10
529.573001850657
 20
12835.34684870146
 11
517.135052820534
 21
12835.34684870146
  0
LINE
  5
18A
100
AcDbEntity
  8
1
  6
DOT_CENTER
 62
           1
100
AcDbLine
 10
529.573001850657
 20
12847.84684870146
 11
517.135052820534
 21
12847.84684870146
  0
LINE
  5
189
100
AcDbEntity
  8
1
  6
DOTTED
 62
           1
100
AcDbLine
 10
524.909005052097
 20
12841.84684870146
 11
522.909005052097
 21
12841.84684870146
  0
LINE
  5
188
100
AcDbEntity
  8
1
  6
DOTTED
 62
           1
100
AcDbLine
 10
524.909005052097
 20
12853.84684870146
 11
522.909005052097
 21
12853.84684870146
  0
LINE
  5
187
100
AcDbEntity
  8
1
  6
DOT_CENTER
 62
           1
100
AcDbLine
 10
517.135052820534
 20
12922.84684870146
 11
530.409128480003
 21
12922.84684870146
  0
LINE
  5
186
100
AcDbEntity
  8
1
  6
DOTTED
 62
           1
100
AcDbLine
 10
522.909005052097
 20
12917.847937742919
 11
524.909005052097
 21
12917.847937742919
  0
LINE
  5
185
100
AcDbEntity
  8
1
  6
DOTTED
 62
           1
100
AcDbLine
 10
522.909005052097
 20
12927.845973835891
 11
524.909005052097
 21
12927.845973835891
  0
LINE
  5
184
100
AcDbEntity
  8
1
  6
CONTINUOUS
 62
           3
100
AcDbLine
 10
899.909005052097
 20
12874.34684870146
 11
892.409005052097
 21
12874.34684870146
  0
LINE
  5
183
100
AcDbEntity
  8
1
  6
CONTINUOUS
 62
           3
100
AcDbLine
 10
892.409005052097
 20
12874.34684870146
 11
722.409005052097
 21
12874.34684870146
  0
LINE
  5
182
100
AcDbEntity
  8
1
  6
CONTINUOUS
 62
           3
100
AcDbLine
 10
892.409005052097
 20
12896.34684870146
 11
722.409005052097
 21
12896.34684870146
  0
LINE
  5
181
100
AcDbEntity
  8
1
  6
DOT_CENTER
 62
           1
100
AcDbLine
 10
554.909005052097
 20
12943.859331633879
 11
554.909005052097
 21
12829.12340445727
  0
LINE
  5
180
100
AcDbEntity
  8
1
  6
CONTINUOUS
 62
           3
100
AcDbLine
 10
574.409005052097
 20
12880.34684870146
 11
569.909005052097
 21
12880.34684870146
  0
LINE
  5
17F
100
AcDbEntity
  8
1
  6
CONTINUOUS
 62
           3
100
AcDbLine
 10
569.909005052097
 20
12880.34684870146
 11
569.909005052097
 21
12879.34684870146
  0
LINE
  5
17E
100
AcDbEntity
  8
1
  6
CONTINUOUS
 62
           3
100
AcDbLine
 10
574.409005052097
 20
12891.34684870146
 11
524.909005052097
 21
12891.34684870146
  0
LINE
  5
17D
100
AcDbEntity
  8
1
  6
CONTINUOUS
 62
           3
100
AcDbLine
 10
539.909005052097
 20
12890.34684870146
 11
569.909005052097
 21
12890.34684870146
  0
LINE
  5
17C
100
AcDbEntity
  8
1
  6
CONTINUOUS
 62
           3
100
AcDbLine
 10
569.909005052097
 20
12891.34684870146
 11
569.909005052097
 21
12890.34684870146
  0
LINE
  5
17B
100
AcDbEntity
  8
1
  6
CONTINUOUS
 62
           3
100
AcDbLine
 10
569.909005052097
 20
12880.34684870146
 11
539.909005052097
 21
12880.34684870146
  0
LINE
  5
17A
100
AcDbEntity
  8
1
  6
CONTINUOUS
 62
           3
100
AcDbLine
 10
524.909005052097
 20
12926.34684870146
 11
572.409005052097
 21
12926.34684870146
  0
LINE
  5
179
100
AcDbEntity
  8
1
  6
CONTINUOUS
 62
           3
100
AcDbLine
 10
574.409005052097
 20
12924.34684870146
 11
574.409005052097
 21
12891.34684870146
  0
LINE
  5
178
100
AcDbEntity
  8
1
  6
CONTINUOUS
 62
           3
100
AcDbLine
 10
524.909005052097
 20
12879.34684870146
 11
574.409005052097
 21
12879.34684870146
  0
LINE
  5
177
100
AcDbEntity
  8
1
  6
CONTINUOUS
 62
           3
100
AcDbLine
 10
574.409005052097
 20
12879.34684870146
 11
574.409005052097
 21
12846.34684870146
  0
LINE
  5
176
100
AcDbEntity
  8
1
  6
CONTINUOUS
 62
           3
100
AcDbLine
 10
572.409005052097
 20
12844.34684870146
 11
524.909005052097
 21
12844.34684870146
  0
LINE
  5
175
100
AcDbEntity
  8
1
  6
CONTINUOUS
 62
           3
100
AcDbLine
 10
576.409005052097
 20
12896.34684870146
 11
576.409005052097
 21
12892.34684870146
  0
LINE
  5
174
100
AcDbEntity
  8
1
  6
DOT_CENTER
 62
           1
100
AcDbLine
 10
587.409005052097
 20
12874.34684870146
 11
587.409005052097
 21
12896.34684870146
  0
LINE
  5
173
100
AcDbEntity
  8
1
  6
CONTINUOUS
 62
           3
100
AcDbLine
 10
587.409005052097
 20
12896.34684870146
 11
576.409005052097
 21
12896.34684870146
  0
LINE
  5
172
100
AcDbEntity
  8
1
  6
CONTINUOUS
 62
           3
100
AcDbLine
 10
576.409005052097
 20
12878.34684870146
 11
576.409005052097
 21
12875.34684870146
  0
LINE
  5
171
100
AcDbEntity
  8
1
  6
DOT_CENTER
 62
           1
100
AcDbLine
 10
587.409005052097
 20
12863.782450652679
 11
587.409005052097
 21
12874.34684870146
  0
LINE
  5
170
100
AcDbEntity
  8
1
  6
CONTINUOUS
 62
           3
100
AcDbLine
 10
577.409005052097
 20
12874.34684870146
 11
587.409005052097
 21
12874.34684870146
  0
LINE
  5
16F
100
AcDbEntity
  8
1
  6
CONTINUOUS
 62
           3
100
AcDbLine
 10
569.909005052097
 20
12890.34684870146
 11
574.409005052097
 21
12890.34684870146
  0
LINE
  5
16E
100
AcDbEntity
  8
1
  6
CONTINUOUS
 62
           3
100
AcDbLine
 10
575.409005052097
 20
12889.34684870146
 11
575.409005052097
 21
12881.34684870146
  0
LINE
  5
16D
100
AcDbEntity
  8
1
  6
DOT_CENTER
 62
           1
100
AcDbLine
 10
924.550135226179
 20
12920.34684870146
 11
908.570135226179
 21
12920.34684870146
  0
LINE
  5
16C
100
AcDbEntity
  8
1
  6
DOT_CENTER
 62
           1
100
AcDbLine
 10
924.390135226178
 20
12850.34684870146
 11
908.570135226179
 21
12850.34684870146
  0
LINE
  5
16B
100
AcDbEntity
  8
1
  6
CONTINUOUS
 62
           3
100
AcDbLine
 10
904.909005052097
 20
12908.34684870146
 11
904.909005052097
 21
12862.34684870146
  0
LINE
  5
16A
100
AcDbEntity
  8
1
  6
CONTINUOUS
 62
           3
100
AcDbLine
 10
914.909005052097
 20
12860.34684870146
 11
914.909005052097
 21
12910.34684870146
  0
LINE
  5
169
100
AcDbEntity
  8
1
  6
CONTINUOUS
 62
           3
100
AcDbLine
 10
914.909005052097
 20
12910.34684870146
 11
906.909005052097
 21
12910.34684870146
  0
LINE
  5
168
100
AcDbEntity
  8
1
  6
CONTINUOUS
 62
           3
100
AcDbLine
 10
914.909005052097
 20
12837.84684870146
 11
914.909005052097
 21
12860.34684870146
  0
LINE
  5
167
100
AcDbEntity
  8
1
  6
CONTINUOUS
 62
           3
100
AcDbLine
 10
906.909005052097
 20
12860.34684870146
 11
914.909005052097
 21
12860.34684870146
  0
LINE
  5
166
100
AcDbEntity
  8
1
  6
CONTINUOUS
 62
           3
100
AcDbLine
 10
914.909005052097
 20
12910.34684870146
 11
914.909005052097
 21
12932.84684870146
  0
LINE
  5
165
100
AcDbEntity
  8
1
  6
CONTINUOUS
 62
           3
100
AcDbLine
 10
914.909005052097
 20
12932.84684870146
 11
916.909005052097
 21
12932.84684870146
  0
LINE
  5
164
100
AcDbEntity
  8
1
  6
CONTINUOUS
 62
           3
100
AcDbLine
 10
916.909005052097
 20
12932.84684870146
 11
916.909005052097
 21
12837.84684870146
  0
LINE
  5
163
100
AcDbEntity
  8
1
  6
CONTINUOUS
 62
           3
100
AcDbLine
 10
916.909005052097
 20
12837.84684870146
 11
914.909005052097
 21
12837.84684870146
  0
LINE
  5
162
100
AcDbEntity
  8
1
  6
CONTINUOUS
 62
           3
100
AcDbLine
 10
722.409005052097
 20
12874.34684870146
 11
552.409005052097
 21
12874.34684870146
  0
LINE
  5
161
100
AcDbEntity
  8
1
  6
CONTINUOUS
 62
           3
100
AcDbLine
 10
722.409005052097
 20
12896.34684870146
 11
552.409005052097
 21
12896.34684870146
  0
LINE
  5
160
100
AcDbEntity
  8
1
  6
DOT_CENTER
 62
           1
100
AcDbLine
 10
587.409005052097
 20
12896.34684870146
 11
587.409005052097
 21
12906.722450652671
  0
LINE
  5
15F
100
AcDbEntity
  8
1
  6
DOT_CENTER
 62
           1
100
AcDbLine
 10
722.409005052097
 20
12906.21354622802
 11
722.409005052097
 21
12864.03354622802
  0
LINE
  5
15E
100
AcDbEntity
  8
1
  6
CONTINUOUS
 62
           3
100
AcDbLine
 10
899.909005052097
 20
12896.34684870146
 11
892.409005052097
 21
12896.34684870146
  0
LINE
  5
15D
100
AcDbEntity
  8
1
  6
CONTINUOUS
 62
           3
100
AcDbLine
 10
903.377897404984
 20
12884.520168260929
 11
903.377897404984
 21
12884.52016826092
  0
LINE
  5
15C
100
AcDbEntity
  8
1
  6
CONTINUOUS
 62
           3
100
AcDbLine
 10
608.409005052097
 20
12701.436301946371
 11
608.409005052097
 21
12723.936301946371
  0
LINE
  5
15B
100
AcDbEntity
  8
1
  6
DOTTED
 62
           1
100
AcDbLine
 10
618.409005052097
 20
12731.436301946371
 11
608.409005052097
 21
12731.436301946371
  0
LINE
  5
15A
100
AcDbEntity
  8
1
  6
CONTINUOUS
 62
           3
100
AcDbLine
 10
607.409005052097
 20
12723.936301946371
 11
576.909005052097
 21
12723.936301946371
  0
LINE
  5
159
100
AcDbEntity
  8
1
  6
CONTINUOUS
 62
           3
100
AcDbLine
 10
608.409005052097
 20
12731.436301946371
 11
587.409005052097
 21
12731.436301946371
  0
LINE
  5
158
100
AcDbEntity
  8
1
  6
DOTTED
 62
           1
100
AcDbLine
 10
737.409005052097
 20
12676.936301946371
 11
747.409005052097
 21
12676.936301946371
  0
LINE
  5
157
100
AcDbEntity
  8
1
  6
DOTTED
 62
           1
100
AcDbLine
 10
747.409005052097
 20
12696.436301946371
 11
737.409005052097
 21
12696.436301946371
  0
LINE
  5
156
100
AcDbEntity
  8
1
  6
CONTINUOUS
 62
           3
100
AcDbLine
 10
737.409005052097
 20
12696.436301946371
 11
705.909005052097
 21
12696.436301946371
  0
LINE
  5
155
100
AcDbEntity
  8
1
  6
CONTINUOUS
 62
           3
100
AcDbLine
 10
737.409005052097
 20
12704.436301946371
 11
722.409005052097
 21
12704.436301946371
  0
LINE
  5
154
100
AcDbEntity
  8
1
  6
CONTINUOUS
 62
           3
100
AcDbLine
 10
737.409005052097
 20
12674.936301946371
 11
737.409005052097
 21
12708.936301946371
  0
LINE
  5
153
100
AcDbEntity
  8
1
  6
DOTTED
 62
           1
100
AcDbLine
 10
747.409005052097
 20
12704.436301946371
 11
737.409005052097
 21
12704.436301946371
  0
LINE
  5
152
100
AcDbEntity
  8
1
  6
DOTTED
 62
           1
100
AcDbLine
 10
747.409005052097
 20
12707.436301946371
 11
743.909005052097
 21
12707.436301946371
  0
LINE
  5
151
100
AcDbEntity
  8
1
  6
CONTINUOUS
 62
           3
100
AcDbLine
 10
740.746727391929
 20
12709.436301946371
 11
746.909005052097
 21
12709.436301946371
  0
LINE
  5
150
100
AcDbEntity
  8
1
  6
DOTTED
 62
           1
100
AcDbLine
 10
877.409005052097
 20
12696.436301946371
 11
867.409005052097
 21
12696.436301946371
  0
LINE
  5
14F
100
AcDbEntity
  8
1
  6
DOTTED
 62
           1
100
AcDbLine
 10
877.409005052097
 20
12704.436301946371
 11
867.409005052097
 21
12704.436301946371
  0
LINE
  5
14E
100
AcDbEntity
  8
1
  6
CONTINUOUS
 62
           3
100
AcDbLine
 10
867.409005052097
 20
12696.436301946371
 11
747.409005052097
 21
12696.436301946371
  0
LINE
  5
14D
100
AcDbEntity
  8
1
  6
CONTINUOUS
 62
           3
100
AcDbLine
 10
867.409005052097
 20
12704.436301946371
 11
747.409005052097
 21
12704.436301946371
  0
LINE
  5
14C
100
AcDbEntity
  8
1
  6
CONTINUOUS
 62
           3
100
AcDbLine
 10
867.409005052097
 20
12674.936301946371
 11
867.409005052097
 21
12708.936301946371
  0
LINE
  5
14B
100
AcDbEntity
  8
1
  6
CONTINUOUS
 62
           3
100
AcDbLine
 10
867.409005052097
 20
12707.436301946371
 11
843.909005052096
 21
12707.436301946371
  0
LINE
  5
14A
100
AcDbEntity
  8
1
  6
DOTTED
 62
           1
100
AcDbLine
 10
867.409005052097
 20
12676.936301946371
 11
877.409005052097
 21
12676.936301946371
  0
LINE
  5
149
100
AcDbEntity
  8
1
  6
CONTINUOUS
 62
           3
100
AcDbLine
 10
876.909005052097
 20
12674.436301946371
 11
867.909005052097
 21
12674.436301946371
  0
LINE
  5
148
100
AcDbEntity
  8
1
  6
CONTINUOUS
 62
           3
100
AcDbLine
 10
877.409005052097
 20
12708.936301946371
 11
877.409005052097
 21
12674.936301946371
  0
LINE
  5
147
100
AcDbEntity
  8
1
  6
CONTINUOUS
 62
           3
100
AcDbLine
 10
867.909005052097
 20
12709.436301946371
 11
876.909005052097
 21
12709.436301946371
  0
LINE
  5
146
100
AcDbEntity
  8
1
  6
CONTINUOUS
 62
           3
100
AcDbLine
 10
746.909005052097
 20
12674.436301946371
 11
737.909005052097
 21
12674.436301946371
  0
LINE
  5
145
100
AcDbEntity
  8
1
  6
CONTINUOUS
 62
           3
100
AcDbLine
 10
747.409005052097
 20
12708.936301946371
 11
747.409005052097
 21
12674.936301946371
  0
LINE
  5
144
100
AcDbEntity
  8
1
  6
CONTINUOUS
 62
           3
100
AcDbLine
 10
737.909005052097
 20
12709.436301946371
 11
740.746727391929
 21
12709.436301946371
  0
LINE
  5
143
100
AcDbEntity
  8
1
  6
DOTTED
 62
           1
100
AcDbLine
 10
618.409005052097
 20
12703.436301946371
 11
608.409005052097
 21
12703.436301946371
  0
LINE
  5
142
100
AcDbEntity
  8
1
  6
CONTINUOUS
 62
           3
100
AcDbLine
 10
617.909005052097
 20
12700.936301946371
 11
608.909005052097
 21
12700.936301946371
  0
LINE
  5
141
100
AcDbEntity
  8
1
  6
CONTINUOUS
 62
           3
100
AcDbLine
 10
618.409005052097
 20
12735.436301946371
 11
618.409005052097
 21
12731.436301946371
  0
LINE
  5
140
100
AcDbEntity
  8
1
  6
CONTINUOUS
 62
           3
100
AcDbLine
 10
608.909005052097
 20
12735.936301946371
 11
617.909005052097
 21
12735.936301946371
  0
LINE
  5
13F
100
AcDbEntity
  8
1
  6
CONTINUOUS
 62
           3
100
AcDbLine
 10
901.159005052097
 20
12723.436301946371
 11
904.909005052097
 21
12723.436301946371
  0
LINE
  5
13E
100
AcDbEntity
  8
1
  6
CONTINUOUS
 62
           3
100
AcDbLine
 10
901.159005052097
 20
12721.436301946371
 11
882.409005052096
 21
12721.436301946371
  0
LINE
  5
13D
100
AcDbEntity
  8
1
  6
CONTINUOUS
 62
           3
100
AcDbLine
 10
901.159005052097
 20
12723.436301946371
 11
901.159005052097
 21
12721.436301946371
  0
LINE
  5
13C
100
AcDbEntity
  8
1
  6
CONTINUOUS
 62
           3
100
AcDbLine
 10
883.659005052097
 20
12723.436301946371
 11
901.159005052097
 21
12723.436301946371
  0
LINE
  5
13B
100
AcDbEntity
  8
1
  6
CONTINUOUS
 62
           3
100
AcDbLine
 10
865.409005052096
 20
12721.436301946371
 11
731.159005052097
 21
12721.436301946371
  0
LINE
  5
13A
100
AcDbEntity
  8
1
  6
CONTINUOUS
 62
           3
100
AcDbLine
 10
883.659005052097
 20
12723.436301946371
 11
883.659005052097
 21
12721.436301946371
  0
LINE
  5
139
100
AcDbEntity
  8
1
  6
CONTINUOUS
 62
           3
100
AcDbLine
 10
901.159005052097
 20
12771.436301946371
 11
902.909005052097
 21
12771.436301946371
  0
LINE
  5
138
100
AcDbEntity
  8
1
  6
CONTINUOUS
 62
           3
100
AcDbLine
 10
901.159005052097
 20
12769.436301946371
 11
883.659005052097
 21
12769.436301946371
  0
LINE
  5
137
100
AcDbEntity
  8
1
  6
CONTINUOUS
 62
           3
100
AcDbLine
 10
901.159005052097
 20
12771.436301946371
 11
901.159005052097
 21
12769.436301946371
  0
LINE
  5
136
100
AcDbEntity
  8
1
  6
CONTINUOUS
 62
           3
100
AcDbLine
 10
883.659005052097
 20
12769.436301946371
 11
881.909005052097
 21
12769.436301946371
  0
LINE
  5
135
100
AcDbEntity
  8
1
  6
CONTINUOUS
 62
           3
100
AcDbLine
 10
882.409005052096
 20
12771.436301946371
 11
901.159005052097
 21
12771.436301946371
  0
LINE
  5
134
100
AcDbEntity
  8
1
  6
CONTINUOUS
 62
           3
100
AcDbLine
 10
883.659005052097
 20
12771.436301946371
 11
883.659005052097
 21
12769.436301946371
  0
LINE
  5
133
100
AcDbEntity
  8
1
  6
CONTINUOUS
 62
           3
100
AcDbLine
 10
731.159005052097
 20
12721.436301946371
 11
713.659005052097
 21
12721.436301946371
  0
LINE
  5
132
100
AcDbEntity
  8
1
  6
CONTINUOUS
 62
           3
100
AcDbLine
 10
731.159005052097
 20
12723.936301946371
 11
713.659005052097
 21
12723.936301946371
  0
LINE
  5
131
100
AcDbEntity
  8
1
  6
CONTINUOUS
 62
           3
100
AcDbLine
 10
731.159005052097
 20
12723.936301946371
 11
731.159005052097
 21
12721.436301946371
  0
LINE
  5
130
100
AcDbEntity
  8
1
  6
CONTINUOUS
 62
           3
100
AcDbLine
 10
713.659005052097
 20
12721.436301946371
 11
705.409005052097
 21
12721.436301946371
  0
LINE
  5
12F
100
AcDbEntity
  8
1
  6
CONTINUOUS
 62
           3
100
AcDbLine
 10
713.659005052097
 20
12723.936301946371
 11
713.659005052097
 21
12721.436301946371
  0
LINE
  5
12E
100
AcDbEntity
  8
1
  6
CONTINUOUS
 62
           3
100
AcDbLine
 10
731.159005052097
 20
12771.436301946371
 11
732.409005052097
 21
12771.436301946371
  0
LINE
  5
12D
100
AcDbEntity
  8
1
  6
CONTINUOUS
 62
           3
100
AcDbLine
 10
731.159005052097
 20
12768.936301946371
 11
732.909005052097
 21
12768.936301946371
  0
LINE
  5
12C
100
AcDbEntity
  8
1
  6
CONTINUOUS
 62
           3
100
AcDbLine
 10
731.159005052097
 20
12771.436301946371
 11
731.159005052097
 21
12768.936301946371
  0
LINE
  5
12B
100
AcDbEntity
  8
1
  6
CONTINUOUS
 62
           3
100
AcDbLine
 10
713.659005052097
 20
12771.436301946371
 11
731.159005052097
 21
12771.436301946371
  0
LINE
  5
12A
100
AcDbEntity
  8
1
  6
CONTINUOUS
 62
           3
100
AcDbLine
 10
713.659005052097
 20
12768.936301946371
 11
731.159005052097
 21
12768.936301946371
  0
LINE
  5
129
100
AcDbEntity
  8
1
  6
CONTINUOUS
 62
           3
100
AcDbLine
 10
713.659005052097
 20
12771.436301946371
 11
713.659005052097
 21
12768.936301946371
  0
LINE
  5
128
100
AcDbEntity
  8
1
  6
CONTINUOUS
 62
           3
100
AcDbLine
 10
705.909005052097
 20
12771.436301946371
 11
713.659005052097
 21
12771.436301946371
  0
LINE
  5
127
100
AcDbEntity
  8
1
  6
CONTINUOUS
 62
           3
100
AcDbLine
 10
576.909005052097
 20
12768.936301946371
 11
713.659005052097
 21
12768.936301946371
  0
LINE
  5
126
100
AcDbEntity
  8
1
  6
DOT_CENTER
 62
           1
100
AcDbLine
 10
722.409005052097
 20
12805.308438297439
 11
722.409005052097
 21
12686.82843829744
  0
LINE
  5
125
100
AcDbEntity
  8
1
  6
DOT_CENTER
 62
           1
100
AcDbLine
 10
892.409005052097
 20
12805.580175684991
 11
892.409005052097
 21
12687.37017568499
  0
LINE
  5
124
100
AcDbEntity
  8
1
  6
CONTINUOUS
 62
           3
100
AcDbLine
 10
820.909005052097
 20
12707.436301946371
 11
793.909005052097
 21
12707.436301946371
  0
LINE
  5
123
100
AcDbEntity
  8
1
  6
CONTINUOUS
 62
           3
100
AcDbLine
 10
820.909005052097
 20
12714.436301946371
 11
793.909005052097
 21
12714.436301946371
  0
LINE
  5
122
100
AcDbEntity
  8
1
  6
CONTINUOUS
 62
           3
100
AcDbLine
 10
870.909005052096
 20
12714.436301946371
 11
843.909005052096
 21
12714.436301946371
  0
LINE
  5
121
100
AcDbEntity
  8
1
  6
DOTTED
 62
           1
100
AcDbLine
 10
870.909005052096
 20
12707.436301946371
 11
867.409005052097
 21
12707.436301946371
  0
LINE
  5
120
100
AcDbEntity
  8
1
  6
CONTINUOUS
 62
           3
100
AcDbLine
 10
770.909005052097
 20
12707.436301946371
 11
747.409005052097
 21
12707.436301946371
  0
LINE
  5
11F
100
AcDbEntity
  8
1
  6
CONTINUOUS
 62
           3
100
AcDbLine
 10
770.909005052097
 20
12714.436301946371
 11
743.909005052097
 21
12714.436301946371
  0
LINE
  5
11E
100
AcDbEntity
  8
1
  6
CONTINUOUS
 62
           3
100
AcDbLine
 10
743.909005052097
 20
12778.436301946371
 11
770.909005052097
 21
12778.436301946371
  0
LINE
  5
11D
100
AcDbEntity
  8
1
  6
CONTINUOUS
 62
           3
100
AcDbLine
 10
743.909005052097
 20
12785.436301946371
 11
770.909005052097
 21
12785.436301946371
  0
LINE
  5
11C
100
AcDbEntity
  8
1
  6
CONTINUOUS
 62
           3
100
AcDbLine
 10
843.909005052096
 20
12785.436301946371
 11
870.909005052096
 21
12785.436301946371
  0
LINE
  5
11B
100
AcDbEntity
  8
1
  6
CONTINUOUS
 62
           3
100
AcDbLine
 10
843.909005052096
 20
12778.436301946371
 11
870.909005052096
 21
12778.436301946371
  0
LINE
  5
11A
100
AcDbEntity
  8
1
  6
CONTINUOUS
 62
           3
100
AcDbLine
 10
793.909005052097
 20
12778.436301946371
 11
820.909005052097
 21
12778.436301946371
  0
LINE
  5
119
100
AcDbEntity
  8
1
  6
CONTINUOUS
 62
           3
100
AcDbLine
 10
793.909005052097
 20
12785.436301946371
 11
820.909005052097
 21
12785.436301946371
  0
LINE
  5
118
100
AcDbEntity
  8
1
  6
CONTINUOUS
 62
           3
100
AcDbLine
 10
892.409005052097
 20
12704.436301946371
 11
877.409005052097
 21
12704.436301946371
  0
LINE
  5
117
100
AcDbEntity
  8
1
  6
CONTINUOUS
 62
           3
100
AcDbLine
 10
722.409005052097
 20
12716.436301946371
 11
892.409005052097
 21
12716.436301946371
  0
LINE
  5
116
100
AcDbEntity
  8
1
  6
CONTINUOUS
 62
           3
100
AcDbLine
 10
892.409005052097
 20
12776.436301946371
 11
722.409005052097
 21
12776.436301946371
  0
LINE
  5
115
100
AcDbEntity
  8
1
  6
CONTINUOUS
 62
           3
100
AcDbLine
 10
722.409005052097
 20
12788.436301946371
 11
892.409005052097
 21
12788.436301946371
  0
LINE
  5
114
100
AcDbEntity
  8
1
  6
DOT_CENTER
 62
           1
100
AcDbLine
 10
914.909005052097
 20
12696.436301946371
 11
926.729005052096
 21
12696.436301946371
  0
LINE
  5
113
100
AcDbEntity
  8
1
  6
DOT_CENTER
 62
           1
100
AcDbLine
 10
914.909005052097
 20
12796.436301946371
 11
927.969005052096
 21
12796.436301946371
  0
LINE
  5
112
100
AcDbEntity
  8
1
  6
CONTINUOUS
 62
           3
100
AcDbLine
 10
904.909005052097
 20
12769.436301946371
 11
904.909005052097
 21
12723.436301946371
  0
LINE
  5
111
100
AcDbEntity
  8
1
  6
CONTINUOUS
 62
           3
100
AcDbLine
 10
914.909005052097
 20
12696.436301946371
 11
914.909005052097
 21
12683.936301946371
  0
LINE
  5
110
100
AcDbEntity
  8
1
  6
CONTINUOUS
 62
           3
100
AcDbLine
 10
905.909005052097
 20
12696.436301946371
 11
914.909005052097
 21
12696.436301946371
  0
LINE
  5
10F
100
AcDbEntity
  8
1
  6
CONTINUOUS
 62
           3
100
AcDbLine
 10
904.909005052097
 20
12723.436301946371
 11
904.909005052097
 21
12697.436301946371
  0
LINE
  5
10E
100
AcDbEntity
  8
1
  6
CONTINUOUS
 62
           3
100
AcDbLine
 10
881.909005052097
 20
12723.436301946371
 11
883.659005052097
 21
12723.436301946371
  0
LINE
  5
10D
100
AcDbEntity
  8
1
  6
CONTINUOUS
 62
           3
100
AcDbLine
 10
881.409005052097
 20
12768.936301946371
 11
881.409005052097
 21
12723.936301946371
  0
LINE
  5
10C
100
AcDbEntity
  8
1
  6
CONTINUOUS
 62
           3
100
AcDbLine
 10
904.909005052097
 20
12769.436301946371
 11
901.159005052097
 21
12769.436301946371
  0
LINE
  5
10B
100
AcDbEntity
  8
1
  6
CONTINUOUS
 62
           3
100
AcDbLine
 10
904.909005052097
 20
12795.436301946371
 11
904.909005052097
 21
12769.436301946371
  0
LINE
  5
10A
100
AcDbEntity
  8
1
  6
CONTINUOUS
 62
           3
100
AcDbLine
 10
914.909005052097
 20
12796.436301946371
 11
914.909005052097
 21
12696.436301946371
  0
LINE
  5
109
100
AcDbEntity
  8
1
  6
CONTINUOUS
 62
           3
100
AcDbLine
 10
914.909005052097
 20
12796.436301946371
 11
905.909005052097
 21
12796.436301946371
  0
LINE
  5
108
100
AcDbEntity
  8
1
  6
CONTINUOUS
 62
           3
100
AcDbLine
 10
903.409005052097
 20
12720.936301946371
 11
903.409005052097
 21
12696.936301946371
  0
LINE
  5
107
100
AcDbEntity
  8
1
  6
CONTINUOUS
 62
           3
100
AcDbLine
 10
868.409005052096
 20
12768.436301946371
 11
868.409005052096
 21
12724.436301946371
  0
LINE
  5
106
100
AcDbEntity
  8
1
  6
CONTINUOUS
 62
           3
100
AcDbLine
 10
902.909005052097
 20
12721.436301946371
 11
901.159005052097
 21
12721.436301946371
  0
LINE
  5
105
100
AcDbEntity
  8
1
  6
CONTINUOUS
 62
           3
100
AcDbLine
 10
731.159005052097
 20
12771.436301946371
 11
865.409005052096
 21
12771.436301946371
  0
LINE
  5
104
100
AcDbEntity
  8
1
  6
CONTINUOUS
 62
           3
100
AcDbLine
 10
705.409005052097
 20
12771.936301946371
 11
705.409005052097
 21
12795.936301946371
  0
LINE
  5
103
100
AcDbEntity
  8
1
  6
CONTINUOUS
 62
           3
100
AcDbLine
 10
732.409005052097
 20
12721.436301946371
 11
731.159005052097
 21
12721.436301946371
  0
LINE
  5
102
100
AcDbEntity
  8
1
  6
CONTINUOUS
 62
           3
100
AcDbLine
 10
879.409005052096
 20
12724.436301946371
 11
879.409005052096
 21
12768.436301946371
  0
LINE
  5
101
100
AcDbEntity
  8
1
  6
CONTINUOUS
 62
           3
100
AcDbLine
 10
705.409005052097
 20
12696.936301946371
 11
705.409005052097
 21
12721.436301946371
  0
LINE
  5
100
100
AcDbEntity
  8
1
  6
CONTINUOUS
 62
           3
100
AcDbLine
 10
902.909005052097
 20
12696.436301946371
 11
877.409005052097
 21
12696.436301946371
  0
LINE
  5
FF
100
AcDbEntity
  8
1
  6
CONTINUOUS
 62
           3
100
AcDbLine
 10
903.409005052097
 20
12795.936301946371
 11
903.409005052097
 21
12771.936301946371
  0
LINE
  5
FE
100
AcDbEntity
  8
1
  6
CONTINUOUS
 62
           3
100
AcDbLine
 10
705.909005052097
 20
12796.436301946371
 11
902.909005052097
 21
12796.436301946371
  0
LINE
  5
FD
100
AcDbEntity
  8
1
  6
CONTINUOUS
 62
           3
100
AcDbLine
 10
596.159005052097
 20
12738.436301946371
 11
596.159005052097
 21
12736.436301946371
  0
LINE
  5
FC
100
AcDbEntity
  8
1
  6
CONTINUOUS
 62
           3
100
AcDbLine
 10
598.409005052097
 20
12736.436301946371
 11
576.909005052097
 21
12736.436301946371
  0
LINE
  5
FB
100
AcDbEntity
  8
1
  6
CONTINUOUS
 62
           3
100
AcDbLine
 10
597.909005052097
 20
12738.436301946371
 11
576.409005052097
 21
12738.436301946371
  0
LINE
  5
FA
100
AcDbEntity
  8
1
  6
CONTINUOUS
 62
           3
100
AcDbLine
 10
578.659005052097
 20
12738.436301946371
 11
578.659005052097
 21
12736.436301946371
  0
LINE
  5
F9
100
AcDbEntity
  8
1
  6
CONTINUOUS
 62
           3
100
AcDbLine
 10
596.159005052097
 20
12756.436301946371
 11
596.159005052097
 21
12754.436301946371
  0
LINE
  5
F8
100
AcDbEntity
  8
1
  6
CONTINUOUS
 62
           3
100
AcDbLine
 10
578.659005052097
 20
12756.436301946371
 11
578.659005052097
 21
12754.436301946371
  0
LINE
  5
F7
100
AcDbEntity
  8
1
  6
CONTINUOUS
 62
           3
100
AcDbLine
 10
916.909005052097
 20
12683.936301946371
 11
916.909005052097
 21
12808.936301946371
  0
LINE
  5
F6
100
AcDbEntity
  8
1
  6
CONTINUOUS
 62
           3
100
AcDbLine
 10
914.909005052097
 20
12683.936301946371
 11
916.909005052097
 21
12683.936301946371
  0
LINE
  5
F5
100
AcDbEntity
  8
1
  6
CONTINUOUS
 62
           3
100
AcDbLine
 10
914.909005052097
 20
12808.936301946371
 11
914.909005052097
 21
12796.436301946371
  0
LINE
  5
F4
100
AcDbEntity
  8
1
  6
CONTINUOUS
 62
           3
100
AcDbLine
 10
916.909005052097
 20
12808.936301946371
 11
914.909005052097
 21
12808.936301946371
  0
LINE
  5
F3
100
AcDbEntity
  8
1
  6
CONTINUOUS
 62
           3
100
AcDbLine
 10
681.409005052097
 20
12738.936301946371
 11
681.409005052097
 21
12753.936301946371
  0
LINE
  5
F2
100
AcDbEntity
  8
1
  6
CONTINUOUS
 62
           3
100
AcDbLine
 10
705.409005052097
 20
12735.936301946371
 11
684.409005052097
 21
12735.936301946371
  0
LINE
  5
F1
100
AcDbEntity
  8
1
  6
CONTINUOUS
 62
           3
100
AcDbLine
 10
708.409005052097
 20
12753.936301946371
 11
708.409005052097
 21
12738.936301946371
  0
LINE
  5
F0
100
AcDbEntity
  8
1
  6
CONTINUOUS
 62
           3
100
AcDbLine
 10
684.409005052097
 20
12756.936301946371
 11
705.409005052097
 21
12756.936301946371
  0
LINE
  5
EF
100
AcDbEntity
  8
1
  6
DOT_CENTER
 62
           1
100
AcDbLine
 10
587.409005052097
 20
12779.7292845424
 11
587.409005052097
 21
12761.436301946371
  0
LINE
  5
EE
100
AcDbEntity
  8
1
  6
CONTINUOUS
 62
           3
100
AcDbLine
 10
576.409005052097
 20
12756.936301946371
 11
576.409005052097
 21
12768.436301946371
  0
LINE
  5
ED
100
AcDbEntity
  8
1
  6
CONTINUOUS
 62
           3
100
AcDbLine
 10
600.409005052097
 20
12754.436301946371
 11
600.409005052097
 21
12738.436301946371
  0
LINE
  5
EC
100
AcDbEntity
  8
1
  6
CONTINUOUS
 62
           3
100
AcDbLine
 10
576.909005052097
 20
12756.436301946371
 11
598.409005052097
 21
12756.436301946371
  0
LINE
  5
EB
100
AcDbEntity
  8
1
  6
CONTINUOUS
 62
           3
100
AcDbLine
 10
722.409005052097
 20
12731.436301946371
 11
618.409005052097
 21
12731.436301946371
  0
LINE
  5
EA
100
AcDbEntity
  8
1
  6
CONTINUOUS
 62
           3
100
AcDbLine
 10
587.409005052097
 20
12761.436301946371
 11
722.409005052097
 21
12761.436301946371
  0
LINE
  5
E9
100
AcDbEntity
  8
1
  6
CONTINUOUS
 62
           3
100
AcDbLine
 10
576.409005052097
 20
12724.436301946371
 11
576.409005052097
 21
12735.936301946371
  0
LINE
  5
E8
100
AcDbEntity
  8
1
  6
CONTINUOUS
 62
           3
100
AcDbLine
 10
732.909005052097
 20
12723.936301946371
 11
731.159005052097
 21
12723.936301946371
  0
LINE
  5
E7
100
AcDbEntity
  8
1
  6
CONTINUOUS
 62
           3
100
AcDbLine
 10
733.409005052097
 20
12768.436301946371
 11
733.409005052097
 21
12724.436301946371
  0
LINE
  5
E6
100
AcDbEntity
  8
1
  6
CONTINUOUS
 62
           3
100
AcDbLine
 10
598.409005052097
 20
12753.936301946371
 11
598.409005052097
 21
12738.936301946371
  0
LINE
  5
E5
100
AcDbEntity
  8
1
  6
CONTINUOUS
 62
           3
100
AcDbLine
 10
576.409005052097
 20
12754.436301946371
 11
597.909005052097
 21
12754.436301946371
  0
LINE
  5
E4
100
AcDbEntity
  8
1
  6
CONTINUOUS
 62
           3
100
AcDbLine
 10
572.409005052097
 20
12728.936301946371
 11
563.511330319139
 21
12728.936301946371
  0
LINE
  5
E3
100
AcDbEntity
  8
1
  6
CONTINUOUS
 62
           3
100
AcDbLine
 10
574.409005052097
 20
12761.936301946371
 11
574.409005052097
 21
12730.936301946371
  0
LINE
  5
E2
100
AcDbEntity
  8
1
  6
CONTINUOUS
 62
           3
100
AcDbLine
 10
563.511330319139
 20
12763.936301946371
 11
572.409005052097
 21
12763.936301946371
  0
LINE
  5
E1
100
AcDbEntity
  8
1
  6
DOT_CENTER
 62
           1
100
AcDbLine
 10
554.909005052097
 20
12776.160917719821
 11
554.909005052097
 21
12714.859699102881
  0
LINE
  5
E0
100
AcDbEntity
  8
1
  6
CONTINUOUS
 62
           3
100
AcDbLine
 10
554.909005052097
 20
12726.936301946371
 11
526.909005052097
 21
12726.936301946371
  0
LINE
  5
DF
100
AcDbEntity
  8
1
  6
CONTINUOUS
 62
           3
100
AcDbLine
 10
554.909005052097
 20
12765.936301946371
 11
526.909005052097
 21
12765.936301946371
  0
LINE
  5
DE
100
AcDbEntity
  8
1
  6
DOT_CENTER
 62
           1
100
AcDbLine
 10
477.237786750907
 20
12746.436301946371
 11
539.409005052097
 21
12746.436301946371
  0
LINE
  5
DD
100
AcDbEntity
  8
1
  6
DOT_CENTER
 62
           1
100
AcDbLine
 10
539.409005052097
 20
12746.436301946371
 11
930.026218923786
 21
12746.436301946371
  0
LINE
  5
DC
100
AcDbEntity
  8
1
  6
DOT_CENTER
 62
           1
100
AcDbLine
 10
335.728851642685
 20
12746.436301946371
 11
462.543470100786
 21
12746.436301946371
  0
LINE
  5
DB
100
AcDbEntity
  8
1
  6
DOT_CENTER
 62
           1
100
AcDbLine
 10
399.120440578605
 20
12813.756952508031
 11
399.120440578605
 21
12677.1664748112
  0
LINE
  5
DA
100
AcDbEntity
  8
1
  6
CONTINUOUS
 62
           6
100
AcDbLine
 10
389.620440578605
 20
12735.936301946371
 11
389.620440578605
 21
12734.936301946371
  0
LINE
  5
D9
100
AcDbEntity
  8
1
  6
CONTINUOUS
 62
           6
100
AcDbLine
 10
387.120440578605
 20
12734.436301946371
 11
388.120440578605
 21
12734.436301946371
  0
LINE
  5
D8
100
AcDbEntity
  8
1
  6
CONTINUOUS
 62
           6
100
AcDbLine
 10
391.120440578605
 20
12733.436301946371
 11
390.120440578605
 21
12733.436301946371
  0
LINE
  5
D7
100
AcDbEntity
  8
1
  6
CONTINUOUS
 62
           6
100
AcDbLine
 10
388.620440578605
 20
12731.936301946371
 11
388.620440578605
 21
12732.936301946371
  0
LINE
  5
D6
100
AcDbEntity
  8
1
  6
CONTINUOUS
 62
           6
100
AcDbLine
 10
387.120440578605
 20
12733.436301946371
 11
387.120440578605
 21
12734.436301946371
  0
LINE
  5
D5
100
AcDbEntity
  8
1
  6
CONTINUOUS
 62
           6
100
AcDbLine
 10
390.120440578605
 20
12734.436301946371
 11
391.120440578605
 21
12734.436301946371
  0
LINE
  5
D4
100
AcDbEntity
  8
1
  6
CONTINUOUS
 62
           6
100
AcDbLine
 10
391.120440578605
 20
12734.436301946371
 11
391.120440578605
 21
12733.436301946371
  0
LINE
  5
D3
100
AcDbEntity
  8
1
  6
CONTINUOUS
 62
           6
100
AcDbLine
 10
388.120440578605
 20
12733.436301946371
 11
387.120440578605
 21
12733.436301946371
  0
LINE
  5
D2
100
AcDbEntity
  8
1
  6
CONTINUOUS
 62
           6
100
AcDbLine
 10
388.620440578605
 20
12734.936301946371
 11
388.620440578605
 21
12735.936301946371
  0
LINE
  5
D1
100
AcDbEntity
  8
1
  6
CONTINUOUS
 62
           6
100
AcDbLine
 10
388.620440578605
 20
12735.936301946371
 11
389.620440578605
 21
12735.936301946371
  0
LINE
  5
D0
100
AcDbEntity
  8
1
  6
CONTINUOUS
 62
           6
100
AcDbLine
 10
389.620440578605
 20
12732.936301946371
 11
389.620440578605
 21
12731.936301946371
  0
LINE
  5
CF
100
AcDbEntity
  8
1
  6
CONTINUOUS
 62
           6
100
AcDbLine
 10
389.620440578605
 20
12731.936301946371
 11
388.620440578605
 21
12731.936301946371
  0
LINE
  5
CE
100
AcDbEntity
  8
1
  6
CONTINUOUS
 62
           6
100
AcDbLine
 10
409.620440578605
 20
12731.936301946371
 11
408.620440578605
 21
12731.936301946371
  0
LINE
  5
CD
100
AcDbEntity
  8
1
  6
CONTINUOUS
 62
           6
100
AcDbLine
 10
408.620440578605
 20
12731.936301946371
 11
408.620440578605
 21
12732.936301946371
  0
LINE
  5
CC
100
AcDbEntity
  8
1
  6
CONTINUOUS
 62
           6
100
AcDbLine
 10
408.620440578605
 20
12735.936301946371
 11
409.620440578605
 21
12735.936301946371
  0
LINE
  5
CB
100
AcDbEntity
  8
1
  6
CONTINUOUS
 62
           6
100
AcDbLine
 10
409.620440578605
 20
12735.936301946371
 11
409.620440578605
 21
12734.936301946371
  0
LINE
  5
CA
100
AcDbEntity
  8
1
  6
CONTINUOUS
 62
           6
100
AcDbLine
 10
411.120440578605
 20
12733.436301946371
 11
410.120440578605
 21
12733.436301946371
  0
LINE
  5
C9
100
AcDbEntity
  8
1
  6
CONTINUOUS
 62
           6
100
AcDbLine
 10
407.120440578605
 20
12733.436301946371
 11
407.120440578605
 21
12734.436301946371
  0
LINE
  5
C8
100
AcDbEntity
  8
1
  6
CONTINUOUS
 62
           6
100
AcDbLine
 10
407.120440578605
 20
12734.436301946371
 11
408.120440578605
 21
12734.436301946371
  0
LINE
  5
C7
100
AcDbEntity
  8
1
  6
CONTINUOUS
 62
           6
100
AcDbLine
 10
411.120440578605
 20
12734.436301946371
 11
411.120440578605
 21
12733.436301946371
  0
LINE
  5
C6
100
AcDbEntity
  8
1
  6
CONTINUOUS
 62
           6
100
AcDbLine
 10
409.620440578605
 20
12732.936301946371
 11
409.620440578605
 21
12731.936301946371
  0
LINE
  5
C5
100
AcDbEntity
  8
1
  6
CONTINUOUS
 62
           6
100
AcDbLine
 10
408.120440578605
 20
12733.436301946371
 11
407.120440578605
 21
12733.436301946371
  0
LINE
  5
C4
100
AcDbEntity
  8
1
  6
CONTINUOUS
 62
           6
100
AcDbLine
 10
410.120440578605
 20
12734.436301946371
 11
411.120440578605
 21
12734.436301946371
  0
LINE
  5
C3
100
AcDbEntity
  8
1
  6
CONTINUOUS
 62
           6
100
AcDbLine
 10
408.620440578605
 20
12734.936301946371
 11
408.620440578605
 21
12735.936301946371
  0
LINE
  5
C2
100
AcDbEntity
  8
1
  6
CONTINUOUS
 62
           6
100
AcDbLine
 10
408.620440578605
 20
12756.936301946371
 11
408.620440578605
 21
12757.936301946371
  0
LINE
  5
C1
100
AcDbEntity
  8
1
  6
CONTINUOUS
 62
           6
100
AcDbLine
 10
411.120440578605
 20
12758.436301946371
 11
410.120440578605
 21
12758.436301946371
  0
LINE
  5
C0
100
AcDbEntity
  8
1
  6
CONTINUOUS
 62
           6
100
AcDbLine
 10
407.120440578605
 20
12759.436301946371
 11
408.120440578605
 21
12759.436301946371
  0
LINE
  5
BF
100
AcDbEntity
  8
1
  6
CONTINUOUS
 62
           6
100
AcDbLine
 10
409.620440578605
 20
12760.936301946371
 11
409.620440578605
 21
12759.936301946371
  0
LINE
  5
BE
100
AcDbEntity
  8
1
  6
CONTINUOUS
 62
           6
100
AcDbLine
 10
411.120440578605
 20
12759.436301946371
 11
411.120440578605
 21
12758.436301946371
  0
LINE
  5
BD
100
AcDbEntity
  8
1
  6
CONTINUOUS
 62
           6
100
AcDbLine
 10
408.120440578605
 20
12758.436301946371
 11
407.120440578605
 21
12758.436301946371
  0
LINE
  5
BC
100
AcDbEntity
  8
1
  6
CONTINUOUS
 62
           6
100
AcDbLine
 10
407.120440578605
 20
12758.436301946371
 11
407.120440578605
 21
12759.436301946371
  0
LINE
  5
BB
100
AcDbEntity
  8
1
  6
CONTINUOUS
 62
           6
100
AcDbLine
 10
410.120440578605
 20
12759.436301946371
 11
411.120440578605
 21
12759.436301946371
  0
LINE
  5
BA
100
AcDbEntity
  8
1
  6
CONTINUOUS
 62
           6
100
AcDbLine
 10
409.620440578605
 20
12757.936301946371
 11
409.620440578605
 21
12756.936301946371
  0
LINE
  5
B9
100
AcDbEntity
  8
1
  6
CONTINUOUS
 62
           6
100
AcDbLine
 10
409.620440578605
 20
12756.936301946371
 11
408.620440578605
 21
12756.936301946371
  0
LINE
  5
B8
100
AcDbEntity
  8
1
  6
CONTINUOUS
 62
           6
100
AcDbLine
 10
408.620440578605
 20
12759.936301946371
 11
408.620440578605
 21
12760.936301946371
  0
LINE
  5
B7
100
AcDbEntity
  8
1
  6
CONTINUOUS
 62
           6
100
AcDbLine
 10
408.620440578605
 20
12760.936301946371
 11
409.620440578605
 21
12760.936301946371
  0
LINE
  5
B6
100
AcDbEntity
  8
1
  6
CONTINUOUS
 62
           6
100
AcDbLine
 10
388.620440578605
 20
12760.936301946371
 11
389.620440578605
 21
12760.936301946371
  0
LINE
  5
B5
100
AcDbEntity
  8
1
  6
CONTINUOUS
 62
           6
100
AcDbLine
 10
389.620440578605
 20
12760.936301946371
 11
389.620440578605
 21
12759.936301946371
  0
LINE
  5
B4
100
AcDbEntity
  8
1
  6
CONTINUOUS
 62
           6
100
AcDbLine
 10
389.620440578605
 20
12756.936301946371
 11
388.620440578605
 21
12756.936301946371
  0
LINE
  5
B3
100
AcDbEntity
  8
1
  6
CONTINUOUS
 62
           6
100
AcDbLine
 10
388.620440578605
 20
12756.936301946371
 11
388.620440578605
 21
12757.936301946371
  0
LINE
  5
B2
100
AcDbEntity
  8
1
  6
CONTINUOUS
 62
           6
100
AcDbLine
 10
387.120440578605
 20
12759.436301946371
 11
388.120440578605
 21
12759.436301946371
  0
LINE
  5
B1
100
AcDbEntity
  8
1
  6
CONTINUOUS
 62
           6
100
AcDbLine
 10
391.120440578605
 20
12759.436301946371
 11
391.120440578605
 21
12758.436301946371
  0
LINE
  5
B0
100
AcDbEntity
  8
1
  6
CONTINUOUS
 62
           6
100
AcDbLine
 10
391.120440578605
 20
12758.436301946371
 11
390.120440578605
 21
12758.436301946371
  0
LINE
  5
AF
100
AcDbEntity
  8
1
  6
CONTINUOUS
 62
           6
100
AcDbLine
 10
387.120440578605
 20
12758.436301946371
 11
387.120440578605
 21
12759.436301946371
  0
LINE
  5
AE
100
AcDbEntity
  8
1
  6
CONTINUOUS
 62
           6
100
AcDbLine
 10
388.620440578605
 20
12759.936301946371
 11
388.620440578605
 21
12760.936301946371
  0
LINE
  5
AD
100
AcDbEntity
  8
1
  6
CONTINUOUS
 62
           6
100
AcDbLine
 10
390.120440578605
 20
12759.436301946371
 11
391.120440578605
 21
12759.436301946371
  0
LINE
  5
AC
100
AcDbEntity
  8
1
  6
CONTINUOUS
 62
           6
100
AcDbLine
 10
388.120440578605
 20
12758.436301946371
 11
387.120440578605
 21
12758.436301946371
  0
LINE
  5
AB
100
AcDbEntity
  8
1
  6
CONTINUOUS
 62
           6
100
AcDbLine
 10
389.620440578605
 20
12757.936301946371
 11
389.620440578605
 21
12756.936301946371
  0
LINE
  5
AA
100
AcDbEntity
  8
1
  6
DOT_CENTER
 62
           1
100
AcDbLine
 10
361.620440578605
 20
12792.60756124235
 11
361.620440578605
 21
12774.95670428351
  0
LINE
  5
A9
100
AcDbEntity
  8
1
  6
DOT_CENTER
 62
           1
100
AcDbLine
 10
351.334722584931
 20
12783.936301946371
 11
370.614889416891
 21
12783.936301946371
  0
LINE
  5
A8
100
AcDbEntity
  8
1
  6
DOT_CENTER
 62
           1
100
AcDbLine
 10
340.925242839977
 20
12796.436301946371
 11
358.032996507772
 21
12796.436301946371
  0
LINE
  5
A7
100
AcDbEntity
  8
1
  6
DOT_CENTER
 62
           1
100
AcDbLine
 10
349.120440578605
 20
12803.83169592386
 11
349.120440578605
 21
12787.448079977459
  0
LINE
  5
A6
100
AcDbEntity
  8
1
  6
DOT_CENTER
 62
           1
100
AcDbLine
 10
436.620440578605
 20
12717.406207829739
 11
436.620440578605
 21
12699.82807608023
  0
LINE
  5
A5
100
AcDbEntity
  8
1
  6
DOT_CENTER
 62
           1
100
AcDbLine
 10
449.120440578605
 20
12703.686690366711
 11
449.120440578605
 21
12688.823879781759
  0
LINE
  5
A4
100
AcDbEntity
  8
1
  6
DOT_CENTER
 62
           1
100
AcDbLine
 10
440.759887874623
 20
12696.436301946371
 11
457.051814861971
 21
12696.436301946371
  0
LINE
  5
A3
100
AcDbEntity
  8
1
  6
DOT_CENTER
 62
           1
100
AcDbLine
 10
427.969296073153
 20
12708.936301946371
 11
444.11831142026
 21
12708.936301946371
  0
LINE
  5
A2
100
AcDbEntity
  8
1
  6
DOT_CENTER
 62
           1
100
AcDbLine
 10
355.386610961846
 20
12708.936301946371
 11
368.427750385765
 21
12708.936301946371
  0
LINE
  5
A1
100
AcDbEntity
  8
1
  6
DOT_CENTER
 62
           1
100
AcDbLine
 10
356.778978460976
 20
12712.33630194637
 11
366.148028436886
 21
12712.33630194637
  0
LINE
  5
A0
100
AcDbEntity
  8
1
  6
DOT_CENTER
 62
           1
100
AcDbLine
 10
356.726343348755
 20
12705.536301946369
 11
366.411203998006
 21
12705.536301946369
  0
LINE
  5
9F
100
AcDbEntity
  8
1
  6
DOT_CENTER
 62
           1
100
AcDbLine
 10
361.620440578604
 20
12700.391010285501
 11
361.620440578605
 21
12717.76059731949
  0
LINE
  5
9E
100
AcDbEntity
  8
1
  6
CONTINUOUS
 62
           3
100
AcDbLine
 10
364.220440578605
 20
12712.33630194637
 11
364.220440578605
 21
12705.536301946369
  0
LINE
  5
9D
100
AcDbEntity
  8
1
  6
CONTINUOUS
 62
           3
100
AcDbLine
 10
359.020440578604
 20
12705.536301946369
 11
359.020440578604
 21
12712.33630194637
  0
LINE
  5
9C
100
AcDbEntity
  8
1
  6
CONTINUOUS
 62
           3
100
AcDbLine
 10
346.520440578604
 20
12693.036301946369
 11
346.520440578604
 21
12699.83630194637
  0
LINE
  5
9B
100
AcDbEntity
  8
1
  6
CONTINUOUS
 62
           3
100
AcDbLine
 10
351.720440578605
 20
12699.83630194637
 11
351.720440578605
 21
12693.036301946369
  0
LINE
  5
9A
100
AcDbEntity
  8
1
  6
DOT_CENTER
 62
           1
100
AcDbLine
 10
349.120440578604
 20
12687.891010285501
 11
349.120440578605
 21
12705.26059731949
  0
LINE
  5
99
100
AcDbEntity
  8
1
  6
DOT_CENTER
 62
           1
100
AcDbLine
 10
344.226343348755
 20
12693.036301946369
 11
353.911203998006
 21
12693.036301946369
  0
LINE
  5
98
100
AcDbEntity
  8
1
  6
DOT_CENTER
 62
           1
100
AcDbLine
 10
344.278978460976
 20
12699.83630194637
 11
353.648028436886
 21
12699.83630194637
  0
LINE
  5
97
100
AcDbEntity
  8
1
  6
DOT_CENTER
 62
           1
100
AcDbLine
 10
342.886610961846
 20
12696.436301946371
 11
355.927750385765
 21
12696.436301946371
  0
LINE
  5
96
100
AcDbEntity
  8
1
  6
CONTINUOUS
 62
           3
100
AcDbLine
 10
433.220440578605
 20
12786.536301946369
 11
440.020440578605
 21
12786.536301946369
  0
LINE
  5
95
100
AcDbEntity
  8
1
  6
CONTINUOUS
 62
           3
100
AcDbLine
 10
440.020440578605
 20
12781.33630194637
 11
433.220440578605
 21
12781.33630194637
  0
LINE
  5
94
100
AcDbEntity
  8
1
  6
DOT_CENTER
 62
           1
100
AcDbLine
 10
428.075148917737
 20
12783.936301946371
 11
445.44473595172
 21
12783.936301946371
  0
LINE
  5
93
100
AcDbEntity
  8
1
  6
DOT_CENTER
 62
           1
100
AcDbLine
 10
433.220440578605
 20
12788.83039917622
 11
433.220440578605
 21
12779.145538526969
  0
LINE
  5
92
100
AcDbEntity
  8
1
  6
DOT_CENTER
 62
           1
100
AcDbLine
 10
440.020440578605
 20
12788.777764064
 11
440.020440578605
 21
12779.408714088089
  0
LINE
  5
91
100
AcDbEntity
  8
1
  6
DOT_CENTER
 62
           1
100
AcDbLine
 10
436.620440578605
 20
12790.170131563131
 11
436.620440578605
 21
12777.128992139211
  0
LINE
  5
90
100
AcDbEntity
  8
1
  6
DOT_CENTER
 62
           1
100
AcDbLine
 10
357.212457383833
 20
12788.34428514114
 11
366.433935504886
 21
12779.12280702009
  0
LINE
  5
8F
100
AcDbEntity
  8
1
  6
DOT_CENTER
 62
           1
100
AcDbLine
 10
360.601172940406
 20
12789.76389569664
 11
367.226091711647
 21
12783.1389769254
  0
LINE
  5
8E
100
AcDbEntity
  8
1
  6
DOT_CENTER
 62
           1
100
AcDbLine
 10
355.755628183558
 20
12784.99278822935
 11
362.60385882349
 21
12778.144557589419
  0
LINE
  5
8D
100
AcDbEntity
  8
1
  6
DOT_CENTER
 62
           1
100
AcDbLine
 10
355.578006897988
 20
12777.893868265761
 11
367.860159676127
 21
12790.176021043901
  0
LINE
  5
8C
100
AcDbEntity
  8
1
  6
CONTINUOUS
 62
           3
100
AcDbLine
 10
365.863081265724
 20
12784.501987371321
 11
361.054755153656
 21
12779.693661259251
  0
LINE
  5
8B
100
AcDbEntity
  8
1
  6
CONTINUOUS
 62
           3
100
AcDbLine
 10
357.377799891486
 20
12783.37061652143
 11
362.186126003554
 21
12788.178942633491
  0
LINE
  5
8A
100
AcDbEntity
  8
1
  6
CONTINUOUS
 62
           3
100
AcDbLine
 10
344.877799891486
 20
12795.87061652143
 11
349.686126003554
 21
12800.678942633491
  0
LINE
  5
89
100
AcDbEntity
  8
1
  6
CONTINUOUS
 62
           3
100
AcDbLine
 10
353.363081265724
 20
12797.001987371321
 11
348.554755153656
 21
12792.193661259251
  0
LINE
  5
88
100
AcDbEntity
  8
1
  6
DOT_CENTER
 62
           1
100
AcDbLine
 10
343.078006897988
 20
12790.393868265761
 11
355.360159676127
 21
12802.676021043901
  0
LINE
  5
87
100
AcDbEntity
  8
1
  6
DOT_CENTER
 62
           1
100
AcDbLine
 10
343.255628183558
 20
12797.49278822935
 11
350.10385882349
 21
12790.644557589419
  0
LINE
  5
86
100
AcDbEntity
  8
1
  6
DOT_CENTER
 62
           1
100
AcDbLine
 10
348.101172940406
 20
12802.26389569664
 11
354.726091711647
 21
12795.6389769254
  0
LINE
  5
85
100
AcDbEntity
  8
1
  6
DOT_CENTER
 62
           1
100
AcDbLine
 10
344.712457383833
 20
12800.84428514114
 11
353.933935504886
 21
12791.62280702009
  0
LINE
  5
84
100
AcDbEntity
  8
1
  6
DOT_CENTER
 62
           1
100
AcDbLine
 10
449.120440578605
 20
12802.670131563131
 11
449.120440578605
 21
12789.628992139211
  0
LINE
  5
83
100
AcDbEntity
  8
1
  6
DOT_CENTER
 62
           1
100
AcDbLine
 10
452.520440578605
 20
12801.277764064
 11
452.520440578605
 21
12791.908714088089
  0
LINE
  5
82
100
AcDbEntity
  8
1
  6
DOT_CENTER
 62
           1
100
AcDbLine
 10
445.720440578605
 20
12801.33039917622
 11
445.720440578605
 21
12791.645538526969
  0
LINE
  5
81
100
AcDbEntity
  8
1
  6
DOT_CENTER
 62
           1
100
AcDbLine
 10
440.575148917737
 20
12796.436301946371
 11
457.94473595172
 21
12796.436301946371
  0
LINE
  5
80
100
AcDbEntity
  8
1
  6
CONTINUOUS
 62
           3
100
AcDbLine
 10
452.520440578605
 20
12793.83630194637
 11
445.720440578605
 21
12793.83630194637
  0
LINE
  5
7F
100
AcDbEntity
  8
1
  6
CONTINUOUS
 62
           3
100
AcDbLine
 10
445.720440578605
 20
12799.036301946369
 11
452.520440578605
 21
12799.036301946369
  0
LINE
  5
7E
100
AcDbEntity
  8
1
  6
CONTINUOUS
 62
           3
100
AcDbLine
 10
430.869641040483
 20
12752.086461853991
 11
457.371240116727
 21
12790.786142038751
  0
LINE
  5
7D
100
AcDbEntity
  8
1
  6
CONTINUOUS
 62
           3
100
AcDbLine
 10
457.371240116727
 20
12702.086461853991
 11
430.869641040483
 21
12740.786142038751
  0
LINE
  5
7C
100
AcDbEntity
  8
1
  6
CONTINUOUS
 62
           3
100
AcDbLine
 10
404.77060048623
 20
12714.6871014845
 11
443.470280670981
 21
12688.185502408251
  0
LINE
  5
7B
100
AcDbEntity
  8
1
  6
CONTINUOUS
 62
           3
100
AcDbLine
 10
354.77060048623
 20
12688.185502408251
 11
393.470280670981
 21
12714.6871014845
  0
LINE
  5
7A
100
AcDbEntity
  8
1
  6
CONTINUOUS
 62
           3
100
AcDbLine
 10
367.371240116727
 20
12740.786142038751
 11
340.869641040483
 21
12702.086461853991
  0
LINE
  5
79
100
AcDbEntity
  8
1
  6
CONTINUOUS
 62
           3
100
AcDbLine
 10
340.869641040483
 20
12790.786142038751
 11
367.371240116727
 21
12752.086461853991
  0
LINE
  5
78
100
AcDbEntity
  8
1
  6
CONTINUOUS
 62
           3
100
AcDbLine
 10
393.470280670981
 20
12778.185502408251
 11
354.77060048623
 21
12804.6871014845
  0
LINE
  5
77
100
AcDbEntity
  8
1
  6
CONTINUOUS
 62
           3
100
AcDbLine
 10
443.470280670981
 20
12804.6871014845
 11
404.77060048623
 21
12778.185502408251
  0
LINE
  5
76
100
AcDbEntity
  8
1
  6
CONTINUOUS
 62
           6
100
AcDbLine
 10
1028.768668200399
 20
12716.936301946371
 11
1027.768668200399
 21
12716.936301946371
  0
LINE
  5
75
100
AcDbEntity
  8
1
  6
CONTINUOUS
 62
           6
100
AcDbLine
 10
1028.768668200399
 20
12717.936301946371
 11
1028.768668200399
 21
12716.936301946371
  0
LINE
  5
74
100
AcDbEntity
  8
1
  6
CONTINUOUS
 62
           6
100
AcDbLine
 10
1027.768668200399
 20
12720.936301946371
 11
1028.768668200399
 21
12720.936301946371
  0
LINE
  5
73
100
AcDbEntity
  8
1
  6
CONTINUOUS
 62
           6
100
AcDbLine
 10
1027.768668200399
 20
12719.936301946371
 11
1027.768668200399
 21
12720.936301946371
  0
LINE
  5
72
100
AcDbEntity
  8
1
  6
CONTINUOUS
 62
           6
100
AcDbLine
 10
1027.268668200399
 20
12718.436301946371
 11
1026.268668200399
 21
12718.436301946371
  0
LINE
  5
71
100
AcDbEntity
  8
1
  6
CONTINUOUS
 62
           6
100
AcDbLine
 10
1030.268668200399
 20
12719.436301946371
 11
1030.268668200399
 21
12718.436301946371
  0
LINE
  5
70
100
AcDbEntity
  8
1
  6
CONTINUOUS
 62
           6
100
AcDbLine
 10
1029.268668200399
 20
12719.436301946371
 11
1030.268668200399
 21
12719.436301946371
  0
LINE
  5
6F
100
AcDbEntity
  8
1
  6
CONTINUOUS
 62
           6
100
AcDbLine
 10
1026.268668200399
 20
12718.436301946371
 11
1026.268668200399
 21
12719.436301946371
  0
LINE
  5
6E
100
AcDbEntity
  8
1
  6
CONTINUOUS
 62
           6
100
AcDbLine
 10
1027.768668200399
 20
12716.936301946371
 11
1027.768668200399
 21
12717.936301946371
  0
LINE
  5
6D
100
AcDbEntity
  8
1
  6
CONTINUOUS
 62
           6
100
AcDbLine
 10
1030.268668200399
 20
12718.436301946371
 11
1029.268668200399
 21
12718.436301946371
  0
LINE
  5
6C
100
AcDbEntity
  8
1
  6
CONTINUOUS
 62
           6
100
AcDbLine
 10
1026.268668200399
 20
12719.436301946371
 11
1027.268668200399
 21
12719.436301946371
  0
LINE
  5
6B
100
AcDbEntity
  8
1
  6
CONTINUOUS
 62
           6
100
AcDbLine
 10
1028.768668200399
 20
12720.936301946371
 11
1028.768668200399
 21
12719.936301946371
  0
LINE
  5
6A
100
AcDbEntity
  8
1
  6
CONTINUOUS
 62
           6
100
AcDbLine
 10
1057.768668200399
 20
12719.936301946371
 11
1057.768668200399
 21
12720.936301946371
  0
LINE
  5
69
100
AcDbEntity
  8
1
  6
CONTINUOUS
 62
           6
100
AcDbLine
 10
1059.268668200399
 20
12719.436301946371
 11
1060.268668200399
 21
12719.436301946371
  0
LINE
  5
68
100
AcDbEntity
  8
1
  6
CONTINUOUS
 62
           6
100
AcDbLine
 10
1057.268668200399
 20
12718.436301946371
 11
1056.268668200399
 21
12718.436301946371
  0
LINE
  5
67
100
AcDbEntity
  8
1
  6
CONTINUOUS
 62
           6
100
AcDbLine
 10
1058.768668200399
 20
12717.936301946371
 11
1058.768668200399
 21
12716.936301946371
  0
LINE
  5
66
100
AcDbEntity
  8
1
  6
CONTINUOUS
 62
           6
100
AcDbLine
 10
1060.268668200399
 20
12719.436301946371
 11
1060.268668200399
 21
12718.436301946371
  0
LINE
  5
65
100
AcDbEntity
  8
1
  6
CONTINUOUS
 62
           6
100
AcDbLine
 10
1056.268668200399
 20
12719.436301946371
 11
1057.268668200399
 21
12719.436301946371
  0
LINE
  5
64
100
AcDbEntity
  8
1
  6
CONTINUOUS
 62
           6
100
AcDbLine
 10
1056.268668200399
 20
12718.436301946371
 11
1056.268668200399
 21
12719.436301946371
  0
LINE
  5
63
100
AcDbEntity
  8
1
  6
CONTINUOUS
 62
           6
100
AcDbLine
 10
1060.268668200399
 20
12718.436301946371
 11
1059.268668200399
 21
12718.436301946371
  0
LINE
  5
62
100
AcDbEntity
  8
1
  6
CONTINUOUS
 62
           6
100
AcDbLine
 10
1058.768668200399
 20
12720.936301946371
 11
1058.768668200399
 21
12719.936301946371
  0
LINE
  5
61
100
AcDbEntity
  8
1
  6
CONTINUOUS
 62
           6
100
AcDbLine
 10
1057.768668200399
 20
12720.936301946371
 11
1058.768668200399
 21
12720.936301946371
  0
LINE
  5
60
100
AcDbEntity
  8
1
  6
CONTINUOUS
 62
           6
100
AcDbLine
 10
1057.768668200399
 20
12716.936301946371
 11
1057.768668200399
 21
12717.936301946371
  0
LINE
  5
5F
100
AcDbEntity
  8
1
  6
CONTINUOUS
 62
           6
100
AcDbLine
 10
1058.768668200399
 20
12716.936301946371
 11
1057.768668200399
 21
12716.936301946371
  0
LINE
  5
5E
100
AcDbEntity
  8
1
  6
CONTINUOUS
 62
           6
100
AcDbLine
 10
1057.768668200399
 20
12775.936301946371
 11
1058.768668200399
 21
12775.936301946371
  0
LINE
  5
5D
100
AcDbEntity
  8
1
  6
CONTINUOUS
 62
           6
100
AcDbLine
 10
1057.768668200399
 20
12774.936301946371
 11
1057.768668200399
 21
12775.936301946371
  0
LINE
  5
5C
100
AcDbEntity
  8
1
  6
CONTINUOUS
 62
           6
100
AcDbLine
 10
1058.768668200399
 20
12771.936301946371
 11
1057.768668200399
 21
12771.936301946371
  0
LINE
  5
5B
100
AcDbEntity
  8
1
  6
CONTINUOUS
 62
           6
100
AcDbLine
 10
1058.768668200399
 20
12772.936301946371
 11
1058.768668200399
 21
12771.936301946371
  0
LINE
  5
5A
100
AcDbEntity
  8
1
  6
CONTINUOUS
 62
           6
100
AcDbLine
 10
1059.268668200399
 20
12774.436301946371
 11
1060.268668200399
 21
12774.436301946371
  0
LINE
  5
59
100
AcDbEntity
  8
1
  6
CONTINUOUS
 62
           6
100
AcDbLine
 10
1056.268668200399
 20
12773.436301946371
 11
1056.268668200399
 21
12774.436301946371
  0
LINE
  5
58
100
AcDbEntity
  8
1
  6
CONTINUOUS
 62
           6
100
AcDbLine
 10
1057.268668200399
 20
12773.436301946371
 11
1056.268668200399
 21
12773.436301946371
  0
LINE
  5
57
100
AcDbEntity
  8
1
  6
CONTINUOUS
 62
           6
100
AcDbLine
 10
1060.268668200399
 20
12774.436301946371
 11
1060.268668200399
 21
12773.436301946371
  0
LINE
  5
56
100
AcDbEntity
  8
1
  6
CONTINUOUS
 62
           6
100
AcDbLine
 10
1058.768668200399
 20
12775.936301946371
 11
1058.768668200399
 21
12774.936301946371
  0
LINE
  5
55
100
AcDbEntity
  8
1
  6
CONTINUOUS
 62
           6
100
AcDbLine
 10
1056.268668200399
 20
12774.436301946371
 11
1057.268668200399
 21
12774.436301946371
  0
LINE
  5
54
100
AcDbEntity
  8
1
  6
CONTINUOUS
 62
           6
100
AcDbLine
 10
1060.268668200399
 20
12773.436301946371
 11
1059.268668200399
 21
12773.436301946371
  0
LINE
  5
53
100
AcDbEntity
  8
1
  6
CONTINUOUS
 62
           6
100
AcDbLine
 10
1057.768668200399
 20
12771.936301946371
 11
1057.768668200399
 21
12772.936301946371
  0
LINE
  5
52
100
AcDbEntity
  8
1
  6
CONTINUOUS
 62
           6
100
AcDbLine
 10
1028.768668200399
 20
12772.936301946371
 11
1028.768668200399
 21
12771.936301946371
  0
LINE
  5
51
100
AcDbEntity
  8
1
  6
CONTINUOUS
 62
           6
100
AcDbLine
 10
1027.268668200399
 20
12773.436301946371
 11
1026.268668200399
 21
12773.436301946371
  0
LINE
  5
50
100
AcDbEntity
  8
1
  6
CONTINUOUS
 62
           6
100
AcDbLine
 10
1029.268668200399
 20
12774.436301946371
 11
1030.268668200399
 21
12774.436301946371
  0
LINE
  5
4F
100
AcDbEntity
  8
1
  6
CONTINUOUS
 62
           6
100
AcDbLine
 10
1027.768668200399
 20
12774.936301946371
 11
1027.768668200399
 21
12775.936301946371
  0
LINE
  5
4E
100
AcDbEntity
  8
1
  6
CONTINUOUS
 62
           6
100
AcDbLine
 10
1026.268668200399
 20
12773.436301946371
 11
1026.268668200399
 21
12774.436301946371
  0
LINE
  5
4D
100
AcDbEntity
  8
1
  6
CONTINUOUS
 62
           6
100
AcDbLine
 10
1030.268668200399
 20
12773.436301946371
 11
1029.268668200399
 21
12773.436301946371
  0
LINE
  5
4C
100
AcDbEntity
  8
1
  6
CONTINUOUS
 62
           6
100
AcDbLine
 10
1030.268668200399
 20
12774.436301946371
 11
1030.268668200399
 21
12773.436301946371
  0
LINE
  5
4B
100
AcDbEntity
  8
1
  6
CONTINUOUS
 62
           6
100
AcDbLine
 10
1026.268668200399
 20
12774.436301946371
 11
1027.268668200399
 21
12774.436301946371
  0
LINE
  5
4A
100
AcDbEntity
  8
1
  6
CONTINUOUS
 62
           6
100
AcDbLine
 10
1027.768668200399
 20
12771.936301946371
 11
1027.768668200399
 21
12772.936301946371
  0
LINE
  5
49
100
AcDbEntity
  8
1
  6
CONTINUOUS
 62
           6
100
AcDbLine
 10
1028.768668200399
 20
12771.936301946371
 11
1027.768668200399
 21
12771.936301946371
  0
LINE
  5
48
100
AcDbEntity
  8
1
  6
CONTINUOUS
 62
           6
100
AcDbLine
 10
1028.768668200399
 20
12775.936301946371
 11
1028.768668200399
 21
12774.936301946371
  0
LINE
  5
47
100
AcDbEntity
  8
1
  6
CONTINUOUS
 62
           6
100
AcDbLine
 10
1027.768668200399
 20
12775.936301946371
 11
1028.768668200399
 21
12775.936301946371
  0
LINE
  5
46
100
AcDbEntity
  8
1
  6
DOT_CENTER
 62
           1
100
AcDbLine
 10
1043.268668200399
 20
12818.22437254041
 11
1043.268668200399
 21
12673.182399131691
  0
LINE
  5
45
100
AcDbEntity
  8
1
  6
DOT_CENTER
 62
           1
100
AcDbLine
 10
987.58813731083
 20
12746.436301946371
 11
1102.218084037078
 21
12746.436301946371
  0
LINE
  5
44
100
AcDbEntity
  8
1
  6
DOT_CENTER
 62
           1
100
AcDbLine
 10
1008.268668200399
 20
12704.02329938571
 11
1008.268668200399
 21
12689.068301336631
  0
LINE
  5
43
100
AcDbEntity
  8
1
  6
DOT_CENTER
 62
           1
100
AcDbLine
 10
1015.841326098763
 20
12696.436301946371
 11
1000.765723226704
 21
12696.436301946371
  0
LINE
  5
42
100
AcDbEntity
  8
1
  6
DOT_CENTER
 62
           1
100
AcDbLine
 10
1085.771613174095
 20
12696.436301946371
 11
1070.696010302035
 21
12696.436301946371
  0
LINE
  5
41
100
AcDbEntity
  8
1
  6
DOT_CENTER
 62
           1
100
AcDbLine
 10
1078.268668200399
 20
12689.068301336631
 11
1078.268668200399
 21
12704.02329938571
  0
LINE
  5
40
100
AcDbEntity
  8
1
  6
DOT_CENTER
 62
           1
100
AcDbLine
 10
1078.268668200399
 20
12788.84930450703
 11
1078.268668200399
 21
12803.804302556109
  0
LINE
  5
3F
100
AcDbEntity
  8
1
  6
DOT_CENTER
 62
           1
100
AcDbLine
 10
1070.696010302035
 20
12796.436301946371
 11
1085.771613174095
 21
12796.436301946371
  0
LINE
  5
3E
100
AcDbEntity
  8
1
  6
DOT_CENTER
 62
           1
100
AcDbLine
 10
1000.765723226704
 20
12796.436301946371
 11
1015.841326098763
 21
12796.436301946371
  0
LINE
  5
3D
100
AcDbEntity
  8
1
  6
DOT_CENTER
 62
           1
100
AcDbLine
 10
1008.268668200399
 20
12803.804302556109
 11
1008.268668200399
 21
12788.84930450703
  0
LINE
  5
3C
100
AcDbEntity
  8
1
  6
CONTINUOUS
 62
           3
100
AcDbLine
 10
995.768668200399
 20
12687.936301946371
 11
995.768668200399
 21
12804.936301946371
  0
LINE
  5
3B
100
AcDbEntity
  8
1
  6
CONTINUOUS
 62
           3
100
AcDbLine
 10
1086.768668200399
 20
12683.936301946371
 11
999.768668200399
 21
12683.936301946371
  0
LINE
  5
3A
100
AcDbEntity
  8
1
  6
CONTINUOUS
 62
           3
100
AcDbLine
 10
1090.768668200399
 20
12804.936301946371
 11
1090.768668200399
 21
12687.936301946371
  0
LINE
  5
39
100
AcDbEntity
  8
1
  6
CONTINUOUS
 62
           3
100
AcDbLine
 10
999.768668200399
 20
12808.936301946371
 11
1086.768668200399
 21
12808.936301946371
  0
LINE
  5
38
100
AcDbEntity
  8
1
  6
DOT_CENTER
 62
           1
100
AcDbLine
 10
587.409005052097
 20
12761.436301946371
 11
587.409005052097
 21
12714.869121098811
  0
LINE
  5
37
100
AcDbEntity
  8
1
  6
CONTINUOUS
 62
           3
100
AcDbLine
 10
618.409005052097
 20
12731.436301946371
 11
618.409005052097
 21
12723.936301946371
  0
LINE
  5
36
100
AcDbEntity
  8
1
  6
CONTINUOUS
 62
           3
100
AcDbLine
 10
608.409005052097
 20
12731.436301946371
 11
608.409005052097
 21
12735.436301946371
  0
LINE
  5
35
100
AcDbEntity
  8
1
  6
CONTINUOUS
 62
           3
100
AcDbLine
 10
713.659005052097
 20
12723.936301946371
 11
618.409005052097
 21
12723.936301946371
  0
LINE
  5
34
100
AcDbEntity
  8
1
  6
CONTINUOUS
 62
           3
100
AcDbLine
 10
608.409005052097
 20
12723.936301946371
 11
582.409005052097
 21
12723.936301946371
  0
LINE
  5
33
100
AcDbEntity
  8
1
  6
CONTINUOUS
 62
           3
100
AcDbLine
 10
618.409005052097
 20
12723.936301946371
 11
618.409005052097
 21
12701.436301946371
  0
LINE
  5
32
100
AcDbEntity
  8
1
  6
CONTINUOUS
 62
           3
100
AcDbLine
 10
608.409005052097
 20
12723.936301946371
 11
608.409005052097
 21
12731.436301946371
  0
LINE
  5
31
100
AcDbEntity
  8
1
  6
DOTTED
 62
           1
100
AcDbLine
 10
618.409005052097
 20
12723.936301946371
 11
608.409005052097
 21
12723.936301946371
  0
LINE
  5
30
100
AcDbEntity
  8
1
  6
CONTINUOUS
 62
           3
100
AcDbLine
 10
649.409005052097
 20
12756.936301946371
 11
670.409005052097
 21
12756.936301946371
  0
LINE
  5
2F
100
AcDbEntity
  8
1
  6
CONTINUOUS
 62
           3
100
AcDbLine
 10
673.409005052097
 20
12753.936301946371
 11
673.409005052097
 21
12738.936301946371
  0
LINE
  5
2E
100
AcDbEntity
  8
1
  6
CONTINUOUS
 62
           3
100
AcDbLine
 10
670.409005052097
 20
12735.936301946371
 11
649.409005052097
 21
12735.936301946371
  0
LINE
  5
2D
100
AcDbEntity
  8
1
  6
CONTINUOUS
 62
           3
100
AcDbLine
 10
646.409005052097
 20
12738.936301946371
 11
646.409005052097
 21
12753.936301946371
  0
LINE
  5
2C
100
AcDbEntity
  8
1
  6
CONTINUOUS
 62
           3
100
AcDbLine
 10
614.409005052097
 20
12756.936301946371
 11
635.409005052097
 21
12756.936301946371
  0
LINE
  5
2B
100
AcDbEntity
  8
1
  6
CONTINUOUS
 62
           3
100
AcDbLine
 10
638.409005052097
 20
12753.936301946371
 11
638.409005052097
 21
12738.936301946371
  0
LINE
  5
2A
100
AcDbEntity
  8
1
  6
CONTINUOUS
 62
           3
100
AcDbLine
 10
635.409005052097
 20
12735.936301946371
 11
614.409005052097
 21
12735.936301946371
  0
LINE
  5
29
100
AcDbEntity
  8
1
  6
CONTINUOUS
 62
           3
100
AcDbLine
 10
611.409005052097
 20
12738.936301946371
 11
611.409005052097
 21
12753.936301946371
  0
LINE
  5
28
100
AcDbEntity
  8
1
  6
DOT_CENTER
 62
           1
100
AcDbLine
 10
927.100989452319
 20
12885.34684870146
 11
510.792661019929
 21
12885.34684870146
  0
ENDSEC
  0
SECTION
  2
OBJECTS
  0
DICTIONARY
  5
19
100
AcDbDictionary
  3
ACAD_GROUP
350
1A
  3
ACAD_MLINESTYLE
350
1B
  0
DICTIONARY
  5
1A
102
{ACAD_REACTORS
330
19
102
}
100
AcDbDictionary
  0
DICTIONARY
  5
1B
102
{ACAD_REACTORS
330
19
102
}
100
AcDbDictionary
  3
STANDARD
350
1C
  0
MLINESTYLE
  5
1C
102
{ACAD_REACTORS
330
1B
102
}
100
AcDbMlineStyle
  2
STANDARD
 70
           0
  3

 62
           0
 51
90.0
 52
90.0
 71
           2
 49
0.5
 62
         256
  6
BYLAYER
 49
-0.5
 62
         256
  6
BYLAYER
  0
ENDSEC
  0
EOF
