  0
SECTION
  2
HEADER
  9
$ACADVER
  1
AC1015
  9
$ACADMAINTVER
 70
    20
  9
$DWGCODEPAGE
  3
ANSI_932
  9
$INSBASE
 10
0.0
 20
0.0
 30
0.0
  9
$EXTMIN
 10
100.265787413669
 20
744.9275327611539
 30
0.0
  9
$EXTMAX
 10
567.576417628013
 20
1053.598604705145
 30
0.0
  9
$LIMMIN
 10
0.0
 20
0.0
  9
$LIMMAX
 10
0.0
 20
0.0
  9
$ORTHOMODE
 70
     0
  9
$REGENMODE
 70
     1
  9
$FILLMODE
 70
     1
  9
$QTEXTMODE
 70
     0
  9
$MIRRTEXT
 70
     1
  9
$LTSCALE
 40
1.0
  9
$ATTMODE
 70
     1
  9
$TEXTSIZE
 40
0.0
  9
$TRACEWID
 40
0.05
  9
$TEXTSTYLE
  7
STANDARD
  9
$CLAYER
  8
0
  9
$CELTYPE
  6
CONTINUOUS
  9
$CECOLOR
 62
   256
  9
$CELTSCALE
 40
1.0
  9
$DISPSILH
 70
     0
  9
$DIMSCALE
 40
1.0
  9
$DIMASZ
 40
0.18
  9
$DIMEXO
 40
0.0625
  9
$DIMDLI
 40
0.38
  9
$DIMRND
 40
0.0
  9
$DIMDLE
 40
0.0
  9
$DIMEXE
 40
0.18
  9
$DIMTP
 40
0.0
  9
$DIMTM
 40
0.0
  9
$DIMTXT
 40
0.18
  9
$DIMCEN
 40
0.09
  9
$DIMTSZ
 40
0.0
  9
$DIMTOL
 70
     0
  9
$DIMLIM
 70
     0
  9
$DIMTIH
 70
     1
  9
$DIMTOH
 70
     1
  9
$DIMSE1
 70
     0
  9
$DIMSE2
 70
     0
  9
$DIMTAD
 70
     0
  9
$DIMZIN
 70
     0
  9
$DIMBLK
  1

  9
$DIMASO
 70
     1
  9
$DIMSHO
 70
     1
  9
$DIMPOST
  1

  9
$DIMAPOST
  1

  9
$DIMALT
 70
     0
  9
$DIMALTD
 70
     2
  9
$DIMALTF
 40
25.4
  9
$DIMLFAC
 40
1.0
  9
$DIMTOFL
 70
     0
  9
$DIMTVP
 40
0.0
  9
$DIMTIX
 70
     0
  9
$DIMSOXD
 70
     0
  9
$DIMSAH
 70
     0
  9
$DIMBLK1
  1

  9
$DIMBLK2
  1

  9
$DIMSTYLE
  2
STANDARD
  9
$DIMCLRD
 70
     0
  9
$DIMCLRE
 70
     0
  9
$DIMCLRT
 70
     0
  9
$DIMTFAC
 40
1.0
  9
$DIMGAP
 40
0.09
  9
$DIMJUST
 70
     0
  9
$DIMSD1
 70
     0
  9
$DIMSD2
 70
     0
  9
$DIMTOLJ
 70
     1
  9
$DIMTZIN
 70
     0
  9
$DIMALTZ
 70
     0
  9
$DIMALTTZ
 70
     0
  9
$DIMUPT
 70
     0
  9
$DIMDEC
 70
     4
  9
$DIMTDEC
 70
     4
  9
$DIMALTU
 70
     2
  9
$DIMALTTD
 70
     2
  9
$DIMTXSTY
  7
STANDARD
  9
$DIMAUNIT
 70
     0
  9
$DIMADEC
 70
     0
  9
$DIMALTRND
 40
0.0
  9
$DIMAZIN
 70
     0
  9
$DIMDSEP
 70
    46
  9
$DIMATFIT
 70
     3
  9
$DIMFRAC
 70
     0
  9
$DIMLDRBLK
  1

  9
$DIMLUNIT
 70
     2
  9
$DIMLWD
 70
    -2
  9
$DIMLWE
 70
    -2
  9
$DIMTMOVE
 70
     0
  9
$LUNITS
 70
     2
  9
$LUPREC
 70
     2
  9
$SKETCHINC
 40
0.1
  9
$FILLETRAD
 40
0.0
  9
$AUNITS
 70
     0
  9
$AUPREC
 70
     0
  9
$MENU
  1
acad
  9
$ELEVATION
 40
0.0
  9
$PELEVATION
 40
0.0
  9
$THICKNESS
 40
0.0
  9
$LIMCHECK
 70
     0
  9
$CHAMFERA
 40
0.0
  9
$CHAMFERB
 40
0.0
  9
$CHAMFERC
 40
0.0
  9
$CHAMFERD
 40
0.0
  9
$SKPOLY
 70
     0
  9
$TDCREATE
 40
2305814.417176053
  9
$TDUCREATE
 40
6.0000000000
  9
$TDUPDATE
 40
2458226.606102986
  9
$TDUUPDATE
 40
2458226.231102987
  9
$TDINDWG
 40
0.0016430440
  9
$TDUSRTIMER
 40
0.0016428704
  9
$USRTIMER
 70
     1
  9
$ANGBASE
 50
0.0
  9
$ANGDIR
 70
     0
  9
$PDMODE
 70
     0
  9
$PDSIZE
 40
0.0
  9
$PLINEWID
 40
0.0
  9
$SPLFRAME
 70
     0
  9
$SPLINETYPE
 70
     6
  9
$SPLINESEGS
 70
     8
  9
$HANDSEED
  5
25E
  9
$SURFTAB1
 70
     6
  9
$SURFTAB2
 70
     6
  9
$SURFTYPE
 70
     6
  9
$SURFU
 70
     6
  9
$SURFV
 70
     6
  9
$UCSBASE
  2

  9
$UCSNAME
  2

  9
$UCSORG
 10
0.0
 20
0.0
 30
0.0
  9
$UCSXDIR
 10
1.0
 20
0.0
 30
0.0
  9
$UCSYDIR
 10
0.0
 20
1.0
 30
0.0
  9
$UCSORTHOREF
  2

  9
$UCSORTHOVIEW
 70
     0
  9
$UCSORGTOP
 10
0.0
 20
0.0
 30
0.0
  9
$UCSORGBOTTOM
 10
0.0
 20
0.0
 30
0.0
  9
$UCSORGLEFT
 10
0.0
 20
0.0
 30
0.0
  9
$UCSORGRIGHT
 10
0.0
 20
0.0
 30
0.0
  9
$UCSORGFRONT
 10
0.0
 20
0.0
 30
0.0
  9
$UCSORGBACK
 10
0.0
 20
0.0
 30
0.0
  9
$PUCSBASE
  2

  9
$PUCSNAME
  2

  9
$PUCSORG
 10
0.0
 20
0.0
 30
0.0
  9
$PUCSXDIR
 10
1.0
 20
0.0
 30
0.0
  9
$PUCSYDIR
 10
0.0
 20
1.0
 30
0.0
  9
$PUCSORTHOREF
  2

  9
$PUCSORTHOVIEW
 70
     0
  9
$PUCSORGTOP
 10
0.0
 20
0.0
 30
0.0
  9
$PUCSORGBOTTOM
 10
0.0
 20
0.0
 30
0.0
  9
$PUCSORGLEFT
 10
0.0
 20
0.0
 30
0.0
  9
$PUCSORGRIGHT
 10
0.0
 20
0.0
 30
0.0
  9
$PUCSORGFRONT
 10
0.0
 20
0.0
 30
0.0
  9
$PUCSORGBACK
 10
0.0
 20
0.0
 30
0.0
  9
$USERI1
 70
     0
  9
$USERI2
 70
     0
  9
$USERI3
 70
     0
  9
$USERI4
 70
     0
  9
$USERI5
 70
     0
  9
$USERR1
 40
0.0
  9
$USERR2
 40
0.0
  9
$USERR3
 40
0.0
  9
$USERR4
 40
0.0
  9
$USERR5
 40
0.0
  9
$WORLDVIEW
 70
     1
  9
$SHADEDGE
 70
     3
  9
$SHADEDIF
 70
    70
  9
$TILEMODE
 70
     1
  9
$MAXACTVP
 70
    16
  9
$PINSBASE
 10
0.0
 20
0.0
 30
0.0
  9
$PLIMCHECK
 70
     0
  9
$PEXTMIN
 10
1.000000000000000E+20
 20
1.000000000000000E+20
 30
1.000000000000000E+20
  9
$PEXTMAX
 10
-1.000000000000000E+20
 20
-1.000000000000000E+20
 30
-1.000000000000000E+20
  9
$PLIMMIN
 10
0.0
 20
0.0
  9
$PLIMMAX
 10
12.0
 20
9.0
  9
$UNITMODE
 70
     0
  9
$VISRETAIN
 70
     0
  9
$PLINEGEN
 70
     1
  9
$PSLTSCALE
 70
     0
  9
$TREEDEPTH
 70
  3020
  9
$CMLSTYLE
  2
STANDARD
  9
$CMLJUST
 70
     0
  9
$CMLSCALE
 40
1.0
  9
$PROXYGRAPHICS
 70
     0
  9
$MEASUREMENT
 70
     1
  9
$CELWEIGHT
370
    -1
  9
$ENDCAPS
280
     0
  9
$JOINSTYLE
280
     0
  9
$LWDISPLAY
290
     0
  9
$INSUNITS
 70
     0
  9
$HYPERLINKBASE
  1

  9
$STYLESHEET
  1

  9
$XEDIT
290
     1
  9
$CEPSNTYPE
380
     0
  9
$PSTYLEMODE
290
     1
  9
$FINGERPRINTGUID
  2
{D890E486-BC39-43A9-85E9-609C869FDF37}
  9
$VERSIONGUID
  2
{6D9182D2-B7A3-4673-821C-9EEF01CCE940}
  9
$EXTNAMES
290
     1
  9
$PSVPSCALE
 40
0.0
  9
$OLESTARTUP
290
     0
  0
ENDSEC
  0
SECTION
  2
CLASSES
  0
CLASS
  1
IMAGE
  2
AcDbRasterImage
  3
ISM
 90
    32895
280
     0
281
     1
  0
CLASS
  1
DICTIONARYVAR
  2
AcDbDictionaryVar
  3
ObjectDBX Classes
 90
        0
280
     0
281
     0
  0
CLASS
  1
RASTERVARIABLES
  2
AcDbRasterVariables
  3
ISM
 90
    32768
280
     0
281
     0
  0
CLASS
  1
IMAGEDEF
  2
AcDbRasterImageDef
  3
ISM
 90
    32768
280
     0
281
     0
  0
CLASS
  1
IMAGEDEF_REACTOR
  2
AcDbRasterImageDefReactor
  3
ISM
 90
    32769
280
     0
281
     0
  0
CLASS
  1
IDBUFFER
  2
AcDbIdBuffer
  3
ObjectDBX Classes
 90
        0
280
     0
281
     0
  0
CLASS
  1
SPATIAL_FILTER
  2
AcDbSpatialFilter
  3
ObjectDBX Classes
 90
    32768
280
     0
281
     0
  0
CLASS
  1
SORTENTSTABLE
  2
AcDbSortentsTable
  3
ObjectDBX Classes
 90
    32768
280
     0
281
     0
  0
CLASS
  1
LAYER_INDEX
  2
AcDbLayerIndex
  3
ObjectDBX Classes
 90
        0
280
     0
281
     0
  0
CLASS
  1
SPATIAL_INDEX
  2
AcDbSpatialIndex
  3
ObjectDBX Classes
 90
    32768
280
     0
281
     0
  0
CLASS
  1
OBJECT_PTR
  2
CAseDLPNTableRecord
  3
ASE-LPNTableRecord
 90
    32769
280
     0
281
     0
  0
CLASS
  1
LAYOUT
  2
AcDbLayout
  3
ObjectDBX Classes
 90
        0
280
     0
281
     0
  0
CLASS
  1
PLOTSETTINGS
  2
AcDbPlotSettings
  3
ObjectDBX Classes
 90
    32768
280
     0
281
     0
  0
CLASS
  1
ACDBDICTIONARYWDFLT
  2
AcDbDictionaryWithDefault
  3
ObjectDBX Classes
 90
        0
280
     0
281
     0
  0
CLASS
  1
ACDBPLACEHOLDER
  2
AcDbPlaceHolder
  3
ObjectDBX Classes
 90
        0
280
     0
281
     0
  0
CLASS
  1
VBA_PROJECT
  2
AcDbVbaProject
  3
acad
 90
    32768
280
     0
281
     0
  0
CLASS
  1
WIPEOUT
  2
AcDbWipeout
  3
"WipeOut|Product Desc: Object Enabler for WipeOut entity^I^I^I^I^I^I|Company: Autodesk, Inc.^I^I^I^I^I^I|WEB Address: www.autodesk.com"
 90
    32895
280
     0
281
     1
  0
CLASS
  1
WIPEOUTVARIABLES
  2
AcDbWipeoutVariables
  3
"WipeOut|Product Desc:     WipeOut Dbx Application|Company:          Autodesk, Inc.|WEB Address:      www.autodesk.com"
 90
    32768
280
     0
281
     0
  0
CLASS
  1
RTEXT
  2
RText
  3
RText|AutoCAD Express Tool|expresstools@autodesk.com
 90
    32768
280
     0
281
     1
  0
CLASS
  1
ARCALIGNEDTEXT
  2
AcDbArcAlignedText
  3
ATEXT|AutoCAD Express Tool|expresstools@autodesk.com
 90
    32768
280
     0
281
     1
  0
CLASS
  1
TABLESTYLE
  2
AcDbTableStyle
  3
ObjectDBX Classes
 90
     2047
280
     0
281
     0
  0
CLASS
  1
AMGSETTINGSOBJ
  2
AmgSettingsObj
  3
"AcadM|Product Description: AutoCAD Mechanical 2000|Company: Autodesk"
 90
        0
280
     0
281
     0
  0
CLASS
  1
ACME_DOCUMENT
  2
AcMeDbDoc
  3
AcMeServices
 90
        0
280
     0
281
     0
  0
CLASS
  1
ACMESCOPE
  2
AcMeScope
  3
AcMeServices
 90
        0
280
     0
281
     0
  0
CLASS
  1
ACMECOMMANDHISTORY
  2
AcMeCommandHistory
  3
AcMeServices
 90
        0
280
     0
281
     0
  0
CLASS
  1
ACIMSYSVARMAN
  2
AcImSysVarManager
  3
AcMeServices
 90
        0
280
     0
281
     0
  0
CLASS
  1
ACIMREALSYSVAR
  2
AcImRealSysVar
  3
AcMeServices
 90
        0
280
     0
281
     0
  0
CLASS
  1
ACIMINTSYSVAR
  2
AcImIntSysVar
  3
AcMeServices
 90
        0
280
     0
281
     0
  0
CLASS
  1
ACMEDRAWINGMAN
  2
AcMeDrawingMan
  3
AcMeServices
 90
        0
280
     0
281
     0
  0
CLASS
  1
ACMEVIEW
  2
AcMeView
  3
AcMeServices
 90
        0
280
     0
281
     0
  0
CLASS
  1
ACDBENTITYCACHE
  2
AcMeEntityCache
  3
AcMeServices
 90
        0
280
     0
281
     0
  0
CLASS
  1
GSMANAGER
  2
AcMeGSManager
  3
AcMeServices
 90
        0
280
     0
281
     0
  0
CLASS
  1
AMDTINTERNALREACTOR
  2
AmdtInternalReactor
  3
AcMeServices
 90
        0
280
     0
281
     0
  0
CLASS
  1
ACMESTATEMGR
  2
AcMeStateMgr
  3
AcMeServices
 90
        0
280
     0
281
     0
  0
CLASS
  1
ACGREFMASTER
  2
AcGrefMaster
  3
AcAttribServices
 90
        0
280
     0
281
     0
  0
CLASS
  1
AM_DRAWING_MGR
  2
AcDmDwgMgr
  3
AcMechDwgViewMgmt
 90
        0
280
     0
281
     0
  0
CLASS
  1
AM_DWG_DOCUMENT
  2
AcDmDwgDocument
  3
AcMechDwgViewMgmt
 90
        0
280
     0
281
     0
  0
CLASS
  1
AM_DWG_SHEET
  2
AcDmSheet
  3
AcMechDwgViewMgmt
 90
        0
280
     0
281
     0
  0
CLASS
  1
AM_VIEWDIMPARMAP
  2
AcDmViewDimParMap
  3
AcMechDwgViewMgmt
 90
        0
280
     0
281
     0
  0
CLASS
  1
AM_DWGMGR_NAME
  2
AcDmDwgMgrName
  3
AcMechDwgViewMgmt
 90
        0
280
     0
281
     0
  0
CLASS
  1
ACME_DATABASE
  2
AcMeDbDatabase
  3
AcMeServices
 90
        0
280
     0
281
     0
  0
CLASS
  1
ACRFINSADJUSTERMGR
  2
AcRfInsAdjusterMgr
  3
AcMeServices
 90
        0
280
     0
281
     0
  0
CLASS
  1
ACGREFACADMASTER
  2
AcGrefacadMaster
  3
AcGrefServices
 90
        0
280
     0
281
     0
  0
CLASS
  1
AMDTMENUSTATEMGR
  2
AmdtMenuStateMgr
  3
McadcomServices
 90
        0
280
     0
281
     0
  0
CLASS
  1
AMDTMCOMMENUSTATE
  2
AmdtMcomMenuState
  3
McadcomServices
 90
        0
280
     0
281
     0
  0
CLASS
  1
AMIMASTER
  2
AmiMaster
  3
AmiServices
 90
        0
280
     0
281
     0
  0
CLASS
  1
ASAPP
  2
AcAsAppObject
  3
AutoSurfServices
 90
        0
280
     0
281
     0
  0
CLASS
  1
IM_STATIC_MAN
  2
AcImStaticVarManager
  3
AcMeServices
 90
        0
280
     0
281
     0
  0
CLASS
  1
ACIMSTRSYSVAR
  2
AcImStrSysVar
  3
AcMeServices
 90
        0
280
     0
281
     0
  0
CLASS
  1
ACIMDBLSTATICVAR
  2
AcImDblStaticVar
  3
AcMeServices
 90
        0
280
     0
281
     0
  0
CLASS
  1
ACIMSTRSTATICVAR
  2
AcImStrStaticVar
  3
AcMeServices
 90
        0
280
     0
281
     0
  0
CLASS
  1
ACIMINTSTATICVAR
  2
AcImIntStaticVar
  3
AcMeServices
 90
        0
280
     0
281
     0
  0
CLASS
  1
ACASGREFMASTER
  2
AcAsGrefMaster
  3
AutoSurfResolverServices
 90
        0
280
     0
281
     0
  0
CLASS
  1
ACADGREFMODULE
  2
AcAdGrefModule
  3
AdGrefServices
 90
        0
280
     0
281
     0
  0
CLASS
  1
AMDTMAPISURFMOUDULE
  2
AmdtMApiSurfModule
  3
MApiSurfServices
 90
        0
280
     0
281
     0
  0
CLASS
  1
MAPIAMMOUDLE
  2
MApiAmModule
  3
MApiAmServices
 90
        0
280
     0
281
     0
  0
CLASS
  1
AMDTADMENUSTATE
  2
AmdtAdMenuState
  3
DesignerServices
 90
        0
280
     0
281
     0
  0
CLASS
  1
ADAPPL
  2
AcAdAppl
  3
DesignerServices
 90
        0
280
     0
281
     0
  0
CLASS
  1
DEPMGR
  2
AcAdDepMgr
  3
DesignerServices
 90
        0
280
     0
281
     0
  0
CLASS
  1
PARAMMGR
  2
AcAdParamMgr
  3
DesignerServices
 90
        0
280
     0
281
     0
  0
CLASS
  1
PARAMSCOPE
  2
AcAdParamScope
  3
DesignerServices
 90
        0
280
     0
281
     0
  0
CLASS
  1
NAMEDAPPL
  2
AcAdNamedAppl
  3
DesignerServices
 90
        0
280
     0
281
     0
  0
CLASS
  1
AMDTDMMENUSTATE
  2
AmdtDmMenuState
  3
AcMechDwgViewMgmt
 90
        0
280
     0
281
     0
  0
CLASS
  1
MAPIADMODULE
  2
MApiAdModule
  3
MApiAdServices
 90
        0
280
     0
281
     0
  0
CLASS
  1
AMDTAMMENUSTATE
  2
AmdtAmMenuState
  3
DesignerAssemblies
 90
        0
280
     0
281
     0
  0
CLASS
  1
ACAMPROJECT
  2
AcAmProject
  3
DesignerAssemblies
 90
        0
280
     0
281
     0
  0
CLASS
  1
ACAMGRCOMPDEF
  2
AcAmGrCompDef
  3
DesignerAssemblies
 90
        0
280
     0
281
     0
  0
CLASS
  1
ACCMCONTEXT
  2
AcCmContext
  3
DesignerAssemblies
 90
        0
280
     0
281
     0
  0
CLASS
  1
ACAMCOMPDEF
  2
AcAmCompDef
  3
DesignerAssemblies
 90
        0
280
     0
281
     0
  0
CLASS
  1
ACAMCOMPDEFMGR
  2
AcAmCompDefMgr
  3
DesignerAssemblies
 90
        0
280
     0
281
     0
  0
CLASS
  1
AMCONTEXTMGR
  2
AcAmContextMgr
  3
DesignerAssemblies
 90
        0
280
     0
281
     0
  0
CLASS
  1
ACAMCONTEXTMODELER
  2
AcAmContextModeler
  3
DesignerAssemblies
 90
        0
280
     0
281
     0
  0
CLASS
  1
ACMDATADICTIONARY
  2
AcmDataDictionary
  3
"AcmSymBB|Product Description: AutoCAD Mechanical 2004 DX|Company: Autodesk"
 90
        0
280
     0
281
     0
  0
CLASS
  1
ACMDATAENTRYBLOCK
  2
AcmDataEntryBlock
  3
"AcmSymBB|Product Description: AutoCAD Mechanical 2004 DX|Company: Autodesk"
 90
        0
280
     0
281
     0
  0
CLASS
  1
CATALOGSTATE
  2
AcAmCatalogState
  3
DesignerAssemblies
 90
        0
280
     0
281
     0
  0
CLASS
  1
ACAMGRCOMPDEFSET
  2
AcAmGrCompDefSet
  3
DesignerAssemblies
 90
        0
280
     0
281
     0
  0
CLASS
  1
AMDTBROWSERDBTAB
  2
AmdtBrowserDbTab
  3
McadcomServices
 90
        0
280
     0
281
     0
  0
CLASS
  1
CBROWSERAPPOBJECT
  2
CBrowserAppObject
  3
McadcomServices
 90
        0
280
     0
281
     0
  0
CLASS
  1
DM_PLACEHOLDER
  2
AcDmSelsetPlaceholder
  3
AcMechDwgViewMgmt
 90
        0
280
     0
281
     0
  0
CLASS
  1
ACMSTANDARDISO
  2
AcmStandardISO
  3
"Amdt_StdImp|Product Description: AutoCAD Mechanical 2004 DX|Company: Autodesk"
 90
        0
280
     0
281
     0
  0
CLASS
  1
AMGOBJPROPCFG
  2
AmgObjPropCfg
  3
"AmgLay|Product Description: AutoCAD Mechanical 2000|Company: Autodesk"
 90
        1
280
     0
281
     0
  0
CLASS
  1
AMDTEDGESTANDARDISO13715
  2
AmdtEdgeStdISO13715
  3
"Amdt_StdImp|Product Description: AutoCAD Mechanical 2004 DX|Company: Autodesk"
 90
        0
280
     0
281
     0
  0
CLASS
  1
ACMSURFSTANDARDISO
  2
AcmSurfTextStdISO
  3
"Amdt_StdImp|Product Description: AutoCAD Mechanical 2004 DX|Company: Autodesk"
 90
        0
280
     0
281
     0
  0
CLASS
  1
ACMFCFSTANDARDISO
  2
AcmFCFStdISO
  3
"Amdt_StdImp|Product Description: AutoCAD Mechanical 2004 DX|Company: Autodesk"
 90
        0
280
     0
281
     0
  0
CLASS
  1
ACMWELDSTANDARDISO
  2
AcmWeldingStdISO
  3
"Amdt_StdImp|Product Description: AutoCAD Mechanical 2004 DX|Company: Autodesk"
 90
        0
280
     0
281
     0
  0
CLASS
  1
ACMIDSTANDARDISO
  2
AcmIdStdISO
  3
"Amdt_StdImp|Product Description: AutoCAD Mechanical 2004 DX|Company: Autodesk"
 90
        0
280
     0
281
     0
  0
CLASS
  1
ACMDATUMSTANDARDISO
  2
AcmDatumStdISO
  3
"Amdt_StdImp|Product Description: AutoCAD Mechanical 2004 DX|Company: Autodesk"
 90
        0
280
     0
281
     0
  0
CLASS
  1
ACMBOMSTANDARDISO
  2
AcmBOMStdISO
  3
"Amdt_StdImp|Product Description: AutoCAD Mechanical 2004 DX|Company: Autodesk"
 90
        0
280
     0
281
     0
  0
CLASS
  1
ACMDETAILSTANDARDISO
  2
AmdtDetailSymStdISO
  3
"Amdt_StdImp|Product Description: AutoCAD Mechanical 2004 DX|Company: Autodesk"
 90
        0
280
     0
281
     0
  0
CLASS
  1
ACMSECTIONSTANDARDISO
  2
AmdtSectionSymStdISO
  3
"Amdt_StdImp|Product Description: AutoCAD Mechanical 2004 DX|Company: Autodesk"
 90
        0
280
     0
281
     0
  0
CLASS
  1
ACMCENTERLINESTANDARDISO
  2
AmdtCenterLineStdISO
  3
"Amdt_StdImp|Product Description: AutoCAD Mechanical 2004 DX|Company: Autodesk"
 90
        0
280
     0
281
     0
  0
CLASS
  1
ACMTHREADLINESTANDARDISO
  2
AmdtThreadLineStdISO
  3
"Amdt_StdImp|Product Description: AutoCAD Mechanical 2004 DX|Company: Autodesk"
 90
        0
280
     0
281
     0
  0
CLASS
  1
ACMNOTESTANDARDISO
  2
AmdtNoteStdISO
  3
"Amdt_StdImp|Product Description: AutoCAD Mechanical 2004 DX|Company: Autodesk"
 90
        0
280
     0
281
     0
  0
CLASS
  1
AMDTNOTETEMPLATEDB
  2
AmdtNoteTemplateDB
  3
AMDT_STDIMP_MODULE_NAME
 90
        0
280
     0
281
     0
  0
CLASS
  1
ACAMGLAYSTD
  2
AcAmgLayStd
  3
"AcAmgLayStd|Product Description: AutoCAD Mechanical 2000|Company: Autodesk"
 90
        0
280
     0
281
     0
  0
CLASS
  1
ACAMGDIMSTD
  2
AcAmgDimStd
  3
"AcAmgDimStd|Product Description: AutoCAD Mechanical 2000|Company: Autodesk"
 90
        0
280
     0
281
     0
  0
CLASS
  1
ACAMGHOLECHARTSTDISO
  2
AcAmgHoleChartStdISO
  3
ACMSYMBB_MODULE_NAME
 90
        0
280
     0
281
     0
  0
CLASS
  1
ACAMGTITLESTD
  2
AcAmgTitleStd
  3
"TITLEAPP"
 90
        0
280
     0
281
     0
  0
CLASS
  1
ACAMGFILTERDAT
  2
AcAmgFilterDat
  3
"AcadM|Product Description: AutoCAD Mechanical 2000|Company: Autodesk"
 90
        0
280
     0
281
     0
  0
ENDSEC
  0
SECTION
  2
TABLES
  0
TABLE
  2
VPORT
  5
7
330
0
100
AcDbSymbolTable
 70
     3
  0
VPORT
  5
257
330
7
100
AcDbSymbolTableRecord
100
AcDbViewportTableRecord
  2
*Active
 70
     0
 10
0.0
 20
0.0
 11
1.0
 21
1.0
 12
325.3844595988049
 22
894.6838847331493
 13
0.0
 23
0.0
 14
1.0
 24
1.0
 15
0.0
 25
0.0
 16
0.0
 26
0.0
 36
1.0
 17
8.53664292203609
 27
4.579183999999999
 37
0.0
 40
422.4439778177207
 41
1.113389626055488
 42
50.0
 43
0.0
 44
0.0
 50
0.0
 51
0.0
 71
     0
 72
   100
 73
     1
 74
     1
 75
     0
 76
     0
 77
     0
 78
     0
281
     0
 65
     0
110
0.0
120
0.0
130
0.0
111
1.0
121
0.0
131
0.0
112
0.0
122
1.0
132
0.0
 79
     0
146
0.0
  0
ENDTAB
  0
TABLE
  2
LTYPE
  5
4
330
0
100
AcDbSymbolTable
 70
    23
  0
LTYPE
  5
11
330
4
100
AcDbSymbolTableRecord
100
AcDbLinetypeTableRecord
  2
BYBLOCK
 70
     0
  3

 72
    65
 73
     0
 40
0.0
  0
LTYPE
  5
12
330
4
100
AcDbSymbolTableRecord
100
AcDbLinetypeTableRecord
  2
BYLAYER
 70
     0
  3

 72
    65
 73
     0
 40
0.0
  0
LTYPE
  5
13
330
4
100
AcDbSymbolTableRecord
100
AcDbLinetypeTableRecord
  2
CONTINUOUS
 70
     0
  3
Solid line
 72
    65
 73
     0
 40
0.0
  0
LTYPE
  5
1D
330
4
100
AcDbSymbolTableRecord
100
AcDbLinetypeTableRecord
  2
DASHED
 70
     0
  3
Dashed
 72
    65
 73
     2
 40
15.0
 49
12.0
 74
     0
 49
-3.0
 74
     0
  0
LTYPE
  5
1E
330
4
100
AcDbSymbolTableRecord
100
AcDbLinetypeTableRecord
  2
DOTTED
 70
     0
  3
Dotted
 72
    65
 73
     2
 40
3.5
 49
0.5
 74
     0
 49
-3.0
 74
     0
  0
LTYPE
  5
1F
330
4
100
AcDbSymbolTableRecord
100
AcDbLinetypeTableRecord
  2
DOT_CENTER
 70
     0
  3
Dot_Center
 72
    65
 73
     4
 40
2.0
 49
1.25
 74
     0
 49
-0.25
 74
     0
 49
0.25
 74
     0
 49
-0.25
 74
     0
  0
LTYPE
  5
20
330
4
100
AcDbSymbolTableRecord
100
AcDbLinetypeTableRecord
  2
LONG_DASHED
 70
     0
  3
Long_Dashed
 72
    65
 73
     2
 40
2.0
 49
1.5
 74
     0
 49
-0.5
 74
     0
  0
LTYPE
  5
21
330
4
100
AcDbSymbolTableRecord
100
AcDbLinetypeTableRecord
  2
DASH_CENTER
 70
     0
  3
Dash_Center
 72
    65
 73
     4
 40
36.0
 49
24.0
 74
     0
 49
-3.0
 74
     0
 49
6.0
 74
     0
 49
-3.0
 74
     0
  0
LTYPE
  5
22
330
4
100
AcDbSymbolTableRecord
100
AcDbLinetypeTableRecord
  2
PHANTOM
 70
     0
  3
Phantom
 72
    65
 73
     6
 40
2.5
 49
1.25
 74
     0
 49
-0.25
 74
     0
 49
0.25
 74
     0
 49
-0.25
 74
     0
 49
0.25
 74
     0
 49
-0.25
 74
     0
  0
LTYPE
  5
23
330
4
100
AcDbSymbolTableRecord
100
AcDbLinetypeTableRecord
  2
CENTER_DASH_DASH
 70
     0
  3
Center_Dash_Dash
 72
    65
 73
     6
 40
22.0
 49
12.0
 74
     0
 49
-3.0
 74
     0
 49
0.5
 74
     0
 49
-3.0
 74
     0
 49
0.5
 74
     0
 49
-3.0
 74
     0
  0
LTYPE
  5
162
330
4
100
AcDbSymbolTableRecord
100
AcDbLinetypeTableRecord
  2
HIDDEN
 70
     0
  3
Hidden __ __ __ __ __ __ __ __ __ __ __ __ __ _
 72
    65
 73
     2
 40
9.524999999999998
 49
6.349999999999999
 74
     0
 49
-3.174999999999999
 74
     0
  0
LTYPE
  5
163
330
4
100
AcDbSymbolTableRecord
100
AcDbLinetypeTableRecord
  2
PHANTOM2
 70
     0
  3
Phantom (.5x) ___ _ _ ___ _ _ ___ _ _ ___ _ _
 72
    65
 73
     6
 40
31.75
 49
15.875
 74
     0
 49
-3.174999999999999
 74
     0
 49
3.174999999999999
 74
     0
 49
-3.174999999999999
 74
     0
 49
3.174999999999999
 74
     0
 49
-3.174999999999999
 74
     0
  0
LTYPE
  5
164
330
4
100
AcDbSymbolTableRecord
100
AcDbLinetypeTableRecord
  2
CENTER
 70
     0
  3
Center ____ _ ____ _ ____ _ ____ _ ____ _ ____
 72
    65
 73
     4
 40
50.8
 49
31.75
 74
     0
 49
-6.349999999999999
 74
     0
 49
6.349999999999999
 74
     0
 49
-6.349999999999999
 74
     0
  0
LTYPE
  5
1B3
330
4
100
AcDbSymbolTableRecord
100
AcDbLinetypeTableRecord
  2
ASULTYPE
 70
     0
  3
実線
 72
    65
 73
     2
 40
3.0
 49
2.5
 74
     0
 49
0.5
 74
     0
  0
LTYPE
  5
1B4
330
4
100
AcDbSymbolTableRecord
100
AcDbLinetypeTableRecord
  2
ASVLTYPE
 70
     0
  3
__ __ __ __ __ __ __ __ __ __ __ __ __ __ __ __ __ __ __ __ __
 72
    65
 73
     2
 40
0.75
 49
0.5
 74
     0
 49
-0.25
 74
     0
  0
LTYPE
  5
1FB
330
4
100
AcDbSymbolTableRecord
100
AcDbLinetypeTableRecord
  2
AM_ISO02W050
 70
     0
  3
__ __ __ __ __ __ __ __ __ __ __ __ __ __ __
 72
    65
 73
     2
 40
7.5
 49
6.0
 74
     0
 49
-1.5
 74
     0
  0
LTYPE
  5
1FC
330
4
100
AcDbSymbolTableRecord
100
AcDbLinetypeTableRecord
  2
AM_ISO08W050
 70
     0
  3
____ . ____ . ____ . ____ . ____ . ____ . ____
 72
    65
 73
     4
 40
18.0
 49
12.0
 74
     0
 49
-1.5
 74
     0
 49
3.0
 74
     0
 49
-1.5
 74
     0
  0
LTYPE
  5
1FD
330
4
100
AcDbSymbolTableRecord
100
AcDbLinetypeTableRecord
  2
AM_ISO09W050
 70
     0
  3
_____ . . _____ . . _____ . . ____ .. ____
 72
    65
 73
     6
 40
22.5
 49
12.0
 74
     0
 49
-1.5
 74
     0
 49
3.0
 74
     0
 49
-1.5
 74
     0
 49
3.0
 74
     0
 49
-1.5
 74
     0
  0
LTYPE
  5
1FE
330
4
100
AcDbSymbolTableRecord
100
AcDbLinetypeTableRecord
  2
Amconstr
 70
     0
  3
_______________________
 72
    65
 73
     2
 40
9999.0
 49
9999.0
 74
     0
 49
0.0
 74
     0
  0
LTYPE
  5
1FF
330
4
100
AcDbSymbolTableRecord
100
AcDbLinetypeTableRecord
  2
AM_ISO08W050x2
 70
     0
  3
__ . __ . __ . __ . __ . __
 72
    65
 73
     4
 40
9.0
 49
6.0
 74
     0
 49
-0.75
 74
     0
 49
1.5
 74
     0
 49
-0.75
 74
     0
  0
LTYPE
  5
200
330
4
100
AcDbSymbolTableRecord
100
AcDbLinetypeTableRecord
  2
AM_ISO02W050x2
 70
     0
  3
 _ _ _ _ _ _ _ _ _ _ _ _
 72
    65
 73
     2
 40
3.75
 49
3.0
 74
     0
 49
-0.75
 74
     0
  0
LTYPE
  5
203
330
4
100
AcDbSymbolTableRecord
100
AcDbLinetypeTableRecord
  2
Amzigzag
 70
     0
  3
/\/-/\/-/\/-/\/-/\/-/\/
 72
    65
 73
     2
 40
11.0001
 49
0.0001
 74
     4
 75
   136
340
202
 46
0.04
 50
0.0
 44
0.0
 45
0.0
 49
-11.0
 74
     0
  0
LTYPE
  5
212
330
4
100
AcDbSymbolTableRecord
100
AcDbLinetypeTableRecord
  2
ACISOWELD
 70
     0
  3
_ _ _ _ _
 72
    65
 73
     2
 40
2.0
 49
2.0
 74
     0
 49
-1.0
 74
     0
  0
LTYPE
  5
213
330
4
100
AcDbSymbolTableRecord
100
AcDbLinetypeTableRecord
  2
ACISOTGB
 70
     0
  3
__ . . __ . .
 72
    65
 73
     6
 40
9.0
 49
4.0
 74
     0
 49
-1.0
 74
     0
 49
1.0
 74
     0
 49
-1.0
 74
     0
 49
1.0
 74
     0
 49
-1.0
 74
     0
  0
LTYPE
  5
214
330
4
100
AcDbSymbolTableRecord
100
AcDbLinetypeTableRecord
  2
ACISOTGL
 70
     0
  3
_ _ _ _ _
 72
    65
 73
     2
 40
3.0
 49
2.0
 74
     0
 49
-1.0
 74
     0
  0
ENDTAB
  0
TABLE
  2
LAYER
  5
2
330
0
100
AcDbSymbolTable
 70
     2
  0
LAYER
  5
14
330
2
100
AcDbSymbolTableRecord
100
AcDbLayerTableRecord
  2
0
 70
     0
 62
     7
  6
CONTINUOUS
370
    -3
390
121
  0
LAYER
  5
24
330
2
100
AcDbSymbolTableRecord
100
AcDbLayerTableRecord
  2
1
 70
     0
 62
     7
  6
CONTINUOUS
370
    -3
390
121
  0
ENDTAB
  0
TABLE
  2
STYLE
  5
3
330
0
100
AcDbSymbolTable
 70
     6
  0
STYLE
  5
17
330
3
100
AcDbSymbolTableRecord
100
AcDbTextStyleTableRecord
  2
STANDARD
 70
     0
 40
0.0
 41
1.0
 50
0.0
 71
     0
 42
0.0
  3
txt
  4

  0
STYLE
  5
117
330
3
100
AcDbSymbolTableRecord
100
AcDbTextStyleTableRecord
  2
CONVERTER_1
 70
     0
 40
0.0
 41
0.95
 50
0.0
 71
     0
 42
0.0
  3
txt
  4

  0
STYLE
  5
119
330
3
100
AcDbSymbolTableRecord
100
AcDbTextStyleTableRecord
  2
CONVERTER_2
 70
     0
 40
0.0
 41
0.8
 50
0.0
 71
     0
 42
0.0
  3
MS Gothic
  4

1001
ACAD
1000
MS Gothic
1071
    32785
  0
STYLE
  5
202
330
3
100
AcDbSymbolTableRecord
100
AcDbTextStyleTableRecord
  2

 70
     1
 40
0.0
 41
1.0
 50
0.0
 71
     0
 42
0.2
  3
genltshp.shx
  4

  0
STYLE
  5
204
330
3
100
AcDbSymbolTableRecord
100
AcDbTextStyleTableRecord
  2
ACISOTS
 70
     0
 40
1.0
 41
1.0
 50
0.0
 71
     0
 42
0.2
  3
isocp.shx
  4
extfont.shx
  0
STYLE
  5
211
330
3
100
AcDbSymbolTableRecord
100
AcDbTextStyleTableRecord
  2
ACISOGDT
 70
     0
 40
0.0
 41
1.0
 50
0.0
 71
     0
 42
0.2
  3
AMGDT
  4

  0
ENDTAB
  0
TABLE
  2
VIEW
  5
5
330
0
100
AcDbSymbolTable
 70
     0
  0
ENDTAB
  0
TABLE
  2
UCS
  5
6
330
0
100
AcDbSymbolTable
 70
     0
  0
ENDTAB
  0
TABLE
  2
APPID
  5
8
330
0
100
AcDbSymbolTable
 70
    16
  0
APPID
  5
16
330
8
100
AcDbSymbolTableRecord
100
AcDbRegAppTableRecord
  2
ACAD
 70
     0
  0
APPID
  5
12E
330
8
100
AcDbSymbolTableRecord
100
AcDbRegAppTableRecord
  2
GENIUS_GENDIM_13
 70
     0
  0
APPID
  5
12F
330
8
100
AcDbSymbolTableRecord
100
AcDbRegAppTableRecord
  2
GENIUS_GENDTOL_13
 70
     0
  0
APPID
  5
130
330
8
100
AcDbSymbolTableRecord
100
AcDbRegAppTableRecord
  2
GENIUS_GE3DTOL_13
 70
     0
  0
APPID
  5
133
330
8
100
AcDbSymbolTableRecord
100
AcDbRegAppTableRecord
  2
MCAD_NO_VIS
 70
     0
  0
APPID
  5
134
330
8
100
AcDbSymbolTableRecord
100
AcDbRegAppTableRecord
  2
ACAD_TEMP_GRAPHIC
 70
     0
  0
APPID
  5
166
330
8
100
AcDbSymbolTableRecord
100
AcDbRegAppTableRecord
  2
AD_DRAW
 70
     0
  0
APPID
  5
169
330
8
100
AcDbSymbolTableRecord
100
AcDbRegAppTableRecord
  2
ACATTRIBSERVICES
 70
     0
  0
APPID
  5
1B5
330
8
100
AcDbSymbolTableRecord
100
AcDbRegAppTableRecord
  2
ASURF_PCURVE_APPNAME
 70
     0
  0
APPID
  5
1BA
330
8
100
AcDbSymbolTableRecord
100
AcDbRegAppTableRecord
  2
AMG_3D2D_5.0
 70
     0
  0
APPID
  5
1EB
330
8
100
AcDbSymbolTableRecord
100
AcDbRegAppTableRecord
  2
DESIGNERASSEMBLIES
 70
     0
  0
APPID
  5
1F2
330
8
100
AcDbSymbolTableRecord
100
AcDbRegAppTableRecord
  2
ACADM_DIM_EDIT
 70
     0
  0
APPID
  5
1F3
330
8
100
AcDbSymbolTableRecord
100
AcDbRegAppTableRecord
  2
AMDT_DM_ADJ
 70
     0
  0
APPID
  5
221
330
8
100
AcDbSymbolTableRecord
100
AcDbRegAppTableRecord
  2
ACAD_DSTYLE_DIMARC_LENGTH_SYMBOL
 70
     0
  0
APPID
  5
222
330
8
100
AcDbSymbolTableRecord
100
AcDbRegAppTableRecord
  2
ACAD_DSTYLE_DIMJOGGED_JOGANGLE_SYMBOL
 70
     0
  0
APPID
  5
24B
330
8
100
AcDbSymbolTableRecord
100
AcDbRegAppTableRecord
  2
DCO15
 70
     0
  0
ENDTAB
  0
TABLE
  2
DIMSTYLE
  5
9
330
0
100
AcDbSymbolTable
 70
     8
100
AcDbDimStyleTable
 71
     0
  0
DIMSTYLE
105
18
330
9
100
AcDbSymbolTableRecord
100
AcDbDimStyleTableRecord
  2
STANDARD
 70
     0
340
17
  0
DIMSTYLE
105
220
330
9
100
AcDbSymbolTableRecord
100
AcDbDimStyleTableRecord
  2
AM_ISO
 70
     0
  4
"
 41
2.5
 42
1.0
 43
10.0
 44
1.0
 47
0.1
 48
0.1
 73
     0
 74
     0
 77
     1
 78
     8
 79
     2
140
3.5
141
0.0
143
0.0393701
146
0.71
147
1.5
172
     1
176
   256
177
   256
178
     2
271
     2
272
     3
274
     4
283
     0
284
     8
340
17
371
    -1
372
    -1
1001
ACAD_DSTYLE_DIMARC_LENGTH_SYMBOL
1070
   379
1070
     1
1001
ACAD_DSTYLE_DIMJOGGED_JOGANGLE_SYMBOL
1070
   384
1040
0.7853981633974483
  0
DIMSTYLE
105
229
330
9
100
AcDbSymbolTableRecord
100
AcDbDimStyleTableRecord
  2
AM_ISO$3
 70
     0
  4
"
 41
2.5
 42
1.0
 43
10.0
 44
1.0
 47
0.1
 48
0.1
 73
     0
 77
     1
 78
     8
 79
     2
140
3.5
141
0.0
143
0.0393701
146
0.71
147
1.5
176
   256
177
   256
178
     2
271
     2
272
     3
274
     4
283
     0
284
     8
288
     1
289
     0
340
17
371
    -1
372
    -1
1001
ACAD_DSTYLE_DIMARC_LENGTH_SYMBOL
1070
   379
1070
     1
1001
ACAD_DSTYLE_DIMJOGGED_JOGANGLE_SYMBOL
1070
   384
1040
0.7853981633974483
  0
DIMSTYLE
105
22C
330
9
100
AcDbSymbolTableRecord
100
AcDbDimStyleTableRecord
  2
AM_ISO$4
 70
     0
  4
"
 41
2.5
 42
1.0
 43
10.0
 44
1.0
 47
0.1
 48
0.1
 73
     0
 77
     1
 78
     8
 79
     2
140
3.5
141
0.0
143
0.0393701
146
0.71
147
1.5
176
   256
177
   256
178
     2
271
     2
272
     3
274
     4
283
     0
284
     8
288
     1
289
     0
340
17
371
    -1
372
    -1
1001
ACAD_DSTYLE_DIMARC_LENGTH_SYMBOL
1070
   379
1070
     1
1001
ACAD_DSTYLE_DIMJOGGED_JOGANGLE_SYMBOL
1070
   384
1040
0.7853981633974483
  0
DIMSTYLE
105
22F
330
9
100
AcDbSymbolTableRecord
100
AcDbDimStyleTableRecord
  2
AM_ISO$6
 70
     0
  4
"
 41
2.5
 42
1.0
 43
10.0
 44
1.0
 47
0.1
 48
0.1
 73
     0
 74
     0
 78
     8
 79
     2
140
3.5
141
0.0
143
0.0393701
146
0.71
147
1.5
172
     1
176
   256
177
   256
178
     2
271
     2
272
     3
274
     4
283
     0
284
     8
340
17
371
    -1
372
    -1
1001
ACAD_DSTYLE_DIMARC_LENGTH_SYMBOL
1070
   379
1070
     1
1001
ACAD_DSTYLE_DIMJOGGED_JOGANGLE_SYMBOL
1070
   384
1040
0.7853981633974483
  0
DIMSTYLE
105
232
330
9
100
AcDbSymbolTableRecord
100
AcDbDimStyleTableRecord
  2
AM_ISO$7
 70
     0
  4
"
 41
2.5
 42
1.0
 43
10.0
 44
1.0
 47
0.1
 48
0.1
 73
     0
 74
     0
 77
     1
 78
     8
 79
     2
140
5.0
141
0.0
143
0.0393701
146
0.71
147
1.5
172
     1
176
   256
177
   256
178
     2
271
     2
272
     3
274
     4
283
     0
284
     8
340
17
371
    -1
372
    -1
1001
ACAD_DSTYLE_DIMARC_LENGTH_SYMBOL
1070
   379
1070
     1
1001
ACAD_DSTYLE_DIMJOGGED_JOGANGLE_SYMBOL
1070
   384
1040
0.7853981633974483
  0
DIMSTYLE
105
235
330
9
100
AcDbSymbolTableRecord
100
AcDbDimStyleTableRecord
  2
AM_ISO$SF
 70
     0
  4
"
 41
2.5
 42
1.0
 43
10.0
 44
1.0
 47
0.1
 48
0.1
 73
     0
 74
     0
 75
     1
 76
     1
 77
     1
 78
     8
 79
     2
140
3.5
141
0.0
143
0.0393701
146
0.71
147
1.5
172
     1
176
   256
177
   256
178
     2
271
     2
272
     3
274
     4
283
     0
284
     8
340
17
371
    -1
372
    -1
1001
ACAD_DSTYLE_DIMARC_LENGTH_SYMBOL
1070
   379
1070
     1
1001
ACAD_DSTYLE_DIMJOGGED_JOGANGLE_SYMBOL
1070
   384
1040
0.7853981633974483
  0
DIMSTYLE
105
23C
330
9
100
AcDbSymbolTableRecord
100
AcDbDimStyleTableRecord
  2
AM_ISO$SH
 70
     0
  4
"
 41
2.5
 42
1.0
 43
10.0
 44
1.0
 47
0.1
 48
0.1
 73
     0
 74
     0
 75
     1
 76
     1
 77
     1
 78
     8
 79
     2
140
3.5
141
0.0
143
0.0393701
144
2.0
146
0.71
147
1.5
172
     1
173
     1
176
   256
177
   256
178
     2
271
     2
272
     3
274
     4
283
     0
284
     8
340
17
343
236
371
    -1
372
    -1
1001
ACAD_DSTYLE_DIMARC_LENGTH_SYMBOL
1070
   379
1070
     1
1001
ACAD_DSTYLE_DIMJOGGED_JOGANGLE_SYMBOL
1070
   384
1040
0.7853981633974483
  0
ENDTAB
  0
TABLE
  2
BLOCK_RECORD
  5
1
330
0
100
AcDbSymbolTable
 70
     2
  0
BLOCK_RECORD
  5
A
102
{ACAD_XDICTIONARY
360
24D
102
}
330
1
100
AcDbSymbolTableRecord
100
AcDbBlockTableRecord
  2
*MODEL_SPACE
340
128
  0
BLOCK_RECORD
  5
B
330
1
100
AcDbSymbolTableRecord
100
AcDbBlockTableRecord
  2
*PAPER_SPACE
340
129
  0
BLOCK_RECORD
  5
236
330
1
100
AcDbSymbolTableRecord
100
AcDbBlockTableRecord
  2
GENAXEH
340
0
  0
ENDTAB
  0
ENDSEC
  0
SECTION
  2
BLOCKS
  0
BLOCK
  5
D
330
A
100
AcDbEntity
  8
0
100
AcDbBlockBegin
  2
*MODEL_SPACE
 70
     0
 10
0.0
 20
0.0
 30
0.0
  3
*MODEL_SPACE
  1

  0
ENDBLK
  5
E
330
A
100
AcDbEntity
  8
0
100
AcDbBlockEnd
  0
BLOCK
  5
F
330
B
100
AcDbEntity
 67
     1
  8
0
100
AcDbBlockBegin
  2
*PAPER_SPACE
 70
     0
 10
0.0
 20
0.0
 30
0.0
  3
*PAPER_SPACE
  1

  0
ENDBLK
  5
10
330
B
100
AcDbEntity
 67
     1
  8
0
100
AcDbBlockEnd
  0
BLOCK
  5
238
330
236
100
AcDbEntity
  8
0
100
AcDbBlockBegin
  2
GENAXEH
 70
     0
 10
0.0
 20
0.0
 30
0.0
  3
GENAXEH
  1

  0
LINE
  5
237
330
236
100
AcDbEntity
  8
0
100
AcDbLine
 10
-1.0
 20
0.0
 30
0.0
 11
1.0
 21
0.0
 31
0.0
  0
ENDBLK
  5
239
330
236
100
AcDbEntity
  8
0
100
AcDbBlockEnd
  0
ENDSEC
  0
SECTION
  2
ENTITIES
  0
TEXT
  5
11A
330
A
100
AcDbEntity
  8
1
 62
     6
100
AcDbText
 10
104.133676290612
 20
1029.707017168871
 30
0.0
 40
3.6
  1
収納式タオルバー
 41
0.8
  7
CONVERTER_2
100
AcDbText
  0
TEXT
  5
118
330
A
100
AcDbEntity
  8
1
 62
     6
100
AcDbText
 10
112.143654751398
 20
1024.32879227305
 30
0.0
 40
3.0
  1
AP-2
 41
0.95
  7
CONVERTER_1
100
AcDbText
  0
ARC
  5
116
330
A
100
AcDbEntity
  8
1
  6
Continuous
 62
     3
100
AcDbCircle
 10
211.283984190494
 20
931.9152387757828
 30
0.0
 40
2.0
100
AcDbArc
 50
90.0
 51
180.0
  0
ARC
  5
115
330
A
100
AcDbEntity
  8
1
  6
Continuous
 62
     3
100
AcDbCircle
 10
527.283984190494
 20
931.9152387757828
 30
0.0
 40
2.0
100
AcDbArc
 50
0.0
 51
90.0
  0
ARC
  5
114
330
A
100
AcDbEntity
  8
1
  6
DOTTED
 62
     1
100
AcDbCircle
 10
531.283984190494
 20
878.5408455861999
 30
0.0
 40
1.0
100
AcDbArc
 50
-66.867603600693
 51
0.0
  0
ARC
  5
113
330
A
100
AcDbEntity
  8
1
  6
DOTTED
 62
     1
100
AcDbCircle
 10
533.283984190494
 20
890.4152387757829
 30
0.0
 40
1.0
100
AcDbArc
 50
90.0
 51
180.0
  0
ARC
  5
112
330
A
100
AcDbEntity
  8
1
  6
DOTTED
 62
     1
100
AcDbCircle
 10
539.783984190494
 20
892.4152387757828
 30
0.0
 40
1.0
100
AcDbArc
 50
-90.0
 51
0.0
  0
ARC
  5
111
330
A
100
AcDbEntity
  8
1
  6
Continuous
 62
     3
100
AcDbCircle
 10
527.283984190494
 20
880.9152387757828
 30
0.0
 40
2.0
100
AcDbArc
 50
-90.0
 51
0.0
  0
ARC
  5
110
330
A
100
AcDbEntity
  8
1
  6
Continuous
 62
     3
100
AcDbCircle
 10
516.783984190494
 20
893.4152387757828
 30
0.0
 40
0.5
100
AcDbArc
 50
90.0
 51
180.0
  0
ARC
  5
10F
330
A
100
AcDbEntity
  8
1
  6
Continuous
 62
     3
100
AcDbCircle
 10
512.283984190494
 20
913.9152387757828
 30
0.0
 40
15.4
100
AcDbArc
 50
0.0
 51
90.0
  0
ARC
  5
10E
330
A
100
AcDbEntity
  8
1
  6
Continuous
 62
     3
100
AcDbCircle
 10
512.283984190494
 20
913.9152387757828
 30
0.0
 40
8.599999999999999
100
AcDbArc
 50
0.0
 51
90.0
  0
ARC
  5
10D
330
A
100
AcDbEntity
  8
1
  6
Continuous
 62
     3
100
AcDbCircle
 10
534.127119023479
 20
883.9152387757829
 30
0.0
 40
10.0
100
AcDbArc
 50
-90.0
 51
-48.590377890729
  0
ARC
  5
10C
330
A
100
AcDbEntity
  8
1
  6
Continuous
 62
     3
100
AcDbCircle
 10
534.127119023479
 20
928.9152387757829
 30
0.0
 40
10.0
100
AcDbArc
 50
48.590377890729
 51
89.999999999999
  0
ARC
  5
10B
330
A
100
AcDbEntity
  8
1
  6
DOTTED
 62
     1
100
AcDbCircle
 10
525.783984190494
 20
891.4152387757829
 30
0.0
 40
15.0
100
AcDbArc
 50
-90.0
 51
-66.867603600701
  0
ARC
  5
10A
330
A
100
AcDbEntity
  8
1
  6
DOTTED
 62
     1
100
AcDbCircle
 10
525.783984190494
 20
921.4152387757829
 30
0.0
 40
15.0
100
AcDbArc
 50
0.0
 51
90.0
  0
ARC
  5
109
330
A
100
AcDbEntity
  8
1
  6
DOTTED
 62
     1
100
AcDbCircle
 10
212.783984190494
 20
921.4152387757829
 30
0.0
 40
15.0
100
AcDbArc
 50
90.0
 51
180.0
  0
ARC
  5
108
330
A
100
AcDbEntity
  8
1
  6
DOTTED
 62
     1
100
AcDbCircle
 10
212.783984190494
 20
891.4152387757829
 30
0.0
 40
15.0
100
AcDbArc
 50
-113.132396399299
 51
-90.0
  0
ARC
  5
107
330
A
100
AcDbEntity
  8
1
  6
Continuous
 62
     3
100
AcDbCircle
 10
204.44084935751
 20
928.9152387757829
 30
0.0
 40
10.0
100
AcDbArc
 50
90.0
 51
131.409622109271
  0
ARC
  5
106
330
A
100
AcDbEntity
  8
1
  6
Continuous
 62
     3
100
AcDbCircle
 10
204.44084935751
 20
883.9152387757829
 30
0.0
 40
10.0
100
AcDbArc
 50
-131.40962210927
 51
-90.0
  0
ARC
  5
105
330
A
100
AcDbEntity
  8
1
  6
Continuous
 62
     3
100
AcDbCircle
 10
226.283984190494
 20
913.9152387757828
 30
0.0
 40
8.600000000000999
100
AcDbArc
 50
90.0
 51
180.0
  0
ARC
  5
104
330
A
100
AcDbEntity
  8
1
  6
Continuous
 62
     3
100
AcDbCircle
 10
226.283984190494
 20
913.9152387757828
 30
0.0
 40
15.4
100
AcDbArc
 50
90.0
 51
180.0
  0
ARC
  5
103
330
A
100
AcDbEntity
  8
1
  6
Continuous
 62
     3
100
AcDbCircle
 10
221.783984190494
 20
893.4152387757828
 30
0.0
 40
0.5
100
AcDbArc
 50
0.0
 51
90.0
  0
ARC
  5
102
330
A
100
AcDbEntity
  8
1
  6
Continuous
 62
     3
100
AcDbCircle
 10
211.283984190494
 20
880.9152387757828
 30
0.0
 40
2.0
100
AcDbArc
 50
180.0
 51
-90.0
  0
ARC
  5
101
330
A
100
AcDbEntity
  8
1
  6
DOTTED
 62
     1
100
AcDbCircle
 10
198.783984190494
 20
892.4152387757828
 30
0.0
 40
1.0
100
AcDbArc
 50
180.0
 51
-90.0
  0
ARC
  5
100
330
A
100
AcDbEntity
  8
1
  6
DOTTED
 62
     1
100
AcDbCircle
 10
205.283984190494
 20
890.4152387757829
 30
0.0
 40
1.0
100
AcDbArc
 50
0.0
 51
90.0
  0
ARC
  5
FF
330
A
100
AcDbEntity
  8
1
  6
DOTTED
 62
     1
100
AcDbCircle
 10
207.283984190494
 20
878.5408455861999
 30
0.0
 40
1.0
100
AcDbArc
 50
180.0
 51
-113.132396399316
  0
ARC
  5
FE
330
A
100
AcDbEntity
  8
1
  6
Continuous
 62
     3
100
AcDbCircle
 10
101.265787413669
 20
892.4152387757828
 30
0.0
 40
1.0
100
AcDbArc
 50
180.0
 51
-90.0
  0
ARC
  5
FD
330
A
100
AcDbEntity
  8
1
  6
Continuous
 62
     3
100
AcDbCircle
 10
101.265787413669
 20
935.4152387757828
 30
0.0
 40
1.0
100
AcDbArc
 50
90.0
 51
180.0
  0
ARC
  5
FC
330
A
100
AcDbEntity
  8
1
  6
Continuous
 62
     3
100
AcDbCircle
 10
101.265787413669
 20
877.4152387757828
 30
0.0
 40
1.0
100
AcDbArc
 50
180.0
 51
-90.0
  0
ARC
  5
FB
330
A
100
AcDbEntity
  8
1
  6
Continuous
 62
     3
100
AcDbCircle
 10
113.265787413669
 20
937.4152387757829
 30
0.0
 40
1.5
100
AcDbArc
 50
0.0
 51
90.0
  0
ARC
  5
FA
330
A
100
AcDbEntity
  8
1
  6
Continuous
 62
     3
100
AcDbCircle
 10
113.265787413669
 20
875.4152387757828
 30
0.0
 40
1.5
100
AcDbArc
 50
-90.00000000000401
 51
0.0
  0
ARC
  5
F9
330
A
100
AcDbEntity
  8
1
  6
Continuous
 62
     3
100
AcDbCircle
 10
552.783984190494
 20
1028.268379614498
 30
0.0
 40
1.5
100
AcDbArc
 50
-90.0
 51
0.0
  0
ARC
  5
F8
330
A
100
AcDbEntity
  8
1
  6
Continuous
 62
     3
100
AcDbCircle
 10
185.783984190494
 20
1028.268379614498
 30
0.0
 40
1.5
100
AcDbArc
 50
180.0
 51
-90.0
  0
ARC
  5
F7
330
A
100
AcDbEntity
  8
1
  6
Continuous
 62
     3
100
AcDbCircle
 10
198.783984190494
 20
1044.168379614498
 30
0.0
 40
1.0
100
AcDbArc
 50
90.0
 51
180.0
  0
ARC
  5
F6
330
A
100
AcDbEntity
  8
1
  6
Continuous
 62
     3
100
AcDbCircle
 10
539.783984190494
 20
1044.168379614498
 30
0.0
 40
1.0
100
AcDbArc
 50
0.0
 51
90.0
  0
ARC
  5
F5
330
A
100
AcDbEntity
  8
1
  6
Continuous
 62
     3
100
AcDbCircle
 10
207.283984190494
 20
756.808042037736
 30
0.0
 40
1.0
100
AcDbArc
 50
180.0
 51
-113.132396399295
  0
ARC
  5
F4
330
A
100
AcDbEntity
  8
1
  6
Continuous
 62
     3
100
AcDbCircle
 10
205.283984190494
 20
768.6824352273199
 30
0.0
 40
1.0
100
AcDbArc
 50
0.0
 51
90.0
  0
ARC
  5
F3
330
A
100
AcDbEntity
  8
1
  6
Continuous
 62
     3
100
AcDbCircle
 10
198.783984190494
 20
770.68243522732
 30
0.0
 40
1.0
100
AcDbArc
 50
180.0
 51
-90.0
  0
ARC
  5
F2
330
A
100
AcDbEntity
  8
1
  6
Continuous
 62
     3
100
AcDbCircle
 10
204.44084935751
 20
762.18243522732
 30
0.0
 40
10.0
100
AcDbArc
 50
-131.40962210927
 51
-90.0
  0
ARC
  5
F1
330
A
100
AcDbEntity
  8
1
  6
Continuous
 62
     3
100
AcDbCircle
 10
204.44084935751
 20
807.18243522732
 30
0.0
 40
10.0
100
AcDbArc
 50
90.0
 51
131.409622109271
  0
ARC
  5
F0
330
A
100
AcDbEntity
  8
1
  6
Continuous
 62
     3
100
AcDbCircle
 10
212.783984190494
 20
769.6824352273199
 30
0.0
 40
15.0
100
AcDbArc
 50
-113.132396399298
 51
-90.0
  0
ARC
  5
EF
330
A
100
AcDbEntity
  8
1
  6
Continuous
 62
     3
100
AcDbCircle
 10
212.783984190494
 20
799.68243522732
 30
0.0
 40
15.0
100
AcDbArc
 50
90.0
 51
180.0
  0
ARC
  5
EE
330
A
100
AcDbEntity
  8
1
  6
Continuous
 62
     3
100
AcDbCircle
 10
525.783984190494
 20
799.68243522732
 30
0.0
 40
15.0
100
AcDbArc
 50
0.0
 51
90.0
  0
ARC
  5
ED
330
A
100
AcDbEntity
  8
1
  6
Continuous
 62
     3
100
AcDbCircle
 10
525.783984190494
 20
769.6824352273199
 30
0.0
 40
15.0
100
AcDbArc
 50
-90.0
 51
-66.86760360070199
  0
ARC
  5
EC
330
A
100
AcDbEntity
  8
1
  6
Continuous
 62
     3
100
AcDbCircle
 10
534.127119023479
 20
807.18243522732
 30
0.0
 40
10.0
100
AcDbArc
 50
48.590377890729
 51
89.999999999999
  0
ARC
  5
EB
330
A
100
AcDbEntity
  8
1
  6
Continuous
 62
     3
100
AcDbCircle
 10
534.127119023479
 20
762.18243522732
 30
0.0
 40
10.0
100
AcDbArc
 50
-90.0
 51
-48.590377890729
  0
ARC
  5
EA
330
A
100
AcDbEntity
  8
1
  6
Continuous
 62
     3
100
AcDbCircle
 10
539.783984190494
 20
770.68243522732
 30
0.0
 40
1.0
100
AcDbArc
 50
-90.0
 51
0.0
  0
ARC
  5
E9
330
A
100
AcDbEntity
  8
1
  6
Continuous
 62
     3
100
AcDbCircle
 10
533.283984190494
 20
768.6824352273199
 30
0.0
 40
1.0
100
AcDbArc
 50
90.0
 51
180.0
  0
ARC
  5
E8
330
A
100
AcDbEntity
  8
1
  6
Continuous
 62
     3
100
AcDbCircle
 10
531.283984190494
 20
756.808042037736
 30
0.0
 40
1.000000000001
100
AcDbArc
 50
-66.867603600713
 51
0.0
  0
ARC
  5
E7
330
A
100
AcDbEntity
  8
1
  6
PHANTOM
 62
     1
100
AcDbCircle
 10
212.783984190494
 20
769.6824352273199
 30
0.0
 40
15.0
100
AcDbArc
 50
180.0
 51
-113.132396399298
  0
ARC
  5
E6
330
A
100
AcDbEntity
  8
1
  6
PHANTOM
 62
     1
100
AcDbCircle
 10
525.783984190494
 20
769.6824352273199
 30
0.0
 40
15.0
100
AcDbArc
 50
-66.86760360070199
 51
0.0
  0
ARC
  5
E5
330
A
100
AcDbEntity
  8
1
  6
PHANTOM
 62
     1
100
AcDbCircle
 10
512.283984190494
 20
1010.368379614498
 30
0.0
 40
8.600000000001999
100
AcDbArc
 50
-90.0
 51
0.0
  0
ARC
  5
E4
330
A
100
AcDbEntity
  8
1
  6
PHANTOM
 62
     1
100
AcDbCircle
 10
512.283984190494
 20
1010.368379614498
 30
0.0
 40
15.4
100
AcDbArc
 50
-90.0
 51
0.0
  0
ARC
  5
E3
330
A
100
AcDbEntity
  8
1
  6
PHANTOM
 62
     1
100
AcDbCircle
 10
226.283984190494
 20
1010.368379614498
 30
0.0
 40
15.4
100
AcDbArc
 50
180.0
 51
-90.0
  0
ARC
  5
E2
330
A
100
AcDbEntity
  8
1
  6
PHANTOM
 62
     1
100
AcDbCircle
 10
226.283984190494
 20
1010.368379614498
 30
0.0
 40
8.599999999999999
100
AcDbArc
 50
180.0
 51
-90.0
  0
CIRCLE
  5
E1
330
A
100
AcDbEntity
  8
1
  6
Continuous
 62
     3
100
AcDbCircle
 10
546.783984190494
 20
906.4152387757829
 30
0.0
 40
4.0
  0
CIRCLE
  5
E0
330
A
100
AcDbEntity
  8
1
  6
Continuous
 62
     3
100
AcDbCircle
 10
546.783984190494
 20
906.4152387757829
 30
0.0
 40
2.0
  0
CIRCLE
  5
DF
330
A
100
AcDbEntity
  8
1
  6
Continuous
 62
     3
100
AcDbCircle
 10
191.783984190494
 20
906.4152387757829
 30
0.0
 40
2.0
  0
CIRCLE
  5
DE
330
A
100
AcDbEntity
  8
1
  6
Continuous
 62
     3
100
AcDbCircle
 10
191.783984190494
 20
906.4152387757829
 30
0.0
 40
4.0
  0
CIRCLE
  5
DD
330
A
100
AcDbEntity
  8
1
  6
Continuous
 62
     3
100
AcDbCircle
 10
109.06578741367
 20
887.9152387757828
 30
0.0
 40
1.5
  0
CIRCLE
  5
DC
330
A
100
AcDbEntity
  8
1
  6
DOTTED
 62
     1
100
AcDbCircle
 10
191.783984190494
 20
784.6824352273199
 30
0.0
 40
4.0
  0
CIRCLE
  5
DB
330
A
100
AcDbEntity
  8
1
  6
Continuous
 62
     3
100
AcDbCircle
 10
191.783984190494
 20
784.6824352273199
 30
0.0
 40
2.0
  0
CIRCLE
  5
DA
330
A
100
AcDbEntity
  8
1
  6
Continuous
 62
     3
100
AcDbCircle
 10
546.783984190494
 20
784.6824352273199
 30
0.0
 40
2.0
  0
CIRCLE
  5
D9
330
A
100
AcDbEntity
  8
1
  6
DOTTED
 62
     1
100
AcDbCircle
 10
546.783984190494
 20
784.6824352273199
 30
0.0
 40
4.0
  0
ARC
  5
D8
330
A
100
AcDbEntity
  8
1
  6
Continuous
 62
     3
100
AcDbCircle
 10
514.283984190494
 20
906.4152387757829
 30
0.0
 40
40.0
100
AcDbArc
 50
-48.590377890729
 51
48.590377890729
  0
ARC
  5
D7
330
A
100
AcDbEntity
  8
1
  6
Continuous
 62
     3
100
AcDbCircle
 10
224.283984190494
 20
906.4152387757829
 30
0.0
 40
40.0
100
AcDbArc
 50
131.40962210927
 51
-131.409622109271
  0
ARC
  5
D6
330
A
100
AcDbEntity
  8
1
  6
Continuous
 62
     3
100
AcDbCircle
 10
224.283984190494
 20
784.6824352273199
 30
0.0
 40
40.0
100
AcDbArc
 50
131.40962210927
 51
-131.409622109271
  0
ARC
  5
D5
330
A
100
AcDbEntity
  8
1
  6
Continuous
 62
     3
100
AcDbCircle
 10
514.283984190494
 20
784.6824352273199
 30
0.0
 40
40.0
100
AcDbArc
 50
-48.590377890729
 51
48.590377890729
  0
ARC
  5
D4
330
A
100
AcDbEntity
  8
1
  6
PHANTOM
 62
     1
100
AcDbCircle
 10
147.065787413669
 20
887.9152387757828
 30
0.0
 40
3.399999999999999
100
AcDbArc
 50
-90.0
 51
90.0
  0
ARC
  5
D3
330
A
100
AcDbEntity
  8
1
  6
PHANTOM
 62
     1
100
AcDbCircle
 10
147.065787413669
 20
887.9152387757828
 30
0.0
 40
3.399999999999999
100
AcDbArc
 50
90.0
 51
-90.0
  0
LINE
  5
D2
330
A
100
AcDbEntity
  8
1
  6
DOTTED
 62
     1
100
AcDbLine
 10
212.783984190494
 20
936.4152387757828
 30
0.0
 11
525.783984190494
 21
936.4152387757828
 31
0.0
  0
LINE
  5
D1
330
A
100
AcDbEntity
  8
1
  6
Continuous
 62
     3
100
AcDbLine
 10
204.44084935751
 20
938.9152387757828
 30
0.0
 11
534.127119023479
 21
938.9152387757828
 31
0.0
  0
LINE
  5
D0
330
A
100
AcDbEntity
  8
1
  6
DOT_CENTER
 62
     1
100
AcDbLine
 10
172.273412886043
 20
906.4152387757829
 30
0.0
 11
567.576417628013
 21
906.4152387757829
 31
0.0
  0
LINE
  5
CF
330
A
100
AcDbEntity
  8
1
  6
Continuous
 62
     3
100
AcDbLine
 10
211.283984190494
 20
933.9152387757829
 30
0.0
 11
527.283984190494
 21
933.9152387757829
 31
0.0
  0
LINE
  5
CE
330
A
100
AcDbEntity
  8
1
  6
Continuous
 62
     3
100
AcDbLine
 10
226.283984190494
 20
929.315238775783
 30
0.0
 11
512.283984190494
 21
929.315238775783
 31
0.0
  0
LINE
  5
CD
330
A
100
AcDbEntity
  8
1
  6
Continuous
 62
     3
100
AcDbLine
 10
226.283984190494
 20
922.5152387757841
 30
0.0
 11
512.283984190494
 21
922.5152387757841
 31
0.0
  0
LINE
  5
CC
330
A
100
AcDbEntity
  8
1
  6
DOTTED
 62
     1
100
AcDbLine
 10
532.283984190494
 20
886.4152387757828
 30
0.0
 11
518.283984190494
 21
886.4152387757828
 31
0.0
  0
LINE
  5
CB
330
A
100
AcDbEntity
  8
1
  6
DOTTED
 62
     1
100
AcDbLine
 10
518.283984190494
 20
886.4152387757828
 30
0.0
 11
518.283984190494
 21
889.4152387757829
 31
0.0
  0
LINE
  5
CA
330
A
100
AcDbEntity
  8
1
  6
DOTTED
 62
     1
100
AcDbLine
 10
518.283984190494
 20
889.4152387757829
 30
0.0
 11
532.283984190494
 21
889.4152387757829
 31
0.0
  0
LINE
  5
C9
330
A
100
AcDbEntity
  8
1
  6
DOTTED
 62
     1
100
AcDbLine
 10
532.283984190494
 20
878.5408455861999
 30
0.0
 11
532.283984190494
 21
890.4152387757829
 31
0.0
  0
LINE
  5
C8
330
A
100
AcDbEntity
  8
1
  6
DOTTED
 62
     1
100
AcDbLine
 10
533.283984190494
 20
891.4152387757829
 30
0.0
 11
539.783984190494
 21
891.4152387757829
 31
0.0
  0
LINE
  5
C7
330
A
100
AcDbEntity
  8
1
  6
Continuous
 62
     3
100
AcDbLine
 10
520.283984190494
 20
879.9152387757828
 30
0.0
 11
520.533984190494
 21
879.9152387757828
 31
0.0
  0
LINE
  5
C6
330
A
100
AcDbEntity
  8
1
  6
Continuous
 62
     6
100
AcDbLine
 10
520.533984190494
 20
878.9152387757829
 30
0.0
 11
520.533984190494
 21
879.9152387757828
 31
0.0
  0
LINE
  5
C5
330
A
100
AcDbEntity
  8
1
  6
Continuous
 62
     6
100
AcDbLine
 10
528.033984190494
 20
879.0611891540089
 30
0.0
 11
528.033984190494
 21
879.9152387757828
 31
0.0
  0
LINE
  5
C4
330
A
100
AcDbEntity
  8
1
  6
DOTTED
 62
     1
100
AcDbLine
 10
520.533984190494
 20
879.9152387757828
 30
0.0
 11
528.033984190494
 21
879.9152387757828
 31
0.0
  0
LINE
  5
C3
330
A
100
AcDbEntity
  8
1
  6
DOTTED
 62
     1
100
AcDbLine
 10
520.283984190494
 20
877.9152387757829
 30
0.0
 11
520.533984190494
 21
877.9152387757829
 31
0.0
  0
LINE
  5
C2
330
A
100
AcDbEntity
  8
1
  6
DOTTED
 62
     1
100
AcDbLine
 10
520.533984190494
 20
877.9152387757829
 30
0.0
 11
520.533984190494
 21
878.9152387757829
 31
0.0
  0
LINE
  5
C1
330
A
100
AcDbEntity
  8
1
  6
DOTTED
 62
     1
100
AcDbLine
 10
528.033984190494
 20
877.9152387757829
 30
0.0
 11
528.033984190494
 21
878.2152387757829
 31
0.0
  0
LINE
  5
C0
330
A
100
AcDbEntity
  8
1
  6
DOTTED
 62
     1
100
AcDbLine
 10
520.533984190494
 20
878.2152387757829
 30
0.0
 11
528.033984190494
 21
878.2152387757829
 31
0.0
  0
LINE
  5
BF
330
A
100
AcDbEntity
  8
1
  6
DOTTED
 62
     1
100
AcDbLine
 10
520.533984190494
 20
877.9152387757829
 30
0.0
 11
528.033984190494
 21
877.9152387757829
 31
0.0
  0
LINE
  5
BE
330
A
100
AcDbEntity
  8
1
  6
DOTTED
 62
     1
100
AcDbLine
 10
528.033984190494
 20
878.2152387757829
 30
0.0
 11
528.033984190494
 21
879.0611891540089
 31
0.0
  0
LINE
  5
BD
330
A
100
AcDbEntity
  8
1
  6
Continuous
 62
     6
100
AcDbLine
 10
520.533984190494
 20
879.9152387757828
 30
0.0
 11
520.533984190494
 21
882.4152387757829
 31
0.0
  0
LINE
  5
BC
330
A
100
AcDbEntity
  8
1
  6
Continuous
 62
     6
100
AcDbLine
 10
528.033984190494
 20
879.9152387757828
 30
0.0
 11
528.033984190494
 21
882.4152387757829
 31
0.0
  0
LINE
  5
BB
330
A
100
AcDbEntity
  8
1
  6
Continuous
 62
     6
100
AcDbLine
 10
520.533984190494
 20
882.4152387757829
 30
0.0
 11
521.3839841904939
 21
882.4152387757829
 31
0.0
  0
LINE
  5
BA
330
A
100
AcDbEntity
  8
1
  6
Continuous
 62
     6
100
AcDbLine
 10
527.183984190494
 20
882.4152387757829
 30
0.0
 11
528.033984190494
 21
882.4152387757829
 31
0.0
  0
LINE
  5
B9
330
A
100
AcDbEntity
  8
1
  6
Continuous
 62
     6
100
AcDbLine
 10
520.533984190494
 20
882.1152387757839
 30
0.0
 11
528.033984190494
 21
882.1152387757839
 31
0.0
  0
LINE
  5
B8
330
A
100
AcDbEntity
  8
1
  6
DOTTED
 62
     1
100
AcDbLine
 10
520.283984190494
 20
878.9152387757829
 30
0.0
 11
520.283984190494
 21
877.9152387757829
 31
0.0
  0
LINE
  5
B7
330
A
100
AcDbEntity
  8
1
  6
DOTTED
 62
     1
100
AcDbLine
 10
528.033984190494
 20
877.9152387757829
 30
0.0
 11
528.283984190494
 21
877.9152387757829
 31
0.0
  0
LINE
  5
B6
330
A
100
AcDbEntity
  8
1
  6
DOTTED
 62
     1
100
AcDbLine
 10
528.283984190494
 20
877.9152387757829
 30
0.0
 11
528.283984190494
 21
879.1831879682138
 31
0.0
  0
LINE
  5
B5
330
A
100
AcDbEntity
  8
1
  6
Continuous
 62
     3
100
AcDbLine
 10
528.033984190494
 20
879.9152387757828
 30
0.0
 11
528.283984190494
 21
879.9152387757828
 31
0.0
  0
LINE
  5
B4
330
A
100
AcDbEntity
  8
1
  6
Continuous
 62
     3
100
AcDbLine
 10
527.683984190494
 20
893.9152387757829
 30
0.0
 11
528.283984190494
 21
893.9152387757829
 31
0.0
  0
LINE
  5
B3
330
A
100
AcDbEntity
  8
1
  6
Continuous
 62
     3
100
AcDbLine
 10
528.283984190494
 20
879.1831879682138
 30
0.0
 11
528.283984190494
 21
893.9152387757829
 31
0.0
  0
LINE
  5
B2
330
A
100
AcDbEntity
  8
1
  6
Continuous
 62
     3
100
AcDbLine
 10
516.783984190494
 20
893.9152387757829
 30
0.0
 11
520.6839841904939
 21
893.9152387757829
 31
0.0
  0
LINE
  5
B1
330
A
100
AcDbEntity
  8
1
  6
Continuous
 62
     3
100
AcDbLine
 10
520.283984190494
 20
878.9152387757829
 30
0.0
 11
520.283984190494
 21
893.9152387757829
 31
0.0
  0
LINE
  5
B0
330
A
100
AcDbEntity
  8
1
  6
Continuous
 62
     3
100
AcDbLine
 10
516.283984190494
 20
878.9152387757829
 30
0.0
 11
516.283984190494
 21
893.4152387757828
 31
0.0
  0
LINE
  5
AF
330
A
100
AcDbEntity
  8
1
  6
Continuous
 62
     3
100
AcDbLine
 10
520.6839841904939
 20
893.9152387757829
 30
0.0
 11
520.8839841904939
 21
893.9152387757829
 31
0.0
  0
LINE
  5
AE
330
A
100
AcDbEntity
  8
1
  6
Continuous
 62
     3
100
AcDbLine
 10
520.8839841904939
 20
913.9152387757828
 30
0.0
 11
520.8839841904939
 21
882.9152387757828
 31
0.0
  0
LINE
  5
AD
330
A
100
AcDbEntity
  8
1
  6
DOTTED
 62
     1
100
AcDbLine
 10
520.8839841904939
 20
893.9152387757829
 30
0.0
 11
527.683984190494
 21
893.9152387757829
 31
0.0
  0
LINE
  5
AC
330
A
100
AcDbEntity
  8
1
  6
Continuous
 62
     3
100
AcDbLine
 10
527.683984190494
 20
913.9152387757828
 30
0.0
 11
527.683984190494
 21
882.9152387757828
 31
0.0
  0
LINE
  5
AB
330
A
100
AcDbEntity
  8
1
  6
Continuous
 62
     3
100
AcDbLine
 10
529.283984190494
 20
931.9152387757828
 30
0.0
 11
529.283984190494
 21
893.9152387757829
 31
0.0
  0
LINE
  5
AA
330
A
100
AcDbEntity
  8
1
  6
Continuous
 62
     3
100
AcDbLine
 10
528.283984190494
 20
893.9152387757829
 30
0.0
 11
529.283984190494
 21
893.9152387757829
 31
0.0
  0
LINE
  5
A9
330
A
100
AcDbEntity
  8
1
  6
Continuous
 62
     1
100
AcDbLine
 10
520.8839841904939
 20
882.9152387757828
 30
0.0
 11
527.683984190494
 21
882.9152387757828
 31
0.0
  0
LINE
  5
A8
330
A
100
AcDbEntity
  8
1
  6
Continuous
 62
     3
100
AcDbLine
 10
520.8839841904939
 20
882.9152387757828
 30
0.0
 11
521.3839841904939
 21
882.4152387757829
 31
0.0
  0
LINE
  5
A7
330
A
100
AcDbEntity
  8
1
  6
Continuous
 62
     3
100
AcDbLine
 10
527.683984190494
 20
882.9152387757828
 30
0.0
 11
527.183984190494
 21
882.4152387757829
 31
0.0
  0
LINE
  5
A6
330
A
100
AcDbEntity
  8
1
  6
Continuous
 62
     3
100
AcDbLine
 10
527.183984190494
 20
882.4152387757829
 30
0.0
 11
521.3839841904939
 21
882.4152387757829
 31
0.0
  0
LINE
  5
A5
330
A
100
AcDbEntity
  8
1
  6
Continuous
 62
     3
100
AcDbLine
 10
529.283984190494
 20
893.9152387757829
 30
0.0
 11
529.283984190494
 21
880.9152387757828
 31
0.0
  0
LINE
  5
A4
330
A
100
AcDbEntity
  8
1
  6
DOT_CENTER
 62
     1
100
AcDbLine
 10
507.101312325435
 20
887.9152387757828
 30
0.0
 11
558.751312325435
 21
887.9152387757828
 31
0.0
  0
LINE
  5
A3
330
A
100
AcDbEntity
  8
1
  6
DOT_CENTER
 62
     1
100
AcDbLine
 10
546.783984190494
 20
893.9521687348531
 30
0.0
 11
546.783984190494
 21
917.9656321864429
 31
0.0
  0
LINE
  5
A2
330
A
100
AcDbEntity
  8
1
  6
DOTTED
 62
     1
100
AcDbLine
 10
540.783984190494
 20
921.4152387757829
 30
0.0
 11
540.783984190494
 21
892.4152387757828
 31
0.0
  0
LINE
  5
A1
330
A
100
AcDbEntity
  8
1
  6
Continuous
 62
     3
100
AcDbLine
 10
204.44084935751
 20
873.9152387757828
 30
0.0
 11
534.127119023479
 21
873.9152387757828
 31
0.0
  0
LINE
  5
A0
330
A
100
AcDbEntity
  8
1
  6
DOTTED
 62
     1
100
AcDbLine
 10
197.783984190494
 20
892.4152387757828
 30
0.0
 11
197.783984190494
 21
921.4152387757829
 31
0.0
  0
LINE
  5
9F
330
A
100
AcDbEntity
  8
1
  6
DOT_CENTER
 62
     1
100
AcDbLine
 10
191.783984190494
 20
917.9656321864429
 30
0.0
 11
191.783984190494
 21
893.9521687348531
 31
0.0
  0
LINE
  5
9E
330
A
100
AcDbEntity
  8
1
  6
DOT_CENTER
 62
     1
100
AcDbLine
 10
179.816656055553
 20
887.9152387757828
 30
0.0
 11
231.466656055553
 21
887.9152387757828
 31
0.0
  0
LINE
  5
9D
330
A
100
AcDbEntity
  8
1
  6
Continuous
 62
     3
100
AcDbLine
 10
209.283984190494
 20
880.9152387757828
 30
0.0
 11
209.283984190494
 21
893.9152387757829
 31
0.0
  0
LINE
  5
9C
330
A
100
AcDbEntity
  8
1
  6
Continuous
 62
     3
100
AcDbLine
 10
217.183984190494
 20
882.4152387757829
 30
0.0
 11
211.383984190494
 21
882.4152387757829
 31
0.0
  0
LINE
  5
9B
330
A
100
AcDbEntity
  8
1
  6
Continuous
 62
     3
100
AcDbLine
 10
211.383984190494
 20
882.4152387757829
 30
0.0
 11
210.883984190494
 21
882.9152387757828
 31
0.0
  0
LINE
  5
9A
330
A
100
AcDbEntity
  8
1
  6
Continuous
 62
     3
100
AcDbLine
 10
217.183984190494
 20
882.4152387757829
 30
0.0
 11
217.683984190494
 21
882.9152387757828
 31
0.0
  0
LINE
  5
99
330
A
100
AcDbEntity
  8
1
  6
Continuous
 62
     1
100
AcDbLine
 10
210.883984190494
 20
882.9152387757828
 30
0.0
 11
217.683984190494
 21
882.9152387757828
 31
0.0
  0
LINE
  5
98
330
A
100
AcDbEntity
  8
1
  6
Continuous
 62
     3
100
AcDbLine
 10
209.283984190494
 20
893.9152387757829
 30
0.0
 11
210.283984190494
 21
893.9152387757829
 31
0.0
  0
LINE
  5
97
330
A
100
AcDbEntity
  8
1
  6
Continuous
 62
     3
100
AcDbLine
 10
209.283984190494
 20
893.9152387757829
 30
0.0
 11
209.283984190494
 21
931.9152387757828
 31
0.0
  0
LINE
  5
96
330
A
100
AcDbEntity
  8
1
  6
Continuous
 62
     3
100
AcDbLine
 10
210.883984190494
 20
882.9152387757828
 30
0.0
 11
210.883984190494
 21
913.9152387757828
 31
0.0
  0
LINE
  5
95
330
A
100
AcDbEntity
  8
1
  6
DOTTED
 62
     1
100
AcDbLine
 10
210.883984190494
 20
893.9152387757829
 30
0.0
 11
217.683984190494
 21
893.9152387757829
 31
0.0
  0
LINE
  5
94
330
A
100
AcDbEntity
  8
1
  6
Continuous
 62
     3
100
AcDbLine
 10
217.683984190494
 20
882.9152387757828
 30
0.0
 11
217.683984190494
 21
913.9152387757828
 31
0.0
  0
LINE
  5
93
330
A
100
AcDbEntity
  8
1
  6
Continuous
 62
     3
100
AcDbLine
 10
217.683984190494
 20
893.9152387757829
 30
0.0
 11
217.883984190494
 21
893.9152387757829
 31
0.0
  0
LINE
  5
92
330
A
100
AcDbEntity
  8
1
  6
Continuous
 62
     3
100
AcDbLine
 10
222.283984190494
 20
893.4152387757828
 30
0.0
 11
222.283984190494
 21
878.9152387757829
 31
0.0
  0
LINE
  5
91
330
A
100
AcDbEntity
  8
1
  6
Continuous
 62
     3
100
AcDbLine
 10
527.283984190494
 20
878.9152387757829
 30
0.0
 11
211.283984190494
 21
878.9152387757829
 31
0.0
  0
LINE
  5
90
330
A
100
AcDbEntity
  8
1
  6
Continuous
 62
     3
100
AcDbLine
 10
218.283984190494
 20
893.9152387757829
 30
0.0
 11
218.283984190494
 21
878.9152387757829
 31
0.0
  0
LINE
  5
8F
330
A
100
AcDbEntity
  8
1
  6
Continuous
 62
     3
100
AcDbLine
 10
217.883984190494
 20
893.9152387757829
 30
0.0
 11
221.783984190494
 21
893.9152387757829
 31
0.0
  0
LINE
  5
8E
330
A
100
AcDbEntity
  8
1
  6
Continuous
 62
     3
100
AcDbLine
 10
210.283984190494
 20
893.9152387757829
 30
0.0
 11
210.283984190494
 21
879.1831879682138
 31
0.0
  0
LINE
  5
8D
330
A
100
AcDbEntity
  8
1
  6
Continuous
 62
     3
100
AcDbLine
 10
210.283984190494
 20
893.9152387757829
 30
0.0
 11
210.883984190494
 21
893.9152387757829
 31
0.0
  0
LINE
  5
8C
330
A
100
AcDbEntity
  8
1
  6
Continuous
 62
     3
100
AcDbLine
 10
210.283984190494
 20
879.9152387757828
 30
0.0
 11
210.533984190494
 21
879.9152387757828
 31
0.0
  0
LINE
  5
8B
330
A
100
AcDbEntity
  8
1
  6
DOTTED
 62
     1
100
AcDbLine
 10
210.283984190494
 20
879.1831879682138
 30
0.0
 11
210.283984190494
 21
877.9152387757829
 31
0.0
  0
LINE
  5
8A
330
A
100
AcDbEntity
  8
1
  6
DOTTED
 62
     1
100
AcDbLine
 10
210.283984190494
 20
877.9152387757829
 30
0.0
 11
210.533984190494
 21
877.9152387757829
 31
0.0
  0
LINE
  5
89
330
A
100
AcDbEntity
  8
1
  6
DOTTED
 62
     1
100
AcDbLine
 10
218.283984190494
 20
877.9152387757829
 30
0.0
 11
218.283984190494
 21
878.9152387757829
 31
0.0
  0
LINE
  5
88
330
A
100
AcDbEntity
  8
1
  6
Continuous
 62
     6
100
AcDbLine
 10
210.533984190494
 20
882.1152387757839
 30
0.0
 11
218.033984190494
 21
882.1152387757839
 31
0.0
  0
LINE
  5
87
330
A
100
AcDbEntity
  8
1
  6
Continuous
 62
     6
100
AcDbLine
 10
210.533984190494
 20
882.4152387757829
 30
0.0
 11
211.383984190494
 21
882.4152387757829
 31
0.0
  0
LINE
  5
86
330
A
100
AcDbEntity
  8
1
  6
Continuous
 62
     6
100
AcDbLine
 10
217.183984190494
 20
882.4152387757829
 30
0.0
 11
218.033984190494
 21
882.4152387757829
 31
0.0
  0
LINE
  5
85
330
A
100
AcDbEntity
  8
1
  6
Continuous
 62
     6
100
AcDbLine
 10
210.533984190494
 20
882.4152387757829
 30
0.0
 11
210.533984190494
 21
879.9152387757828
 31
0.0
  0
LINE
  5
84
330
A
100
AcDbEntity
  8
1
  6
Continuous
 62
     6
100
AcDbLine
 10
218.033984190494
 20
882.4152387757829
 30
0.0
 11
218.033984190494
 21
879.9152387757828
 31
0.0
  0
LINE
  5
83
330
A
100
AcDbEntity
  8
1
  6
DOTTED
 62
     1
100
AcDbLine
 10
210.533984190494
 20
879.0611891540089
 30
0.0
 11
210.533984190494
 21
878.2152387757829
 31
0.0
  0
LINE
  5
82
330
A
100
AcDbEntity
  8
1
  6
DOTTED
 62
     1
100
AcDbLine
 10
210.533984190494
 20
877.9152387757829
 30
0.0
 11
218.033984190494
 21
877.9152387757829
 31
0.0
  0
LINE
  5
81
330
A
100
AcDbEntity
  8
1
  6
DOTTED
 62
     1
100
AcDbLine
 10
210.533984190494
 20
878.2152387757829
 30
0.0
 11
218.033984190494
 21
878.2152387757829
 31
0.0
  0
LINE
  5
80
330
A
100
AcDbEntity
  8
1
  6
DOTTED
 62
     1
100
AcDbLine
 10
210.533984190494
 20
878.2152387757829
 30
0.0
 11
210.533984190494
 21
877.9152387757829
 31
0.0
  0
LINE
  5
7F
330
A
100
AcDbEntity
  8
1
  6
DOTTED
 62
     1
100
AcDbLine
 10
218.033984190494
 20
878.9152387757829
 30
0.0
 11
218.033984190494
 21
877.9152387757829
 31
0.0
  0
LINE
  5
7E
330
A
100
AcDbEntity
  8
1
  6
DOTTED
 62
     1
100
AcDbLine
 10
218.033984190494
 20
877.9152387757829
 30
0.0
 11
218.283984190494
 21
877.9152387757829
 31
0.0
  0
LINE
  5
7D
330
A
100
AcDbEntity
  8
1
  6
DOTTED
 62
     1
100
AcDbLine
 10
210.533984190494
 20
879.9152387757828
 30
0.0
 11
218.033984190494
 21
879.9152387757828
 31
0.0
  0
LINE
  5
7C
330
A
100
AcDbEntity
  8
1
  6
Continuous
 62
     6
100
AcDbLine
 10
210.533984190494
 20
879.9152387757828
 30
0.0
 11
210.533984190494
 21
879.0611891540089
 31
0.0
  0
LINE
  5
7B
330
A
100
AcDbEntity
  8
1
  6
Continuous
 62
     6
100
AcDbLine
 10
218.033984190494
 20
879.9152387757828
 30
0.0
 11
218.033984190494
 21
878.9152387757829
 31
0.0
  0
LINE
  5
7A
330
A
100
AcDbEntity
  8
1
  6
Continuous
 62
     3
100
AcDbLine
 10
218.033984190494
 20
879.9152387757828
 30
0.0
 11
218.283984190494
 21
879.9152387757828
 31
0.0
  0
LINE
  5
79
330
A
100
AcDbEntity
  8
1
  6
DOTTED
 62
     1
100
AcDbLine
 10
198.783984190494
 20
891.4152387757829
 30
0.0
 11
205.283984190494
 21
891.4152387757829
 31
0.0
  0
LINE
  5
78
330
A
100
AcDbEntity
  8
1
  6
DOTTED
 62
     1
100
AcDbLine
 10
206.283984190494
 20
890.4152387757829
 30
0.0
 11
206.283984190494
 21
878.5408455861999
 31
0.0
  0
LINE
  5
77
330
A
100
AcDbEntity
  8
1
  6
DOTTED
 62
     1
100
AcDbLine
 10
206.283984190494
 20
889.4152387757829
 30
0.0
 11
220.283984190494
 21
889.4152387757829
 31
0.0
  0
LINE
  5
76
330
A
100
AcDbEntity
  8
1
  6
DOTTED
 62
     1
100
AcDbLine
 10
220.283984190494
 20
889.4152387757829
 30
0.0
 11
220.283984190494
 21
886.4152387757828
 31
0.0
  0
LINE
  5
75
330
A
100
AcDbEntity
  8
1
  6
DOTTED
 62
     1
100
AcDbLine
 10
220.283984190494
 20
886.4152387757828
 30
0.0
 11
206.283984190494
 21
886.4152387757828
 31
0.0
  0
LINE
  5
74
330
A
100
AcDbEntity
  8
1
  6
DOTTED
 62
     1
100
AcDbLine
 10
525.783984190494
 20
876.4152387757828
 30
0.0
 11
212.783984190494
 21
876.4152387757828
 31
0.0
  0
LINE
  5
73
330
A
100
AcDbEntity
  8
1
  6
DOT_CENTER
 62
     1
100
AcDbLine
 10
109.065787413669
 20
893.3711442890549
 30
0.0
 11
109.06578741367
 21
883.125186980035
 31
0.0
  0
LINE
  5
72
330
A
100
AcDbEntity
  8
1
  6
DOT_CENTER
 62
     1
100
AcDbLine
 10
104.623861893018
 20
887.9152387757828
 30
0.0
 11
113.565788271799
 21
887.9152387757828
 31
0.0
  0
LINE
  5
71
330
A
100
AcDbEntity
  8
1
  6
Continuous
 62
     3
100
AcDbLine
 10
100.265787413669
 20
892.4152387757828
 30
0.0
 11
100.265787413669
 21
877.4152387757828
 31
0.0
  0
LINE
  5
70
330
A
100
AcDbEntity
  8
1
  6
Continuous
 62
     3
100
AcDbLine
 10
111.365787413669
 20
891.4152387757829
 30
0.0
 11
111.365787413669
 21
936.4152387757828
 31
0.0
  0
LINE
  5
6F
330
A
100
AcDbEntity
  8
1
  6
Continuous
 62
     3
100
AcDbLine
 10
101.265787413669
 20
891.4152387757829
 30
0.0
 11
111.365787413669
 21
891.4152387757829
 31
0.0
  0
LINE
  5
6E
330
A
100
AcDbEntity
  8
1
  6
Continuous
 62
     3
100
AcDbLine
 10
111.365787413669
 20
876.4152387757828
 30
0.0
 11
111.365787413669
 21
891.3152387757829
 31
0.0
  0
LINE
  5
6D
330
A
100
AcDbEntity
  8
1
  6
Continuous
 62
     3
100
AcDbLine
 10
101.265787413669
 20
876.4152387757828
 30
0.0
 11
111.365787413669
 21
876.4152387757828
 31
0.0
  0
LINE
  5
6C
330
A
100
AcDbEntity
  8
1
  6
Continuous
 62
     3
100
AcDbLine
 10
100.265787413669
 20
935.4152387757828
 30
0.0
 11
100.265787413669
 21
892.4152387757828
 31
0.0
  0
LINE
  5
6B
330
A
100
AcDbEntity
  8
1
  6
Continuous
 62
     3
100
AcDbLine
 10
111.365787413669
 20
936.4152387757828
 30
0.0
 11
111.365787413669
 21
938.9152387757828
 31
0.0
  0
LINE
  5
6A
330
A
100
AcDbEntity
  8
1
  6
Continuous
 62
     3
100
AcDbLine
 10
111.365787413669
 20
936.4152387757828
 30
0.0
 11
101.265787413669
 21
936.4152387757828
 31
0.0
  0
LINE
  5
69
330
A
100
AcDbEntity
  8
1
  6
Continuous
 62
     3
100
AcDbLine
 10
111.365787413669
 20
873.9152387757828
 30
0.0
 11
111.365787413669
 21
876.4152387757828
 31
0.0
  0
LINE
  5
68
330
A
100
AcDbEntity
  8
1
  6
Continuous
 62
     3
100
AcDbLine
 10
113.265787413669
 20
873.9152387757828
 30
0.0
 11
111.365787413669
 21
873.9152387757828
 31
0.0
  0
LINE
  5
67
330
A
100
AcDbEntity
  8
1
  6
Continuous
 62
     3
100
AcDbLine
 10
114.765787413669
 20
937.4152387757829
 30
0.0
 11
114.765787413669
 21
891.3152387757829
 31
0.0
  0
LINE
  5
66
330
A
100
AcDbEntity
  8
1
  6
Continuous
 62
     3
100
AcDbLine
 10
111.365787413669
 20
938.9152387757828
 30
0.0
 11
113.265787413669
 21
938.9152387757828
 31
0.0
  0
LINE
  5
65
330
A
100
AcDbEntity
  8
1
  6
Continuous
 62
     3
100
AcDbLine
 10
198.783984190494
 20
1045.168379614498
 30
0.0
 11
539.783984190494
 21
1045.168379614498
 31
0.0
  0
LINE
  5
64
330
A
100
AcDbEntity
  8
1
  6
Continuous
 62
     3
100
AcDbLine
 10
540.783984190494
 20
1044.168379614498
 30
0.0
 11
540.783984190494
 21
1030.168379614498
 31
0.0
  0
LINE
  5
63
330
A
100
AcDbEntity
  8
1
  6
Continuous
 62
     3
100
AcDbLine
 10
197.783984190494
 20
1030.168379614498
 30
0.0
 11
197.783984190494
 21
1044.168379614498
 31
0.0
  0
LINE
  5
62
330
A
100
AcDbEntity
  8
1
  6
Continuous
 62
     3
100
AcDbLine
 10
554.283984190494
 20
1030.168379614498
 30
0.0
 11
554.283984190494
 21
1028.268379614498
 31
0.0
  0
LINE
  5
61
330
A
100
AcDbEntity
  8
1
  6
Continuous
 62
     3
100
AcDbLine
 10
552.783984190494
 20
1026.768379614498
 30
0.0
 11
185.783984190494
 21
1026.768379614498
 31
0.0
  0
LINE
  5
60
330
A
100
AcDbEntity
  8
1
  6
Continuous
 62
     3
100
AcDbLine
 10
184.283984190494
 20
1028.268379614498
 30
0.0
 11
184.283984190494
 21
1030.168379614498
 31
0.0
  0
LINE
  5
5F
330
A
100
AcDbEntity
  8
1
  6
DOT_CENTER
 62
     1
100
AcDbLine
 10
369.283984190494
 20
1053.598604705145
 30
0.0
 11
369.283984190494
 21
1018.038604705144
 31
0.0
  0
LINE
  5
5E
330
A
100
AcDbEntity
  8
1
  6
DOTTED
 62
     1
100
AcDbLine
 10
187.783984190494
 20
1026.768379614498
 30
0.0
 11
187.783984190494
 21
1028.268379614498
 31
0.0
  0
LINE
  5
5D
330
A
100
AcDbEntity
  8
1
  6
DOTTED
 62
     1
100
AcDbLine
 10
187.783984190494
 20
1028.268379614498
 30
0.0
 11
189.783984190494
 21
1028.268379614498
 31
0.0
  0
LINE
  5
5C
330
A
100
AcDbEntity
  8
1
  6
DOTTED
 62
     1
100
AcDbLine
 10
195.783984190494
 20
1028.268379614498
 30
0.0
 11
195.783984190494
 21
1026.768379614498
 31
0.0
  0
LINE
  5
5B
330
A
100
AcDbEntity
  8
1
  6
DOTTED
 62
     1
100
AcDbLine
 10
189.783984190494
 20
1030.168379614498
 30
0.0
 11
189.783984190494
 21
1028.268379614498
 31
0.0
  0
LINE
  5
5A
330
A
100
AcDbEntity
  8
1
  6
DOTTED
 62
     1
100
AcDbLine
 10
189.783984190494
 20
1028.268379614498
 30
0.0
 11
193.783984190494
 21
1028.268379614498
 31
0.0
  0
LINE
  5
59
330
A
100
AcDbEntity
  8
1
  6
DOTTED
 62
     1
100
AcDbLine
 10
193.783984190494
 20
1030.168379614498
 30
0.0
 11
193.783984190494
 21
1028.268379614498
 31
0.0
  0
LINE
  5
58
330
A
100
AcDbEntity
  8
1
  6
Continuous
 62
     3
100
AcDbLine
 10
184.283984190494
 20
1030.168379614498
 30
0.0
 11
554.283984190494
 21
1030.168379614498
 31
0.0
  0
LINE
  5
57
330
A
100
AcDbEntity
  8
1
  6
DOTTED
 62
     1
100
AcDbLine
 10
193.783984190494
 20
1028.268379614498
 30
0.0
 11
195.783984190494
 21
1028.268379614498
 31
0.0
  0
LINE
  5
56
330
A
100
AcDbEntity
  8
1
  6
DOT_CENTER
 62
     1
100
AcDbLine
 10
191.783984190494
 20
1036.512117086475
 30
0.0
 11
191.783984190494
 21
1023.972117086475
 31
0.0
  0
LINE
  5
55
330
A
100
AcDbEntity
  8
1
  6
DOT_CENTER
 62
     1
100
AcDbLine
 10
546.783984190494
 20
1023.972117086475
 30
0.0
 11
546.783984190494
 21
1036.512117086475
 31
0.0
  0
LINE
  5
54
330
A
100
AcDbEntity
  8
1
  6
DOTTED
 62
     1
100
AcDbLine
 10
542.783984190494
 20
1028.268379614498
 30
0.0
 11
544.783984190494
 21
1028.268379614498
 31
0.0
  0
LINE
  5
53
330
A
100
AcDbEntity
  8
1
  6
DOTTED
 62
     1
100
AcDbLine
 10
544.783984190494
 20
1028.268379614498
 30
0.0
 11
544.783984190494
 21
1030.168379614498
 31
0.0
  0
LINE
  5
52
330
A
100
AcDbEntity
  8
1
  6
DOTTED
 62
     1
100
AcDbLine
 10
544.783984190494
 20
1028.268379614498
 30
0.0
 11
548.783984190494
 21
1028.268379614498
 31
0.0
  0
LINE
  5
51
330
A
100
AcDbEntity
  8
1
  6
DOTTED
 62
     1
100
AcDbLine
 10
548.783984190494
 20
1028.268379614498
 30
0.0
 11
548.783984190494
 21
1030.168379614498
 31
0.0
  0
LINE
  5
50
330
A
100
AcDbEntity
  8
1
  6
DOTTED
 62
     1
100
AcDbLine
 10
542.783984190494
 20
1026.768379614498
 30
0.0
 11
542.783984190494
 21
1028.268379614498
 31
0.0
  0
LINE
  5
4F
330
A
100
AcDbEntity
  8
1
  6
DOTTED
 62
     1
100
AcDbLine
 10
548.783984190494
 20
1028.268379614498
 30
0.0
 11
550.783984190494
 21
1028.268379614498
 31
0.0
  0
LINE
  5
4E
330
A
100
AcDbEntity
  8
1
  6
DOTTED
 62
     1
100
AcDbLine
 10
550.783984190494
 20
1028.268379614498
 30
0.0
 11
550.783984190494
 21
1026.768379614498
 31
0.0
  0
LINE
  5
4D
330
A
100
AcDbEntity
  8
1
  6
DOT_CENTER
 62
     1
100
AcDbLine
 10
369.283984190494
 20
944.7079607189039
 30
0.0
 11
369.283984190494
 21
866.2925428294839
 31
0.0
  0
LINE
  5
4C
330
A
100
AcDbEntity
  8
1
  6
Continuous
 62
     3
100
AcDbLine
 10
525.783984190494
 20
754.6824352273199
 30
0.0
 11
212.783984190494
 21
754.6824352273199
 31
0.0
  0
LINE
  5
4B
330
A
100
AcDbEntity
  8
1
  6
Continuous
 62
     3
100
AcDbLine
 10
206.283984190494
 20
768.6824352273199
 30
0.0
 11
206.283984190494
 21
756.808042037736
 31
0.0
  0
LINE
  5
4A
330
A
100
AcDbEntity
  8
1
  6
Continuous
 62
     3
100
AcDbLine
 10
198.783984190494
 20
769.6824352273199
 30
0.0
 11
205.283984190494
 21
769.6824352273199
 31
0.0
  0
LINE
  5
49
330
A
100
AcDbEntity
  8
1
  6
DOT_CENTER
 62
     1
100
AcDbLine
 10
191.783984190494
 20
796.23282863798
 30
0.0
 11
191.783984190494
 21
772.21936518639
 31
0.0
  0
LINE
  5
48
330
A
100
AcDbEntity
  8
1
  6
Continuous
 62
     3
100
AcDbLine
 10
197.783984190494
 20
770.68243522732
 30
0.0
 11
197.783984190494
 21
799.68243522732
 31
0.0
  0
LINE
  5
47
330
A
100
AcDbEntity
  8
1
  6
Continuous
 62
     3
100
AcDbLine
 10
204.44084935751
 20
752.1824352273199
 30
0.0
 11
534.127119023479
 21
752.1824352273199
 31
0.0
  0
LINE
  5
46
330
A
100
AcDbEntity
  8
1
  6
Continuous
 62
     3
100
AcDbLine
 10
540.783984190494
 20
799.68243522732
 30
0.0
 11
540.783984190494
 21
770.68243522732
 31
0.0
  0
LINE
  5
45
330
A
100
AcDbEntity
  8
1
  6
DOT_CENTER
 62
     1
100
AcDbLine
 10
546.783984190494
 20
772.21936518639
 30
0.0
 11
546.783984190494
 21
796.23282863798
 31
0.0
  0
LINE
  5
44
330
A
100
AcDbEntity
  8
1
  6
Continuous
 62
     3
100
AcDbLine
 10
533.283984190494
 20
769.6824352273199
 30
0.0
 11
539.783984190494
 21
769.6824352273199
 31
0.0
  0
LINE
  5
43
330
A
100
AcDbEntity
  8
1
  6
Continuous
 62
     3
100
AcDbLine
 10
532.283984190494
 20
756.808042037736
 30
0.0
 11
532.283984190494
 21
768.6824352273199
 31
0.0
  0
LINE
  5
42
330
A
100
AcDbEntity
  8
1
  6
DOT_CENTER
 62
     1
100
AcDbLine
 10
369.283984190494
 20
825.1919624568799
 30
0.0
 11
369.283984190494
 21
744.9275327611539
 31
0.0
  0
LINE
  5
41
330
A
100
AcDbEntity
  8
1
  6
DOT_CENTER
 62
     1
100
AcDbLine
 10
172.273412886043
 20
784.6824352273199
 30
0.0
 11
567.576417628013
 21
784.6824352273199
 31
0.0
  0
LINE
  5
40
330
A
100
AcDbEntity
  8
1
  6
Continuous
 62
     3
100
AcDbLine
 10
204.44084935751
 20
817.1824352273199
 30
0.0
 11
534.127119023479
 21
817.1824352273199
 31
0.0
  0
LINE
  5
3F
330
A
100
AcDbEntity
  8
1
  6
Continuous
 62
     3
100
AcDbLine
 10
212.783984190494
 20
814.6824352273199
 30
0.0
 11
525.783984190494
 21
814.6824352273199
 31
0.0
  0
LINE
  5
3E
330
A
100
AcDbEntity
  8
1
  6
PHANTOM
 62
     1
100
AcDbLine
 10
197.783984190494
 20
770.68243522732
 30
0.0
 11
197.783984190494
 21
769.6824352273199
 31
0.0
  0
LINE
  5
3D
330
A
100
AcDbEntity
  8
1
  6
PHANTOM
 62
     1
100
AcDbLine
 10
540.783984190494
 20
769.6824352273199
 30
0.0
 11
540.783984190494
 21
770.68243522732
 31
0.0
  0
LINE
  5
3C
330
A
100
AcDbEntity
  8
1
  6
PHANTOM
 62
     1
100
AcDbLine
 10
104.065787413669
 20
884.5152387757829
 30
0.0
 11
147.065787413669
 21
884.5152387757829
 31
0.0
  0
LINE
  5
3B
330
A
100
AcDbEntity
  8
1
  6
PHANTOM
 62
     1
100
AcDbLine
 10
111.365787413669
 20
891.3152387757829
 30
0.0
 11
147.065787413669
 21
891.3152387757829
 31
0.0
  0
LINE
  5
3A
330
A
100
AcDbEntity
  8
1
  6
PHANTOM
 62
     1
100
AcDbLine
 10
103.565787413669
 20
885.0152387757828
 30
0.0
 11
104.065787413669
 21
884.5152387757829
 31
0.0
  0
LINE
  5
39
330
A
100
AcDbEntity
  8
1
  6
PHANTOM
 62
     1
100
AcDbLine
 10
103.565787413669
 20
890.815238775783
 30
0.0
 11
104.065787413669
 21
891.3152387757829
 31
0.0
  0
LINE
  5
38
330
A
100
AcDbEntity
  8
1
  6
PHANTOM
 62
     1
100
AcDbLine
 10
103.565787413669
 20
885.0152387757828
 30
0.0
 11
103.565787413669
 21
890.815238775783
 31
0.0
  0
LINE
  5
37
330
A
100
AcDbEntity
  8
1
  6
Continuous
 62
     3
100
AcDbLine
 10
114.765787413669
 20
891.3152387757829
 30
0.0
 11
114.765787413669
 21
875.4152387757828
 31
0.0
  0
LINE
  5
36
330
A
100
AcDbEntity
  8
1
  6
Continuous
 62
     3
100
AcDbLine
 10
111.365787413669
 20
891.3152387757829
 30
0.0
 11
111.365787413669
 21
891.4152387757829
 31
0.0
  0
LINE
  5
35
330
A
100
AcDbEntity
  8
1
  6
PHANTOM
 62
     1
100
AcDbLine
 10
512.283984190494
 20
1001.768379614496
 30
0.0
 11
226.283984190494
 21
1001.768379614496
 31
0.0
  0
LINE
  5
34
330
A
100
AcDbEntity
  8
1
  6
PHANTOM
 62
     1
100
AcDbLine
 10
512.283984190494
 20
994.9683796144979
 30
0.0
 11
226.283984190494
 21
994.9683796144979
 31
0.0
  0
LINE
  5
33
330
A
100
AcDbEntity
  8
1
  6
PHANTOM
 62
     1
100
AcDbLine
 10
520.8839841904939
 20
1041.368379614498
 30
0.0
 11
520.8839841904939
 21
1010.368379614498
 31
0.0
  0
LINE
  5
32
330
A
100
AcDbEntity
  8
1
  6
PHANTOM
 62
     1
100
AcDbLine
 10
527.683984190494
 20
1041.368379614498
 30
0.0
 11
527.683984190494
 21
1010.368379614498
 31
0.0
  0
LINE
  5
31
330
A
100
AcDbEntity
  8
1
  6
PHANTOM
 62
     1
100
AcDbLine
 10
521.3839841904939
 20
1041.868379614498
 30
0.0
 11
527.183984190494
 21
1041.868379614498
 31
0.0
  0
LINE
  5
30
330
A
100
AcDbEntity
  8
1
  6
PHANTOM
 62
     1
100
AcDbLine
 10
527.183984190494
 20
1041.868379614498
 30
0.0
 11
527.683984190494
 21
1041.368379614498
 31
0.0
  0
LINE
  5
2F
330
A
100
AcDbEntity
  8
1
  6
PHANTOM
 62
     1
100
AcDbLine
 10
521.3839841904939
 20
1041.868379614498
 30
0.0
 11
520.8839841904939
 21
1041.368379614498
 31
0.0
  0
LINE
  5
2E
330
A
100
AcDbEntity
  8
1
  6
PHANTOM
 62
     1
100
AcDbLine
 10
527.683984190494
 20
1041.368379614498
 30
0.0
 11
520.8839841904939
 21
1041.368379614498
 31
0.0
  0
LINE
  5
2D
330
A
100
AcDbEntity
  8
1
  6
PHANTOM
 62
     1
100
AcDbLine
 10
217.683984190495
 20
1041.368379614498
 30
0.0
 11
210.883984190494
 21
1041.368379614498
 31
0.0
  0
LINE
  5
2C
330
A
100
AcDbEntity
  8
1
  6
PHANTOM
 62
     1
100
AcDbLine
 10
217.683984190495
 20
1041.368379614498
 30
0.0
 11
217.183984190495
 21
1041.868379614498
 31
0.0
  0
LINE
  5
2B
330
A
100
AcDbEntity
  8
1
  6
PHANTOM
 62
     1
100
AcDbLine
 10
210.883984190494
 20
1041.368379614498
 30
0.0
 11
211.383984190494
 21
1041.868379614498
 31
0.0
  0
LINE
  5
2A
330
A
100
AcDbEntity
  8
1
  6
PHANTOM
 62
     1
100
AcDbLine
 10
211.383984190494
 20
1041.868379614498
 30
0.0
 11
217.183984190495
 21
1041.868379614498
 31
0.0
  0
LINE
  5
29
330
A
100
AcDbEntity
  8
1
  6
PHANTOM
 62
     1
100
AcDbLine
 10
210.883984190494
 20
1010.368379614498
 30
0.0
 11
210.883984190494
 21
1041.368379614498
 31
0.0
  0
LINE
  5
28
330
A
100
AcDbEntity
  8
1
  6
PHANTOM
 62
     1
100
AcDbLine
 10
217.683984190495
 20
1010.368379614498
 30
0.0
 11
217.683984190495
 21
1041.368379614498
 31
0.0
  0
ENDSEC
  0
SECTION
  2
OBJECTS
  0
DICTIONARY
  5
19
330
0
100
AcDbDictionary
281
     1
  3
ACAD_COLOR
350
123
  3
ACAD_GROUP
350
1A
  3
ACAD_LAYOUT
350
126
  3
ACAD_MATERIAL
350
122
  3
ACAD_MLINESTYLE
350
1B
  3
ACAD_PLOTSETTINGS
350
127
  3
ACAD_PLOTSTYLENAME
350
120
  3
ACAD_TABLESTYLE
350
124
  3
ACDBHEADERROUNDTRIPXREC
350
259
  3
AcDbVariableDictionary
350
252
  3
AcmDictionary
350
1EC
  3
AMG
350
12B
  3
AMGSNAPSETTINGS
350
242
  3
ASE_INDEX_DICTIONARY
350
24A
  3
DWGPROPS
350
258
  3
MAPISURF_MODULE
350
1B8
  0
DICTIONARY
  5
24D
330
A
100
AcDbDictionary
280
     1
281
     1
  3
ACAD_INDEX
360
24E
  0
DICTIONARY
  5
123
102
{ACAD_REACTORS
330
19
102
}
330
19
100
AcDbDictionary
281
     1
  0
DICTIONARY
  5
1A
102
{ACAD_REACTORS
330
19
102
}
330
19
100
AcDbDictionary
281
     1
  0
DICTIONARY
  5
126
102
{ACAD_REACTORS
330
19
102
}
330
19
100
AcDbDictionary
281
     1
  3
Model
350
128
  3
レイアウト1
350
129
  0
DICTIONARY
  5
122
102
{ACAD_REACTORS
330
19
102
}
330
19
100
AcDbDictionary
281
     1
  0
DICTIONARY
  5
1B
102
{ACAD_REACTORS
330
19
102
}
330
19
100
AcDbDictionary
281
     1
  3
STANDARD
350
1C
  0
DICTIONARY
  5
127
102
{ACAD_REACTORS
330
19
102
}
330
19
100
AcDbDictionary
281
     1
  0
ACDBDICTIONARYWDFLT
  5
120
102
{ACAD_REACTORS
330
19
102
}
330
19
100
AcDbDictionary
281
     1
  3
Normal
350
121
100
AcDbDictionaryWithDefault
340
121
  0
DICTIONARY
  5
124
102
{ACAD_REACTORS
330
19
102
}
330
19
100
AcDbDictionary
281
     1
  3
Standard
350
125
  0
DICTIONARY
  5
259
102
{ACAD_REACTORS
330
19
102
}
330
19
100
AcDbDictionary
281
     1
  0
DICTIONARY
  5
252
102
{ACAD_REACTORS
330
19
102
}
330
19
100
AcDbDictionary
281
     1
  3
CTABLESTYLE
350
253
  3
DIMASSOC
350
255
  3
INDEXCTL
350
254
  3
PROJECTNAME
350
256
  0
DICTIONARY
  5
1EC
102
{ACAD_REACTORS
330
19
102
}
330
19
100
AcDbDictionary
281
     1
  3
AcmStdDictionary
350
1F8
  3
AMDTSECTSYM_ARROWCOLOR
350
217
  0
DICTIONARY
  5
12B
102
{ACAD_REACTORS
330
19
102
}
330
19
100
AcDbDictionary
281
     1
  3
AcMgSettings
350
12C
  0
DICTIONARY
  5
242
102
{ACAD_REACTORS
330
19
102
}
330
19
100
AcDbDictionary
281
     1
  3
DIMENSION
350
247
  3
FEA
350
246
  3
HATCH (1)
350
243
  3
HATCH (2)
350
244
  3
SIMPLE WELD
350
248
  3
SYMBOLS
350
245
  0
DICTIONARY
  5
24A
102
{ACAD_REACTORS
330
19
102
}
330
19
100
AcDbDictionary
281
     1
  3
ASEBlockHierarchyIndexRecord
350
24C
1001
DCO15
1040
1937381263.298
  0
XRECORD
  5
258
102
{ACAD_REACTORS
330
19
102
}
330
19
100
AcDbXrecord
280
     1
  1
DWGPROPS COOKIE
  2

  3

  4

  6

  7

  8

  9

300
AmdtFileType=84
301
=
302
=
303
=
304
=
305
=
306
=
307
=
308
=
309
=
 40
0.0016430439814815
 41
2305814.417176053
 42
2458226.606102986
  1

 90
        1
  0
DICTIONARY
  5
24E
102
{ACAD_REACTORS
330
24D
102
}
330
24D
100
AcDbDictionary
281
     1
  3
*A1
350
24F
  0
LAYOUT
  5
128
102
{ACAD_XDICTIONARY
360
25A
102
}
102
{ACAD_REACTORS
330
126
102
}
330
126
100
AcDbPlotSettings
  1

  2
Adobe PDF#:3
  4

  6

 40
0.0
 41
0.0
 42
0.0
 43
0.0
 44
0.0
 45
0.0
 46
0.0
 47
0.0
 48
0.0
 49
0.0
140
0.0
141
0.0
142
1.0
143
1.0
 70
  1712
 72
     0
 73
     0
 74
     0
  7

 75
     0
147
1.0
148
0.0
149
0.0
100
AcDbLayout
  1
Model
 70
     1
 71
     0
 10
0.0
 20
0.0
 11
12.0
 21
9.0
 12
0.0
 22
0.0
 32
0.0
 14
0.0
 24
0.0
 34
0.0
 15
0.0
 25
0.0
 35
0.0
146
0.0
 13
0.0
 23
0.0
 33
0.0
 16
1.0
 26
0.0
 36
0.0
 17
0.0
 27
1.0
 37
0.0
 76
     0
330
A
  0
LAYOUT
  5
129
102
{ACAD_XDICTIONARY
360
25C
102
}
102
{ACAD_REACTORS
330
126
102
}
330
126
100
AcDbPlotSettings
  1

  2
Adobe PDF#:3
  4

  6

 40
0.0
 41
0.0
 42
0.0
 43
0.0
 44
0.0
 45
0.0
 46
0.0
 47
0.0
 48
0.0
 49
0.0
140
0.0
141
0.0
142
1.0
143
1.0
 70
   688
 72
     0
 73
     0
 74
     5
  7

 75
    16
147
1.0
148
0.0
149
0.0
100
AcDbLayout
  1
レイアウト1
 70
     0
 71
     1
 10
0.0
 20
0.0
 11
12.0
 21
9.0
 12
0.0
 22
0.0
 32
0.0
 14
1.000000000000000E+20
 24
1.000000000000000E+20
 34
1.000000000000000E+20
 15
-1.000000000000000E+20
 25
-1.000000000000000E+20
 35
-1.000000000000000E+20
146
0.0
 13
0.0
 23
0.0
 33
0.0
 16
1.0
 26
0.0
 36
0.0
 17
0.0
 27
1.0
 37
0.0
 76
     0
330
B
  0
MLINESTYLE
  5
1C
102
{ACAD_REACTORS
330
1B
102
}
330
1B
100
AcDbMlineStyle
  2
STANDARD
 70
     0
  3

 62
     0
 51
90.0
 52
90.0
 71
     2
 49
0.5
 62
   256
  6
BYLAYER
 49
-0.5
 62
   256
  6
BYLAYER
  0
ACDBPLACEHOLDER
  5
121
102
{ACAD_REACTORS
330
120
102
}
330
120
  0
TABLESTYLE
  5
125
102
{ACAD_REACTORS
330
124
102
}
330
124
100
AcDbTableStyle
  3
Standard
 70
     0
 71
     0
 40
1.5
 41
1.5
280
     0
281
     0
  7
STANDARD
140
4.5
170
     2
 62
     0
 63
     7
283
     0
274
    -2
284
     1
 64
     0
275
    -2
285
     1
 65
     0
276
    -2
286
     1
 66
     0
277
    -2
287
     1
 67
     0
278
    -2
288
     1
 68
     0
279
    -2
289
     1
 69
     0
  7
STANDARD
140
6.0
170
     5
 62
     0
 63
     7
283
     0
274
    -2
284
     1
 64
     0
275
    -2
285
     1
 65
     0
276
    -2
286
     1
 66
     0
277
    -2
287
     1
 67
     0
278
    -2
288
     1
 68
     0
279
    -2
289
     1
 69
     0
  7
STANDARD
140
4.5
170
     5
 62
     0
 63
     7
283
     0
274
    -2
284
     1
 64
     0
275
    -2
285
     1
 65
     0
276
    -2
286
     1
 66
     0
277
    -2
287
     1
 67
     0
278
    -2
288
     1
 68
     0
279
    -2
289
     1
 69
     0
  0
DICTIONARYVAR
  5
253
102
{ACAD_REACTORS
330
252
102
}
330
252
100
DictionaryVariables
280
     0
  1
STANDARD
  0
DICTIONARYVAR
  5
255
102
{ACAD_REACTORS
330
252
102
}
330
252
100
DictionaryVariables
280
     0
  1
1
  0
DICTIONARYVAR
  5
254
102
{ACAD_REACTORS
330
252
102
}
330
252
100
DictionaryVariables
280
     0
  1
1
  0
DICTIONARYVAR
  5
256
102
{ACAD_REACTORS
330
252
102
}
330
252
100
DictionaryVariables
280
     0
  1

  0
DICTIONARY
  5
1F8
102
{ACAD_REACTORS
330
1EC
102
}
330
1EC
100
AcDbDictionary
281
     1
  0
XRECORD
  5
217
102
{ACAD_REACTORS
330
1EC
102
}
330
1EC
100
AcDbXrecord
280
     1
 90
-1023410169
  0
DICTIONARY
  5
12C
102
{ACAD_REACTORS
330
12B
102
}
330
12B
100
AcDbDictionary
281
     1
  3
DWGSETTINGS
350
12D
  3
TRANSSETTINGS
350
131
  0
ACAMGFILTERDAT
  5
247
102
{ACAD_REACTORS
330
242
102
}
330
242
100
AcAmgFilterDat
 70
    15
  1
DIMENSION,AMDT_*_DIM
  2
*
  3
*
  4
*
  5
*
290
     1
  0
ACAMGFILTERDAT
  5
246
102
{ACAD_REACTORS
330
242
102
}
330
242
100
AcAmgFilterDat
 70
    15
  1
*
  2
AM_FEA-AM_*
  3
*
  4
*
  5
*
290
     1
  0
ACAMGFILTERDAT
  5
243
102
{ACAD_REACTORS
330
242
102
}
330
242
100
AcAmgFilterDat
 70
    15
  1
HATCH
  2
*
  3
*
  4
*
  5
*
290
     1
  0
ACAMGFILTERDAT
  5
244
102
{ACAD_REACTORS
330
242
102
}
330
242
100
AcAmgFilterDat
 70
    15
  1
LINE
  2
8,8N,*-8,*-8N,AM_8,AM_8N,*-AM_8,*-AM_8N
  3
*
  4
*
  5
INSERT,STDPART2D
290
     1
  0
ACAMGFILTERDAT
  5
248
102
{ACAD_REACTORS
330
242
102
}
330
242
100
AcAmgFilterDat
 70
    15
  1
ARC
  2
AM_5
  3
*
  4
2
  5
INSERT
290
     0
  0
ACAMGFILTERDAT
  5
245
102
{ACAD_REACTORS
330
242
102
}
330
242
100
AcAmgFilterDat
 70
    15
  1
ACMFCFRAME,ACMDATUMTARGET,ACMDATUMID,ACMWELDSYM,ACMSURFSYM,ACMFEATID,ACMPARTREF,ACMBALLOON,AMDTEDGESYM,AMGSCREWCALCTABLE
  2
*
  3
*
  4
*
  5
*
290
     1
  0
XRECORD
  5
24C
102
{ACAD_REACTORS
330
24A
102
}
330
24A
100
AcDbXrecord
280
     1
  0
LAYER_INDEX
  5
24F
102
{ACAD_REACTORS
330
24E
102
}
330
24E
100
AcDbIndex
 40
2458226.606102986
100
AcDbLayerIndex
  8
0
360
250
 90
        0
  8
1
360
251
 90
      241
  0
DICTIONARY
  5
25A
330
128
100
AcDbDictionary
280
     1
281
     1
  3
ACAD_XREC_ROUNDTRIP
360
25B
  0
DICTIONARY
  5
25C
330
129
100
AcDbDictionary
280
     1
281
     1
  3
ACAD_XREC_ROUNDTRIP
360
25D
  0
IDBUFFER
  5
250
330
0
100
AcDbIdBuffer
  0
IDBUFFER
  5
251
330
0
100
AcDbIdBuffer
330
28
330
11A
330
118
330
116
330
115
330
114
330
113
330
112
330
111
330
110
330
10F
330
10E
330
10D
330
10C
330
10B
330
10A
330
109
330
108
330
107
330
106
330
105
330
104
330
103
330
102
330
101
330
100
330
FF
330
FE
330
FD
330
FC
330
FB
330
FA
330
F9
330
F8
330
F7
330
F6
330
F5
330
F4
330
F3
330
F2
330
F1
330
F0
330
EF
330
EE
330
ED
330
EC
330
EB
330
EA
330
E9
330
E8
330
E7
330
E6
330
E5
330
E4
330
E3
330
E2
330
E1
330
E0
330
DF
330
DE
330
DD
330
DC
330
DB
330
DA
330
D9
330
D8
330
D7
330
D6
330
D5
330
D4
330
D3
330
D2
330
D1
330
D0
330
CF
330
CE
330
CD
330
CC
330
CB
330
CA
330
C9
330
C8
330
C7
330
C6
330
C5
330
C4
330
C3
330
C2
330
C1
330
C0
330
BF
330
BE
330
BD
330
BC
330
BB
330
BA
330
B9
330
B8
330
B7
330
B6
330
B5
330
B4
330
B3
330
B2
330
B1
330
B0
330
AF
330
AE
330
AD
330
AC
330
AB
330
AA
330
A9
330
A8
330
A7
330
A6
330
A5
330
A4
330
A3
330
A2
330
A1
330
A0
330
9F
330
9E
330
9D
330
9C
330
9B
330
9A
330
99
330
98
330
97
330
96
330
95
330
94
330
93
330
92
330
91
330
90
330
8F
330
8E
330
8D
330
8C
330
8B
330
8A
330
89
330
88
330
87
330
86
330
85
330
84
330
83
330
82
330
81
330
80
330
7F
330
7E
330
7D
330
7C
330
7B
330
7A
330
79
330
78
330
77
330
76
330
75
330
74
330
73
330
72
330
71
330
70
330
6F
330
6E
330
6D
330
6C
330
6B
330
6A
330
69
330
68
330
67
330
66
330
65
330
64
330
63
330
62
330
61
330
60
330
5F
330
5E
330
5D
330
5C
330
5B
330
5A
330
59
330
58
330
57
330
56
330
55
330
54
330
53
330
52
330
51
330
50
330
4F
330
4E
330
4D
330
4C
330
4B
330
4A
330
49
330
48
330
47
330
46
330
45
330
44
330
43
330
42
330
41
330
40
330
3F
330
3E
330
3D
330
3C
330
3B
330
3A
330
39
330
38
330
37
330
36
330
35
330
34
330
33
330
32
330
31
330
30
330
2F
330
2E
330
2D
330
2C
330
2B
330
2A
330
29
  0
XRECORD
  5
25B
102
{ACAD_REACTORS
330
25A
102
}
330
25A
100
AcDbXrecord
280
     1
102
SHADEPLOT
 70
     0
102
SHADEPLOTRESLEVEL
 70
     2
102
SHADEPLOTCUSTOMDPI
 70
   300
  0
XRECORD
  5
25D
102
{ACAD_REACTORS
330
25C
102
}
330
25C
100
AcDbXrecord
280
     1
102
SHADEPLOT
 70
     0
102
SHADEPLOTRESLEVEL
 70
     2
102
SHADEPLOTCUSTOMDPI
 70
   300
  0
ENDSEC
  0
EOF
