  0
SECTION
  2
HEADER
  9
$ACADVER
  1
AC1015
  9
$ACADMAINTVER
 70
    20
  9
$DWGCODEPAGE
  3
ANSI_932
  9
$INSBASE
 10
0.0
 20
0.0
 30
0.0
  9
$EXTMIN
 10
108.2404621365
 20
1545.67466629803
 30
0.0
  9
$EXTMAX
 10
543.783984190494
 20
1722.6482476458
 30
0.0
  9
$LIMMIN
 10
0.0
 20
0.0
  9
$LIMMAX
 10
0.0
 20
0.0
  9
$ORTHOMODE
 70
     0
  9
$REGENMODE
 70
     1
  9
$FILLMODE
 70
     1
  9
$QTEXTMODE
 70
     0
  9
$MIRRTEXT
 70
     1
  9
$LTSCALE
 40
1.0
  9
$ATTMODE
 70
     1
  9
$TEXTSIZE
 40
0.0
  9
$TRACEWID
 40
0.05
  9
$TEXTSTYLE
  7
STANDARD
  9
$CLAYER
  8
0
  9
$CELTYPE
  6
CONTINUOUS
  9
$CECOLOR
 62
   256
  9
$CELTSCALE
 40
1.0
  9
$DISPSILH
 70
     0
  9
$DIMSCALE
 40
1.0
  9
$DIMASZ
 40
0.18
  9
$DIMEXO
 40
0.0625
  9
$DIMDLI
 40
0.38
  9
$DIMRND
 40
0.0
  9
$DIMDLE
 40
0.0
  9
$DIMEXE
 40
0.18
  9
$DIMTP
 40
0.0
  9
$DIMTM
 40
0.0
  9
$DIMTXT
 40
0.18
  9
$DIMCEN
 40
0.09
  9
$DIMTSZ
 40
0.0
  9
$DIMTOL
 70
     0
  9
$DIMLIM
 70
     0
  9
$DIMTIH
 70
     1
  9
$DIMTOH
 70
     1
  9
$DIMSE1
 70
     0
  9
$DIMSE2
 70
     0
  9
$DIMTAD
 70
     0
  9
$DIMZIN
 70
     0
  9
$DIMBLK
  1

  9
$DIMASO
 70
     1
  9
$DIMSHO
 70
     1
  9
$DIMPOST
  1

  9
$DIMAPOST
  1

  9
$DIMALT
 70
     0
  9
$DIMALTD
 70
     2
  9
$DIMALTF
 40
25.4
  9
$DIMLFAC
 40
1.0
  9
$DIMTOFL
 70
     0
  9
$DIMTVP
 40
0.0
  9
$DIMTIX
 70
     0
  9
$DIMSOXD
 70
     0
  9
$DIMSAH
 70
     0
  9
$DIMBLK1
  1

  9
$DIMBLK2
  1

  9
$DIMSTYLE
  2
STANDARD
  9
$DIMCLRD
 70
     0
  9
$DIMCLRE
 70
     0
  9
$DIMCLRT
 70
     0
  9
$DIMTFAC
 40
1.0
  9
$DIMGAP
 40
0.09
  9
$DIMJUST
 70
     0
  9
$DIMSD1
 70
     0
  9
$DIMSD2
 70
     0
  9
$DIMTOLJ
 70
     1
  9
$DIMTZIN
 70
     0
  9
$DIMALTZ
 70
     0
  9
$DIMALTTZ
 70
     0
  9
$DIMUPT
 70
     0
  9
$DIMDEC
 70
     4
  9
$DIMTDEC
 70
     4
  9
$DIMALTU
 70
     2
  9
$DIMALTTD
 70
     2
  9
$DIMTXSTY
  7
STANDARD
  9
$DIMAUNIT
 70
     0
  9
$DIMADEC
 70
     0
  9
$DIMALTRND
 40
0.0
  9
$DIMAZIN
 70
     0
  9
$DIMDSEP
 70
    46
  9
$DIMATFIT
 70
     3
  9
$DIMFRAC
 70
     0
  9
$DIMLDRBLK
  1

  9
$DIMLUNIT
 70
     2
  9
$DIMLWD
 70
    -2
  9
$DIMLWE
 70
    -2
  9
$DIMTMOVE
 70
     0
  9
$LUNITS
 70
     2
  9
$LUPREC
 70
     2
  9
$SKETCHINC
 40
0.1
  9
$FILLETRAD
 40
0.0
  9
$AUNITS
 70
     0
  9
$AUPREC
 70
     0
  9
$MENU
  1
acad
  9
$ELEVATION
 40
0.0
  9
$PELEVATION
 40
0.0
  9
$THICKNESS
 40
0.0
  9
$LIMCHECK
 70
     0
  9
$CHAMFERA
 40
0.0
  9
$CHAMFERB
 40
0.0
  9
$CHAMFERC
 40
0.0
  9
$CHAMFERD
 40
0.0
  9
$SKPOLY
 70
     0
  9
$TDCREATE
 40
2305814.417176053
  9
$TDUCREATE
 40
6.0000000000
  9
$TDUPDATE
 40
2458226.679317049
  9
$TDUUPDATE
 40
2458226.304317049
  9
$TDINDWG
 40
0.0001598727
  9
$TDUSRTIMER
 40
0.0001593287
  9
$USRTIMER
 70
     1
  9
$ANGBASE
 50
0.0
  9
$ANGDIR
 70
     0
  9
$PDMODE
 70
     0
  9
$PDSIZE
 40
0.0
  9
$PLINEWID
 40
0.0
  9
$SPLFRAME
 70
     0
  9
$SPLINETYPE
 70
     6
  9
$SPLINESEGS
 70
     8
  9
$HANDSEED
  5
294
  9
$SURFTAB1
 70
     6
  9
$SURFTAB2
 70
     6
  9
$SURFTYPE
 70
     6
  9
$SURFU
 70
     6
  9
$SURFV
 70
     6
  9
$UCSBASE
  2

  9
$UCSNAME
  2

  9
$UCSORG
 10
0.0
 20
0.0
 30
0.0
  9
$UCSXDIR
 10
1.0
 20
0.0
 30
0.0
  9
$UCSYDIR
 10
0.0
 20
1.0
 30
0.0
  9
$UCSORTHOREF
  2

  9
$UCSORTHOVIEW
 70
     0
  9
$UCSORGTOP
 10
0.0
 20
0.0
 30
0.0
  9
$UCSORGBOTTOM
 10
0.0
 20
0.0
 30
0.0
  9
$UCSORGLEFT
 10
0.0
 20
0.0
 30
0.0
  9
$UCSORGRIGHT
 10
0.0
 20
0.0
 30
0.0
  9
$UCSORGFRONT
 10
0.0
 20
0.0
 30
0.0
  9
$UCSORGBACK
 10
0.0
 20
0.0
 30
0.0
  9
$PUCSBASE
  2

  9
$PUCSNAME
  2

  9
$PUCSORG
 10
0.0
 20
0.0
 30
0.0
  9
$PUCSXDIR
 10
1.0
 20
0.0
 30
0.0
  9
$PUCSYDIR
 10
0.0
 20
1.0
 30
0.0
  9
$PUCSORTHOREF
  2

  9
$PUCSORTHOVIEW
 70
     0
  9
$PUCSORGTOP
 10
0.0
 20
0.0
 30
0.0
  9
$PUCSORGBOTTOM
 10
0.0
 20
0.0
 30
0.0
  9
$PUCSORGLEFT
 10
0.0
 20
0.0
 30
0.0
  9
$PUCSORGRIGHT
 10
0.0
 20
0.0
 30
0.0
  9
$PUCSORGFRONT
 10
0.0
 20
0.0
 30
0.0
  9
$PUCSORGBACK
 10
0.0
 20
0.0
 30
0.0
  9
$USERI1
 70
     0
  9
$USERI2
 70
     0
  9
$USERI3
 70
     0
  9
$USERI4
 70
     0
  9
$USERI5
 70
     0
  9
$USERR1
 40
0.0
  9
$USERR2
 40
0.0
  9
$USERR3
 40
0.0
  9
$USERR4
 40
0.0
  9
$USERR5
 40
0.0
  9
$WORLDVIEW
 70
     1
  9
$SHADEDGE
 70
     3
  9
$SHADEDIF
 70
    70
  9
$TILEMODE
 70
     1
  9
$MAXACTVP
 70
    16
  9
$PINSBASE
 10
0.0
 20
0.0
 30
0.0
  9
$PLIMCHECK
 70
     0
  9
$PEXTMIN
 10
1.000000000000000E+20
 20
1.000000000000000E+20
 30
1.000000000000000E+20
  9
$PEXTMAX
 10
-1.000000000000000E+20
 20
-1.000000000000000E+20
 30
-1.000000000000000E+20
  9
$PLIMMIN
 10
0.0
 20
0.0
  9
$PLIMMAX
 10
12.0
 20
9.0
  9
$UNITMODE
 70
     0
  9
$VISRETAIN
 70
     0
  9
$PLINEGEN
 70
     1
  9
$PSLTSCALE
 70
     0
  9
$TREEDEPTH
 70
  3020
  9
$CMLSTYLE
  2
STANDARD
  9
$CMLJUST
 70
     0
  9
$CMLSCALE
 40
1.0
  9
$PROXYGRAPHICS
 70
     0
  9
$MEASUREMENT
 70
     1
  9
$CELWEIGHT
370
    -1
  9
$ENDCAPS
280
     0
  9
$JOINSTYLE
280
     0
  9
$LWDISPLAY
290
     0
  9
$INSUNITS
 70
     0
  9
$HYPERLINKBASE
  1

  9
$STYLESHEET
  1

  9
$XEDIT
290
     1
  9
$CEPSNTYPE
380
     0
  9
$PSTYLEMODE
290
     1
  9
$FINGERPRINTGUID
  2
{E1D57BCD-926C-44CF-841C-B1795314011E}
  9
$VERSIONGUID
  2
{F710CFC4-A204-4C1E-99F9-23E87FB4A68F}
  9
$EXTNAMES
290
     1
  9
$PSVPSCALE
 40
0.0
  9
$OLESTARTUP
290
     0
  0
ENDSEC
  0
SECTION
  2
CLASSES
  0
CLASS
  1
IMAGE
  2
AcDbRasterImage
  3
ISM
 90
    32895
280
     0
281
     1
  0
CLASS
  1
DICTIONARYVAR
  2
AcDbDictionaryVar
  3
ObjectDBX Classes
 90
        0
280
     0
281
     0
  0
CLASS
  1
RASTERVARIABLES
  2
AcDbRasterVariables
  3
ISM
 90
    32768
280
     0
281
     0
  0
CLASS
  1
IMAGEDEF
  2
AcDbRasterImageDef
  3
ISM
 90
    32768
280
     0
281
     0
  0
CLASS
  1
IMAGEDEF_REACTOR
  2
AcDbRasterImageDefReactor
  3
ISM
 90
    32769
280
     0
281
     0
  0
CLASS
  1
IDBUFFER
  2
AcDbIdBuffer
  3
ObjectDBX Classes
 90
        0
280
     0
281
     0
  0
CLASS
  1
SPATIAL_FILTER
  2
AcDbSpatialFilter
  3
ObjectDBX Classes
 90
    32768
280
     0
281
     0
  0
CLASS
  1
SORTENTSTABLE
  2
AcDbSortentsTable
  3
ObjectDBX Classes
 90
    32768
280
     0
281
     0
  0
CLASS
  1
LAYER_INDEX
  2
AcDbLayerIndex
  3
ObjectDBX Classes
 90
        0
280
     0
281
     0
  0
CLASS
  1
SPATIAL_INDEX
  2
AcDbSpatialIndex
  3
ObjectDBX Classes
 90
    32768
280
     0
281
     0
  0
CLASS
  1
OBJECT_PTR
  2
CAseDLPNTableRecord
  3
ASE-LPNTableRecord
 90
    32769
280
     0
281
     0
  0
CLASS
  1
LAYOUT
  2
AcDbLayout
  3
ObjectDBX Classes
 90
        0
280
     0
281
     0
  0
CLASS
  1
PLOTSETTINGS
  2
AcDbPlotSettings
  3
ObjectDBX Classes
 90
    32768
280
     0
281
     0
  0
CLASS
  1
ACDBDICTIONARYWDFLT
  2
AcDbDictionaryWithDefault
  3
ObjectDBX Classes
 90
        0
280
     0
281
     0
  0
CLASS
  1
ACDBPLACEHOLDER
  2
AcDbPlaceHolder
  3
ObjectDBX Classes
 90
        0
280
     0
281
     0
  0
CLASS
  1
VBA_PROJECT
  2
AcDbVbaProject
  3
acad
 90
    32768
280
     0
281
     0
  0
CLASS
  1
WIPEOUT
  2
AcDbWipeout
  3
"WipeOut|Product Desc: Object Enabler for WipeOut entity^I^I^I^I^I^I|Company: Autodesk, Inc.^I^I^I^I^I^I|WEB Address: www.autodesk.com"
 90
    32895
280
     0
281
     1
  0
CLASS
  1
WIPEOUTVARIABLES
  2
AcDbWipeoutVariables
  3
"WipeOut|Product Desc:     WipeOut Dbx Application|Company:          Autodesk, Inc.|WEB Address:      www.autodesk.com"
 90
    32768
280
     0
281
     0
  0
CLASS
  1
RTEXT
  2
RText
  3
RText|AutoCAD Express Tool|expresstools@autodesk.com
 90
    32768
280
     0
281
     1
  0
CLASS
  1
ARCALIGNEDTEXT
  2
AcDbArcAlignedText
  3
ATEXT|AutoCAD Express Tool|expresstools@autodesk.com
 90
    32768
280
     0
281
     1
  0
CLASS
  1
TABLESTYLE
  2
AcDbTableStyle
  3
ObjectDBX Classes
 90
     2047
280
     0
281
     0
  0
CLASS
  1
AMGSETTINGSOBJ
  2
AmgSettingsObj
  3
"AcadM|Product Description: AutoCAD Mechanical 2000|Company: Autodesk"
 90
        0
280
     0
281
     0
  0
CLASS
  1
ACME_DOCUMENT
  2
AcMeDbDoc
  3
AcMeServices
 90
        0
280
     0
281
     0
  0
CLASS
  1
ACMESCOPE
  2
AcMeScope
  3
AcMeServices
 90
        0
280
     0
281
     0
  0
CLASS
  1
ACMECOMMANDHISTORY
  2
AcMeCommandHistory
  3
AcMeServices
 90
        0
280
     0
281
     0
  0
CLASS
  1
ACIMSYSVARMAN
  2
AcImSysVarManager
  3
AcMeServices
 90
        0
280
     0
281
     0
  0
CLASS
  1
ACIMREALSYSVAR
  2
AcImRealSysVar
  3
AcMeServices
 90
        0
280
     0
281
     0
  0
CLASS
  1
ACIMINTSYSVAR
  2
AcImIntSysVar
  3
AcMeServices
 90
        0
280
     0
281
     0
  0
CLASS
  1
ACMEDRAWINGMAN
  2
AcMeDrawingMan
  3
AcMeServices
 90
        0
280
     0
281
     0
  0
CLASS
  1
ACMEVIEW
  2
AcMeView
  3
AcMeServices
 90
        0
280
     0
281
     0
  0
CLASS
  1
ACDBENTITYCACHE
  2
AcMeEntityCache
  3
AcMeServices
 90
        0
280
     0
281
     0
  0
CLASS
  1
GSMANAGER
  2
AcMeGSManager
  3
AcMeServices
 90
        0
280
     0
281
     0
  0
CLASS
  1
AMDTINTERNALREACTOR
  2
AmdtInternalReactor
  3
AcMeServices
 90
        0
280
     0
281
     0
  0
CLASS
  1
ACMESTATEMGR
  2
AcMeStateMgr
  3
AcMeServices
 90
        0
280
     0
281
     0
  0
CLASS
  1
ACGREFMASTER
  2
AcGrefMaster
  3
AcAttribServices
 90
        0
280
     0
281
     0
  0
CLASS
  1
AM_DRAWING_MGR
  2
AcDmDwgMgr
  3
AcMechDwgViewMgmt
 90
        0
280
     0
281
     0
  0
CLASS
  1
AM_DWG_DOCUMENT
  2
AcDmDwgDocument
  3
AcMechDwgViewMgmt
 90
        0
280
     0
281
     0
  0
CLASS
  1
AM_DWG_SHEET
  2
AcDmSheet
  3
AcMechDwgViewMgmt
 90
        0
280
     0
281
     0
  0
CLASS
  1
AM_VIEWDIMPARMAP
  2
AcDmViewDimParMap
  3
AcMechDwgViewMgmt
 90
        0
280
     0
281
     0
  0
CLASS
  1
AM_DWGMGR_NAME
  2
AcDmDwgMgrName
  3
AcMechDwgViewMgmt
 90
        0
280
     0
281
     0
  0
CLASS
  1
ACME_DATABASE
  2
AcMeDbDatabase
  3
AcMeServices
 90
        0
280
     0
281
     0
  0
CLASS
  1
ACRFINSADJUSTERMGR
  2
AcRfInsAdjusterMgr
  3
AcMeServices
 90
        0
280
     0
281
     0
  0
CLASS
  1
ACGREFACADMASTER
  2
AcGrefacadMaster
  3
AcGrefServices
 90
        0
280
     0
281
     0
  0
CLASS
  1
AMDTMENUSTATEMGR
  2
AmdtMenuStateMgr
  3
McadcomServices
 90
        0
280
     0
281
     0
  0
CLASS
  1
AMDTMCOMMENUSTATE
  2
AmdtMcomMenuState
  3
McadcomServices
 90
        0
280
     0
281
     0
  0
CLASS
  1
AMIMASTER
  2
AmiMaster
  3
AmiServices
 90
        0
280
     0
281
     0
  0
CLASS
  1
ASAPP
  2
AcAsAppObject
  3
AutoSurfServices
 90
        0
280
     0
281
     0
  0
CLASS
  1
IM_STATIC_MAN
  2
AcImStaticVarManager
  3
AcMeServices
 90
        0
280
     0
281
     0
  0
CLASS
  1
ACIMSTRSYSVAR
  2
AcImStrSysVar
  3
AcMeServices
 90
        0
280
     0
281
     0
  0
CLASS
  1
ACIMDBLSTATICVAR
  2
AcImDblStaticVar
  3
AcMeServices
 90
        0
280
     0
281
     0
  0
CLASS
  1
ACIMSTRSTATICVAR
  2
AcImStrStaticVar
  3
AcMeServices
 90
        0
280
     0
281
     0
  0
CLASS
  1
ACIMINTSTATICVAR
  2
AcImIntStaticVar
  3
AcMeServices
 90
        0
280
     0
281
     0
  0
CLASS
  1
ACASGREFMASTER
  2
AcAsGrefMaster
  3
AutoSurfResolverServices
 90
        0
280
     0
281
     0
  0
CLASS
  1
ACADGREFMODULE
  2
AcAdGrefModule
  3
AdGrefServices
 90
        0
280
     0
281
     0
  0
CLASS
  1
AMDTMAPISURFMOUDULE
  2
AmdtMApiSurfModule
  3
MApiSurfServices
 90
        0
280
     0
281
     0
  0
CLASS
  1
MAPIAMMOUDLE
  2
MApiAmModule
  3
MApiAmServices
 90
        0
280
     0
281
     0
  0
CLASS
  1
AMDTADMENUSTATE
  2
AmdtAdMenuState
  3
DesignerServices
 90
        0
280
     0
281
     0
  0
CLASS
  1
ADAPPL
  2
AcAdAppl
  3
DesignerServices
 90
        0
280
     0
281
     0
  0
CLASS
  1
DEPMGR
  2
AcAdDepMgr
  3
DesignerServices
 90
        0
280
     0
281
     0
  0
CLASS
  1
PARAMMGR
  2
AcAdParamMgr
  3
DesignerServices
 90
        0
280
     0
281
     0
  0
CLASS
  1
PARAMSCOPE
  2
AcAdParamScope
  3
DesignerServices
 90
        0
280
     0
281
     0
  0
CLASS
  1
NAMEDAPPL
  2
AcAdNamedAppl
  3
DesignerServices
 90
        0
280
     0
281
     0
  0
CLASS
  1
AMDTDMMENUSTATE
  2
AmdtDmMenuState
  3
AcMechDwgViewMgmt
 90
        0
280
     0
281
     0
  0
CLASS
  1
MAPIADMODULE
  2
MApiAdModule
  3
MApiAdServices
 90
        0
280
     0
281
     0
  0
CLASS
  1
AMDTAMMENUSTATE
  2
AmdtAmMenuState
  3
DesignerAssemblies
 90
        0
280
     0
281
     0
  0
CLASS
  1
ACAMPROJECT
  2
AcAmProject
  3
DesignerAssemblies
 90
        0
280
     0
281
     0
  0
CLASS
  1
ACAMGRCOMPDEF
  2
AcAmGrCompDef
  3
DesignerAssemblies
 90
        0
280
     0
281
     0
  0
CLASS
  1
ACCMCONTEXT
  2
AcCmContext
  3
DesignerAssemblies
 90
        0
280
     0
281
     0
  0
CLASS
  1
ACAMCOMPDEF
  2
AcAmCompDef
  3
DesignerAssemblies
 90
        0
280
     0
281
     0
  0
CLASS
  1
ACAMCOMPDEFMGR
  2
AcAmCompDefMgr
  3
DesignerAssemblies
 90
        0
280
     0
281
     0
  0
CLASS
  1
AMCONTEXTMGR
  2
AcAmContextMgr
  3
DesignerAssemblies
 90
        0
280
     0
281
     0
  0
CLASS
  1
ACAMCONTEXTMODELER
  2
AcAmContextModeler
  3
DesignerAssemblies
 90
        0
280
     0
281
     0
  0
CLASS
  1
ACMDATADICTIONARY
  2
AcmDataDictionary
  3
"AcmSymBB|Product Description: AutoCAD Mechanical 2004 DX|Company: Autodesk"
 90
        0
280
     0
281
     0
  0
CLASS
  1
ACMDATAENTRYBLOCK
  2
AcmDataEntryBlock
  3
"AcmSymBB|Product Description: AutoCAD Mechanical 2004 DX|Company: Autodesk"
 90
        0
280
     0
281
     0
  0
CLASS
  1
CATALOGSTATE
  2
AcAmCatalogState
  3
DesignerAssemblies
 90
        0
280
     0
281
     0
  0
CLASS
  1
ACAMGRCOMPDEFSET
  2
AcAmGrCompDefSet
  3
DesignerAssemblies
 90
        0
280
     0
281
     0
  0
CLASS
  1
AMDTBROWSERDBTAB
  2
AmdtBrowserDbTab
  3
McadcomServices
 90
        0
280
     0
281
     0
  0
CLASS
  1
CBROWSERAPPOBJECT
  2
CBrowserAppObject
  3
McadcomServices
 90
        0
280
     0
281
     0
  0
CLASS
  1
DM_PLACEHOLDER
  2
AcDmSelsetPlaceholder
  3
AcMechDwgViewMgmt
 90
        0
280
     0
281
     0
  0
CLASS
  1
ACMSTANDARDISO
  2
AcmStandardISO
  3
"Amdt_StdImp|Product Description: AutoCAD Mechanical 2004 DX|Company: Autodesk"
 90
        0
280
     0
281
     0
  0
CLASS
  1
AMGOBJPROPCFG
  2
AmgObjPropCfg
  3
"AmgLay|Product Description: AutoCAD Mechanical 2000|Company: Autodesk"
 90
        1
280
     0
281
     0
  0
CLASS
  1
AMDTEDGESTANDARDISO13715
  2
AmdtEdgeStdISO13715
  3
"Amdt_StdImp|Product Description: AutoCAD Mechanical 2004 DX|Company: Autodesk"
 90
        0
280
     0
281
     0
  0
CLASS
  1
ACMSURFSTANDARDISO
  2
AcmSurfTextStdISO
  3
"Amdt_StdImp|Product Description: AutoCAD Mechanical 2004 DX|Company: Autodesk"
 90
        0
280
     0
281
     0
  0
CLASS
  1
ACMFCFSTANDARDISO
  2
AcmFCFStdISO
  3
"Amdt_StdImp|Product Description: AutoCAD Mechanical 2004 DX|Company: Autodesk"
 90
        0
280
     0
281
     0
  0
CLASS
  1
ACMWELDSTANDARDISO
  2
AcmWeldingStdISO
  3
"Amdt_StdImp|Product Description: AutoCAD Mechanical 2004 DX|Company: Autodesk"
 90
        0
280
     0
281
     0
  0
CLASS
  1
ACMIDSTANDARDISO
  2
AcmIdStdISO
  3
"Amdt_StdImp|Product Description: AutoCAD Mechanical 2004 DX|Company: Autodesk"
 90
        0
280
     0
281
     0
  0
CLASS
  1
ACMDATUMSTANDARDISO
  2
AcmDatumStdISO
  3
"Amdt_StdImp|Product Description: AutoCAD Mechanical 2004 DX|Company: Autodesk"
 90
        0
280
     0
281
     0
  0
CLASS
  1
ACMBOMSTANDARDISO
  2
AcmBOMStdISO
  3
"Amdt_StdImp|Product Description: AutoCAD Mechanical 2004 DX|Company: Autodesk"
 90
        0
280
     0
281
     0
  0
CLASS
  1
ACMDETAILSTANDARDISO
  2
AmdtDetailSymStdISO
  3
"Amdt_StdImp|Product Description: AutoCAD Mechanical 2004 DX|Company: Autodesk"
 90
        0
280
     0
281
     0
  0
CLASS
  1
ACMSECTIONSTANDARDISO
  2
AmdtSectionSymStdISO
  3
"Amdt_StdImp|Product Description: AutoCAD Mechanical 2004 DX|Company: Autodesk"
 90
        0
280
     0
281
     0
  0
CLASS
  1
ACMCENTERLINESTANDARDISO
  2
AmdtCenterLineStdISO
  3
"Amdt_StdImp|Product Description: AutoCAD Mechanical 2004 DX|Company: Autodesk"
 90
        0
280
     0
281
     0
  0
CLASS
  1
ACMTHREADLINESTANDARDISO
  2
AmdtThreadLineStdISO
  3
"Amdt_StdImp|Product Description: AutoCAD Mechanical 2004 DX|Company: Autodesk"
 90
        0
280
     0
281
     0
  0
CLASS
  1
ACMNOTESTANDARDISO
  2
AmdtNoteStdISO
  3
"Amdt_StdImp|Product Description: AutoCAD Mechanical 2004 DX|Company: Autodesk"
 90
        0
280
     0
281
     0
  0
CLASS
  1
AMDTNOTETEMPLATEDB
  2
AmdtNoteTemplateDB
  3
AMDT_STDIMP_MODULE_NAME
 90
        0
280
     0
281
     0
  0
CLASS
  1
ACAMGLAYSTD
  2
AcAmgLayStd
  3
"AcAmgLayStd|Product Description: AutoCAD Mechanical 2000|Company: Autodesk"
 90
        0
280
     0
281
     0
  0
CLASS
  1
ACAMGDIMSTD
  2
AcAmgDimStd
  3
"AcAmgDimStd|Product Description: AutoCAD Mechanical 2000|Company: Autodesk"
 90
        0
280
     0
281
     0
  0
CLASS
  1
ACAMGHOLECHARTSTDISO
  2
AcAmgHoleChartStdISO
  3
ACMSYMBB_MODULE_NAME
 90
        0
280
     0
281
     0
  0
CLASS
  1
ACAMGTITLESTD
  2
AcAmgTitleStd
  3
"TITLEAPP"
 90
        0
280
     0
281
     0
  0
CLASS
  1
ACAMGFILTERDAT
  2
AcAmgFilterDat
  3
"AcadM|Product Description: AutoCAD Mechanical 2000|Company: Autodesk"
 90
        0
280
     0
281
     0
  0
ENDSEC
  0
SECTION
  2
TABLES
  0
TABLE
  2
VPORT
  5
7
330
0
100
AcDbSymbolTable
 70
     3
  0
VPORT
  5
28D
330
7
100
AcDbSymbolTableRecord
100
AcDbViewportTableRecord
  2
*Active
 70
     0
 10
0.0
 20
0.0
 11
1.0
 21
1.0
 12
317.4755802414609
 22
1629.582272971915
 13
0.0
 23
0.0
 14
1.0
 24
1.0
 15
0.0
 25
0.0
 16
0.0
 26
0.0
 36
1.0
 17
8.53664292203609
 27
4.579183999999999
 37
0.0
 40
393.7268405061455
 41
1.113389626055488
 42
50.0
 43
0.0
 44
0.0
 50
0.0
 51
0.0
 71
     0
 72
   100
 73
     1
 74
     1
 75
     0
 76
     0
 77
     0
 78
     0
281
     0
 65
     0
110
0.0
120
0.0
130
0.0
111
1.0
121
0.0
131
0.0
112
0.0
122
1.0
132
0.0
 79
     0
146
0.0
  0
ENDTAB
  0
TABLE
  2
LTYPE
  5
4
330
0
100
AcDbSymbolTable
 70
    23
  0
LTYPE
  5
11
330
4
100
AcDbSymbolTableRecord
100
AcDbLinetypeTableRecord
  2
BYBLOCK
 70
     0
  3

 72
    65
 73
     0
 40
0.0
  0
LTYPE
  5
12
330
4
100
AcDbSymbolTableRecord
100
AcDbLinetypeTableRecord
  2
BYLAYER
 70
     0
  3

 72
    65
 73
     0
 40
0.0
  0
LTYPE
  5
13
330
4
100
AcDbSymbolTableRecord
100
AcDbLinetypeTableRecord
  2
CONTINUOUS
 70
     0
  3
Solid line
 72
    65
 73
     0
 40
0.0
  0
LTYPE
  5
1D
330
4
100
AcDbSymbolTableRecord
100
AcDbLinetypeTableRecord
  2
DASHED
 70
     0
  3
Dashed
 72
    65
 73
     2
 40
15.0
 49
12.0
 74
     0
 49
-3.0
 74
     0
  0
LTYPE
  5
1E
330
4
100
AcDbSymbolTableRecord
100
AcDbLinetypeTableRecord
  2
DOTTED
 70
     0
  3
Dotted
 72
    65
 73
     2
 40
3.5
 49
0.5
 74
     0
 49
-3.0
 74
     0
  0
LTYPE
  5
1F
330
4
100
AcDbSymbolTableRecord
100
AcDbLinetypeTableRecord
  2
DOT_CENTER
 70
     0
  3
Dot_Center
 72
    65
 73
     4
 40
2.0
 49
1.25
 74
     0
 49
-0.25
 74
     0
 49
0.25
 74
     0
 49
-0.25
 74
     0
  0
LTYPE
  5
20
330
4
100
AcDbSymbolTableRecord
100
AcDbLinetypeTableRecord
  2
LONG_DASHED
 70
     0
  3
Long_Dashed
 72
    65
 73
     2
 40
2.0
 49
1.5
 74
     0
 49
-0.5
 74
     0
  0
LTYPE
  5
21
330
4
100
AcDbSymbolTableRecord
100
AcDbLinetypeTableRecord
  2
DASH_CENTER
 70
     0
  3
Dash_Center
 72
    65
 73
     4
 40
36.0
 49
24.0
 74
     0
 49
-3.0
 74
     0
 49
6.0
 74
     0
 49
-3.0
 74
     0
  0
LTYPE
  5
22
330
4
100
AcDbSymbolTableRecord
100
AcDbLinetypeTableRecord
  2
PHANTOM
 70
     0
  3
Phantom
 72
    65
 73
     6
 40
2.5
 49
1.25
 74
     0
 49
-0.25
 74
     0
 49
0.25
 74
     0
 49
-0.25
 74
     0
 49
0.25
 74
     0
 49
-0.25
 74
     0
  0
LTYPE
  5
23
330
4
100
AcDbSymbolTableRecord
100
AcDbLinetypeTableRecord
  2
CENTER_DASH_DASH
 70
     0
  3
Center_Dash_Dash
 72
    65
 73
     6
 40
22.0
 49
12.0
 74
     0
 49
-3.0
 74
     0
 49
0.5
 74
     0
 49
-3.0
 74
     0
 49
0.5
 74
     0
 49
-3.0
 74
     0
  0
LTYPE
  5
198
330
4
100
AcDbSymbolTableRecord
100
AcDbLinetypeTableRecord
  2
HIDDEN
 70
     0
  3
Hidden __ __ __ __ __ __ __ __ __ __ __ __ __ _
 72
    65
 73
     2
 40
9.524999999999998
 49
6.349999999999999
 74
     0
 49
-3.174999999999999
 74
     0
  0
LTYPE
  5
199
330
4
100
AcDbSymbolTableRecord
100
AcDbLinetypeTableRecord
  2
PHANTOM2
 70
     0
  3
Phantom (.5x) ___ _ _ ___ _ _ ___ _ _ ___ _ _
 72
    65
 73
     6
 40
31.75
 49
15.875
 74
     0
 49
-3.174999999999999
 74
     0
 49
3.174999999999999
 74
     0
 49
-3.174999999999999
 74
     0
 49
3.174999999999999
 74
     0
 49
-3.174999999999999
 74
     0
  0
LTYPE
  5
19A
330
4
100
AcDbSymbolTableRecord
100
AcDbLinetypeTableRecord
  2
CENTER
 70
     0
  3
Center ____ _ ____ _ ____ _ ____ _ ____ _ ____
 72
    65
 73
     4
 40
50.8
 49
31.75
 74
     0
 49
-6.349999999999999
 74
     0
 49
6.349999999999999
 74
     0
 49
-6.349999999999999
 74
     0
  0
LTYPE
  5
1E9
330
4
100
AcDbSymbolTableRecord
100
AcDbLinetypeTableRecord
  2
ASULTYPE
 70
     0
  3
実線
 72
    65
 73
     2
 40
3.0
 49
2.5
 74
     0
 49
0.5
 74
     0
  0
LTYPE
  5
1EA
330
4
100
AcDbSymbolTableRecord
100
AcDbLinetypeTableRecord
  2
ASVLTYPE
 70
     0
  3
__ __ __ __ __ __ __ __ __ __ __ __ __ __ __ __ __ __ __ __ __
 72
    65
 73
     2
 40
0.75
 49
0.5
 74
     0
 49
-0.25
 74
     0
  0
LTYPE
  5
231
330
4
100
AcDbSymbolTableRecord
100
AcDbLinetypeTableRecord
  2
AM_ISO02W050
 70
     0
  3
__ __ __ __ __ __ __ __ __ __ __ __ __ __ __
 72
    65
 73
     2
 40
7.5
 49
6.0
 74
     0
 49
-1.5
 74
     0
  0
LTYPE
  5
232
330
4
100
AcDbSymbolTableRecord
100
AcDbLinetypeTableRecord
  2
AM_ISO08W050
 70
     0
  3
____ . ____ . ____ . ____ . ____ . ____ . ____
 72
    65
 73
     4
 40
18.0
 49
12.0
 74
     0
 49
-1.5
 74
     0
 49
3.0
 74
     0
 49
-1.5
 74
     0
  0
LTYPE
  5
233
330
4
100
AcDbSymbolTableRecord
100
AcDbLinetypeTableRecord
  2
AM_ISO09W050
 70
     0
  3
_____ . . _____ . . _____ . . ____ .. ____
 72
    65
 73
     6
 40
22.5
 49
12.0
 74
     0
 49
-1.5
 74
     0
 49
3.0
 74
     0
 49
-1.5
 74
     0
 49
3.0
 74
     0
 49
-1.5
 74
     0
  0
LTYPE
  5
234
330
4
100
AcDbSymbolTableRecord
100
AcDbLinetypeTableRecord
  2
Amconstr
 70
     0
  3
_______________________
 72
    65
 73
     2
 40
9999.0
 49
9999.0
 74
     0
 49
0.0
 74
     0
  0
LTYPE
  5
235
330
4
100
AcDbSymbolTableRecord
100
AcDbLinetypeTableRecord
  2
AM_ISO08W050x2
 70
     0
  3
__ . __ . __ . __ . __ . __
 72
    65
 73
     4
 40
9.0
 49
6.0
 74
     0
 49
-0.75
 74
     0
 49
1.5
 74
     0
 49
-0.75
 74
     0
  0
LTYPE
  5
236
330
4
100
AcDbSymbolTableRecord
100
AcDbLinetypeTableRecord
  2
AM_ISO02W050x2
 70
     0
  3
 _ _ _ _ _ _ _ _ _ _ _ _
 72
    65
 73
     2
 40
3.75
 49
3.0
 74
     0
 49
-0.75
 74
     0
  0
LTYPE
  5
239
330
4
100
AcDbSymbolTableRecord
100
AcDbLinetypeTableRecord
  2
Amzigzag
 70
     0
  3
/\/-/\/-/\/-/\/-/\/-/\/
 72
    65
 73
     2
 40
11.0001
 49
0.0001
 74
     4
 75
   136
340
238
 46
0.04
 50
0.0
 44
0.0
 45
0.0
 49
-11.0
 74
     0
  0
LTYPE
  5
248
330
4
100
AcDbSymbolTableRecord
100
AcDbLinetypeTableRecord
  2
ACISOWELD
 70
     0
  3
_ _ _ _ _
 72
    65
 73
     2
 40
2.0
 49
2.0
 74
     0
 49
-1.0
 74
     0
  0
LTYPE
  5
249
330
4
100
AcDbSymbolTableRecord
100
AcDbLinetypeTableRecord
  2
ACISOTGB
 70
     0
  3
__ . . __ . .
 72
    65
 73
     6
 40
9.0
 49
4.0
 74
     0
 49
-1.0
 74
     0
 49
1.0
 74
     0
 49
-1.0
 74
     0
 49
1.0
 74
     0
 49
-1.0
 74
     0
  0
LTYPE
  5
24A
330
4
100
AcDbSymbolTableRecord
100
AcDbLinetypeTableRecord
  2
ACISOTGL
 70
     0
  3
_ _ _ _ _
 72
    65
 73
     2
 40
3.0
 49
2.0
 74
     0
 49
-1.0
 74
     0
  0
ENDTAB
  0
TABLE
  2
LAYER
  5
2
330
0
100
AcDbSymbolTable
 70
     2
  0
LAYER
  5
14
330
2
100
AcDbSymbolTableRecord
100
AcDbLayerTableRecord
  2
0
 70
     0
 62
     7
  6
CONTINUOUS
370
    -3
390
156
  0
LAYER
  5
24
330
2
100
AcDbSymbolTableRecord
100
AcDbLayerTableRecord
  2
1
 70
     0
 62
     7
  6
CONTINUOUS
370
    -3
390
156
  0
ENDTAB
  0
TABLE
  2
STYLE
  5
3
330
0
100
AcDbSymbolTable
 70
     5
  0
STYLE
  5
17
330
3
100
AcDbSymbolTableRecord
100
AcDbTextStyleTableRecord
  2
STANDARD
 70
     0
 40
0.0
 41
1.0
 50
0.0
 71
     0
 42
0.0
  3
txt
  4

  0
STYLE
  5
14F
330
3
100
AcDbSymbolTableRecord
100
AcDbTextStyleTableRecord
  2
CONVERTER_1
 70
     0
 40
0.0
 41
0.8
 50
0.0
 71
     0
 42
0.0
  3
MS Gothic
  4

1001
ACAD
1000
MS Gothic
1071
    32785
  0
STYLE
  5
238
330
3
100
AcDbSymbolTableRecord
100
AcDbTextStyleTableRecord
  2

 70
     1
 40
0.0
 41
1.0
 50
0.0
 71
     0
 42
0.2
  3
genltshp.shx
  4

  0
STYLE
  5
23A
330
3
100
AcDbSymbolTableRecord
100
AcDbTextStyleTableRecord
  2
ACISOTS
 70
     0
 40
1.0
 41
1.0
 50
0.0
 71
     0
 42
0.2
  3
isocp.shx
  4
extfont.shx
  0
STYLE
  5
247
330
3
100
AcDbSymbolTableRecord
100
AcDbTextStyleTableRecord
  2
ACISOGDT
 70
     0
 40
0.0
 41
1.0
 50
0.0
 71
     0
 42
0.2
  3
AMGDT
  4

  0
ENDTAB
  0
TABLE
  2
VIEW
  5
5
330
0
100
AcDbSymbolTable
 70
     0
  0
ENDTAB
  0
TABLE
  2
UCS
  5
6
330
0
100
AcDbSymbolTable
 70
     0
  0
ENDTAB
  0
TABLE
  2
APPID
  5
8
330
0
100
AcDbSymbolTable
 70
    16
  0
APPID
  5
16
330
8
100
AcDbSymbolTableRecord
100
AcDbRegAppTableRecord
  2
ACAD
 70
     0
  0
APPID
  5
164
330
8
100
AcDbSymbolTableRecord
100
AcDbRegAppTableRecord
  2
GENIUS_GENDIM_13
 70
     0
  0
APPID
  5
165
330
8
100
AcDbSymbolTableRecord
100
AcDbRegAppTableRecord
  2
GENIUS_GENDTOL_13
 70
     0
  0
APPID
  5
166
330
8
100
AcDbSymbolTableRecord
100
AcDbRegAppTableRecord
  2
GENIUS_GE3DTOL_13
 70
     0
  0
APPID
  5
169
330
8
100
AcDbSymbolTableRecord
100
AcDbRegAppTableRecord
  2
MCAD_NO_VIS
 70
     0
  0
APPID
  5
16A
330
8
100
AcDbSymbolTableRecord
100
AcDbRegAppTableRecord
  2
ACAD_TEMP_GRAPHIC
 70
     0
  0
APPID
  5
19C
330
8
100
AcDbSymbolTableRecord
100
AcDbRegAppTableRecord
  2
AD_DRAW
 70
     0
  0
APPID
  5
19F
330
8
100
AcDbSymbolTableRecord
100
AcDbRegAppTableRecord
  2
ACATTRIBSERVICES
 70
     0
  0
APPID
  5
1EB
330
8
100
AcDbSymbolTableRecord
100
AcDbRegAppTableRecord
  2
ASURF_PCURVE_APPNAME
 70
     0
  0
APPID
  5
1F0
330
8
100
AcDbSymbolTableRecord
100
AcDbRegAppTableRecord
  2
AMG_3D2D_5.0
 70
     0
  0
APPID
  5
221
330
8
100
AcDbSymbolTableRecord
100
AcDbRegAppTableRecord
  2
DESIGNERASSEMBLIES
 70
     0
  0
APPID
  5
228
330
8
100
AcDbSymbolTableRecord
100
AcDbRegAppTableRecord
  2
ACADM_DIM_EDIT
 70
     0
  0
APPID
  5
229
330
8
100
AcDbSymbolTableRecord
100
AcDbRegAppTableRecord
  2
AMDT_DM_ADJ
 70
     0
  0
APPID
  5
257
330
8
100
AcDbSymbolTableRecord
100
AcDbRegAppTableRecord
  2
ACAD_DSTYLE_DIMARC_LENGTH_SYMBOL
 70
     0
  0
APPID
  5
258
330
8
100
AcDbSymbolTableRecord
100
AcDbRegAppTableRecord
  2
ACAD_DSTYLE_DIMJOGGED_JOGANGLE_SYMBOL
 70
     0
  0
APPID
  5
281
330
8
100
AcDbSymbolTableRecord
100
AcDbRegAppTableRecord
  2
DCO15
 70
     0
  0
ENDTAB
  0
TABLE
  2
DIMSTYLE
  5
9
330
0
100
AcDbSymbolTable
 70
     8
100
AcDbDimStyleTable
 71
     0
  0
DIMSTYLE
105
18
330
9
100
AcDbSymbolTableRecord
100
AcDbDimStyleTableRecord
  2
STANDARD
 70
     0
340
17
  0
DIMSTYLE
105
256
330
9
100
AcDbSymbolTableRecord
100
AcDbDimStyleTableRecord
  2
AM_ISO
 70
     0
  4
"
 41
2.5
 42
1.0
 43
10.0
 44
1.0
 47
0.1
 48
0.1
 73
     0
 74
     0
 77
     1
 78
     8
 79
     2
140
3.5
141
0.0
143
0.0393701
146
0.71
147
1.5
172
     1
176
   256
177
   256
178
     2
271
     2
272
     3
274
     4
283
     0
284
     8
340
17
371
    -1
372
    -1
1001
ACAD_DSTYLE_DIMARC_LENGTH_SYMBOL
1070
   379
1070
     1
1001
ACAD_DSTYLE_DIMJOGGED_JOGANGLE_SYMBOL
1070
   384
1040
0.7853981633974483
  0
DIMSTYLE
105
25F
330
9
100
AcDbSymbolTableRecord
100
AcDbDimStyleTableRecord
  2
AM_ISO$3
 70
     0
  4
"
 41
2.5
 42
1.0
 43
10.0
 44
1.0
 47
0.1
 48
0.1
 73
     0
 77
     1
 78
     8
 79
     2
140
3.5
141
0.0
143
0.0393701
146
0.71
147
1.5
176
   256
177
   256
178
     2
271
     2
272
     3
274
     4
283
     0
284
     8
288
     1
289
     0
340
17
371
    -1
372
    -1
1001
ACAD_DSTYLE_DIMARC_LENGTH_SYMBOL
1070
   379
1070
     1
1001
ACAD_DSTYLE_DIMJOGGED_JOGANGLE_SYMBOL
1070
   384
1040
0.7853981633974483
  0
DIMSTYLE
105
262
330
9
100
AcDbSymbolTableRecord
100
AcDbDimStyleTableRecord
  2
AM_ISO$4
 70
     0
  4
"
 41
2.5
 42
1.0
 43
10.0
 44
1.0
 47
0.1
 48
0.1
 73
     0
 77
     1
 78
     8
 79
     2
140
3.5
141
0.0
143
0.0393701
146
0.71
147
1.5
176
   256
177
   256
178
     2
271
     2
272
     3
274
     4
283
     0
284
     8
288
     1
289
     0
340
17
371
    -1
372
    -1
1001
ACAD_DSTYLE_DIMARC_LENGTH_SYMBOL
1070
   379
1070
     1
1001
ACAD_DSTYLE_DIMJOGGED_JOGANGLE_SYMBOL
1070
   384
1040
0.7853981633974483
  0
DIMSTYLE
105
265
330
9
100
AcDbSymbolTableRecord
100
AcDbDimStyleTableRecord
  2
AM_ISO$6
 70
     0
  4
"
 41
2.5
 42
1.0
 43
10.0
 44
1.0
 47
0.1
 48
0.1
 73
     0
 74
     0
 78
     8
 79
     2
140
3.5
141
0.0
143
0.0393701
146
0.71
147
1.5
172
     1
176
   256
177
   256
178
     2
271
     2
272
     3
274
     4
283
     0
284
     8
340
17
371
    -1
372
    -1
1001
ACAD_DSTYLE_DIMARC_LENGTH_SYMBOL
1070
   379
1070
     1
1001
ACAD_DSTYLE_DIMJOGGED_JOGANGLE_SYMBOL
1070
   384
1040
0.7853981633974483
  0
DIMSTYLE
105
268
330
9
100
AcDbSymbolTableRecord
100
AcDbDimStyleTableRecord
  2
AM_ISO$7
 70
     0
  4
"
 41
2.5
 42
1.0
 43
10.0
 44
1.0
 47
0.1
 48
0.1
 73
     0
 74
     0
 77
     1
 78
     8
 79
     2
140
5.0
141
0.0
143
0.0393701
146
0.71
147
1.5
172
     1
176
   256
177
   256
178
     2
271
     2
272
     3
274
     4
283
     0
284
     8
340
17
371
    -1
372
    -1
1001
ACAD_DSTYLE_DIMARC_LENGTH_SYMBOL
1070
   379
1070
     1
1001
ACAD_DSTYLE_DIMJOGGED_JOGANGLE_SYMBOL
1070
   384
1040
0.7853981633974483
  0
DIMSTYLE
105
26B
330
9
100
AcDbSymbolTableRecord
100
AcDbDimStyleTableRecord
  2
AM_ISO$SF
 70
     0
  4
"
 41
2.5
 42
1.0
 43
10.0
 44
1.0
 47
0.1
 48
0.1
 73
     0
 74
     0
 75
     1
 76
     1
 77
     1
 78
     8
 79
     2
140
3.5
141
0.0
143
0.0393701
146
0.71
147
1.5
172
     1
176
   256
177
   256
178
     2
271
     2
272
     3
274
     4
283
     0
284
     8
340
17
371
    -1
372
    -1
1001
ACAD_DSTYLE_DIMARC_LENGTH_SYMBOL
1070
   379
1070
     1
1001
ACAD_DSTYLE_DIMJOGGED_JOGANGLE_SYMBOL
1070
   384
1040
0.7853981633974483
  0
DIMSTYLE
105
272
330
9
100
AcDbSymbolTableRecord
100
AcDbDimStyleTableRecord
  2
AM_ISO$SH
 70
     0
  4
"
 41
2.5
 42
1.0
 43
10.0
 44
1.0
 47
0.1
 48
0.1
 73
     0
 74
     0
 75
     1
 76
     1
 77
     1
 78
     8
 79
     2
140
3.5
141
0.0
143
0.0393701
144
2.0
146
0.71
147
1.5
172
     1
173
     1
176
   256
177
   256
178
     2
271
     2
272
     3
274
     4
283
     0
284
     8
340
17
343
26C
371
    -1
372
    -1
1001
ACAD_DSTYLE_DIMARC_LENGTH_SYMBOL
1070
   379
1070
     1
1001
ACAD_DSTYLE_DIMJOGGED_JOGANGLE_SYMBOL
1070
   384
1040
0.7853981633974483
  0
ENDTAB
  0
TABLE
  2
BLOCK_RECORD
  5
1
330
0
100
AcDbSymbolTable
 70
     2
  0
BLOCK_RECORD
  5
A
102
{ACAD_XDICTIONARY
360
283
102
}
330
1
100
AcDbSymbolTableRecord
100
AcDbBlockTableRecord
  2
*MODEL_SPACE
340
15D
  0
BLOCK_RECORD
  5
B
330
1
100
AcDbSymbolTableRecord
100
AcDbBlockTableRecord
  2
*PAPER_SPACE
340
15E
  0
BLOCK_RECORD
  5
26C
330
1
100
AcDbSymbolTableRecord
100
AcDbBlockTableRecord
  2
GENAXEH
340
0
  0
ENDTAB
  0
ENDSEC
  0
SECTION
  2
BLOCKS
  0
BLOCK
  5
D
330
A
100
AcDbEntity
  8
0
100
AcDbBlockBegin
  2
*MODEL_SPACE
 70
     0
 10
0.0
 20
0.0
 30
0.0
  3
*MODEL_SPACE
  1

  0
ENDBLK
  5
E
330
A
100
AcDbEntity
  8
0
100
AcDbBlockEnd
  0
BLOCK
  5
F
330
B
100
AcDbEntity
 67
     1
  8
0
100
AcDbBlockBegin
  2
*PAPER_SPACE
 70
     0
 10
0.0
 20
0.0
 30
0.0
  3
*PAPER_SPACE
  1

  0
ENDBLK
  5
10
330
B
100
AcDbEntity
 67
     1
  8
0
100
AcDbBlockEnd
  0
BLOCK
  5
26E
330
26C
100
AcDbEntity
  8
0
100
AcDbBlockBegin
  2
GENAXEH
 70
     0
 10
0.0
 20
0.0
 30
0.0
  3
GENAXEH
  1

  0
LINE
  5
26D
330
26C
100
AcDbEntity
  8
0
100
AcDbLine
 10
-1.0
 20
0.0
 30
0.0
 11
1.0
 21
0.0
 31
0.0
  0
ENDBLK
  5
26F
330
26C
100
AcDbEntity
  8
0
100
AcDbBlockEnd
  0
ENDSEC
  0
SECTION
  2
ENTITIES
  0
TEXT
  5
150
330
A
100
AcDbEntity
  8
1
 62
     6
100
AcDbText
 10
112.083676290612
 20
1704.670661394506
 30
0.0
 40
3.6
  1
収納式タオルバー
 41
0.8
  7
CONVERTER_1
100
AcDbText
  0
ARC
  5
14E
330
A
100
AcDbEntity
  8
1
  6
Continuous
 62
     3
100
AcDbCircle
 10
231.783984190494
 20
1558.861726461551
 30
0.0
 40
2.0
100
AcDbArc
 50
-90.0
 51
0.0
  0
ARC
  5
14D
330
A
100
AcDbEntity
  8
1
  6
Continuous
 62
     3
100
AcDbCircle
 10
231.783984190494
 20
1568.96172646155
 30
0.0
 40
2.0
100
AcDbArc
 50
0.0
 51
90.0
  0
ARC
  5
14C
330
A
100
AcDbEntity
  8
1
  6
Continuous
 62
     3
100
AcDbCircle
 10
196.783984190494
 20
1568.96172646155
 30
0.0
 40
2.0
100
AcDbArc
 50
90.0
 51
180.0
  0
ARC
  5
14B
330
A
100
AcDbEntity
  8
1
  6
Continuous
 62
     3
100
AcDbCircle
 10
196.783984190494
 20
1558.861726461551
 30
0.0
 40
2.0
100
AcDbArc
 50
180.0
 51
-90.0
  0
ARC
  5
14A
330
A
100
AcDbEntity
  8
1
  6
Continuous
 62
     3
100
AcDbCircle
 10
233.283984190494
 20
1706.595184220361
 30
0.0
 40
0.5
100
AcDbArc
 50
-90.0
 51
0.0
  0
ARC
  5
149
330
A
100
AcDbEntity
  8
1
  6
Continuous
 62
     3
100
AcDbCircle
 10
195.283984190494
 20
1706.595184220361
 30
0.0
 40
0.5
100
AcDbArc
 50
180.0
 51
-90.0
  0
ARC
  5
148
330
A
100
AcDbEntity
  8
1
  6
Continuous
 62
     3
100
AcDbCircle
 10
221.283984190494
 20
1694.595184220361
 30
0.0
 40
0.5
100
AcDbArc
 50
-90.0
 51
0.0
  0
ARC
  5
147
330
A
100
AcDbEntity
  8
1
  6
Continuous
 62
     3
100
AcDbCircle
 10
207.283984190494
 20
1694.595184220361
 30
0.0
 40
0.5
100
AcDbArc
 50
180.0
 51
-90.0
  0
ARC
  5
146
330
A
100
AcDbEntity
  8
1
  6
PHANTOM
 62
     1
100
AcDbCircle
 10
226.283984190494
 20
1674.495184220361
 30
0.0
 40
8.599999999999999
100
AcDbArc
 50
180.0
 51
-90.0
  0
ARC
  5
145
330
A
100
AcDbEntity
  8
1
  6
PHANTOM
 62
     1
100
AcDbCircle
 10
226.283984190494
 20
1674.495184220361
 30
0.0
 40
15.4
100
AcDbArc
 50
180.0
 51
-90.0
  0
ARC
  5
144
330
A
100
AcDbEntity
  8
1
  6
PHANTOM
 62
     1
100
AcDbCircle
 10
226.283984190494
 20
1674.495184220361
 30
0.0
 40
8.599999999999999
100
AcDbArc
 50
180.0
 51
-90.0
  0
ARC
  5
143
330
A
100
AcDbEntity
  8
1
  6
PHANTOM
 62
     1
100
AcDbCircle
 10
226.283984190494
 20
1674.495184220361
 30
0.0
 40
15.4
100
AcDbArc
 50
180.0
 51
-90.0
  0
ARC
  5
142
330
A
100
AcDbEntity
  8
1
  6
DOT_CENTER
 62
     1
100
AcDbCircle
 10
226.283984190494
 20
1674.41993966247
 30
0.0
 40
12.0
100
AcDbArc
 50
180.0
 51
-90.0
  0
ARC
  5
141
330
A
100
AcDbEntity
  8
1
  6
DOT_CENTER
 62
     1
100
AcDbCircle
 10
512.283984190494
 20
1674.41993966247
 30
0.0
 40
12.0
100
AcDbArc
 50
-90.0
 51
0.0
  0
ARC
  5
140
330
A
100
AcDbEntity
  8
1
  6
PHANTOM
 62
     1
100
AcDbCircle
 10
512.283984190494
 20
1674.495184220361
 30
0.0
 40
15.4
100
AcDbArc
 50
-90.0
 51
0.0
  0
ARC
  5
13F
330
A
100
AcDbEntity
  8
1
  6
PHANTOM
 62
     1
100
AcDbCircle
 10
512.283984190494
 20
1674.495184220361
 30
0.0
 40
8.600000000001999
100
AcDbArc
 50
-90.0
 51
0.0
  0
ARC
  5
13E
330
A
100
AcDbEntity
  8
1
  6
PHANTOM
 62
     1
100
AcDbCircle
 10
512.283984190494
 20
1674.495184220361
 30
0.0
 40
15.4
100
AcDbArc
 50
-90.0
 51
0.0
  0
ARC
  5
13D
330
A
100
AcDbEntity
  8
1
  6
PHANTOM
 62
     1
100
AcDbCircle
 10
512.283984190494
 20
1674.495184220361
 30
0.0
 40
8.600000000001999
100
AcDbArc
 50
-90.0
 51
0.0
  0
ARC
  5
13C
330
A
100
AcDbEntity
  8
1
  6
Continuous
 62
     3
100
AcDbCircle
 10
531.283984190494
 20
1694.595184220361
 30
0.0
 40
0.5
100
AcDbArc
 50
-90.0
 51
0.0
  0
ARC
  5
13B
330
A
100
AcDbEntity
  8
1
  6
Continuous
 62
     3
100
AcDbCircle
 10
517.283984190494
 20
1694.595184220361
 30
0.0
 40
0.5
100
AcDbArc
 50
180.0
 51
-90.0
  0
ARC
  5
13A
330
A
100
AcDbEntity
  8
1
  6
Continuous
 62
     3
100
AcDbCircle
 10
543.283984190494
 20
1706.595184220361
 30
0.0
 40
0.5
100
AcDbArc
 50
-90.0
 51
0.0
  0
ARC
  5
139
330
A
100
AcDbEntity
  8
1
  6
Continuous
 62
     3
100
AcDbCircle
 10
505.283984190494
 20
1706.595184220361
 30
0.0
 40
0.5
100
AcDbArc
 50
180.0
 51
-90.0
  0
ARC
  5
138
330
A
100
AcDbEntity
  8
1
  6
Continuous
 62
     3
100
AcDbCircle
 10
115.465787413669
 20
1570.46172646155
 30
0.0
 40
0.5
100
AcDbArc
 50
0.0
 51
90.0
  0
ARC
  5
137
330
A
100
AcDbEntity
  8
1
  6
Continuous
 62
     3
100
AcDbCircle
 10
115.465787413669
 20
1557.361726461551
 30
0.0
 40
0.5
100
AcDbArc
 50
-90.0
 51
0.0
  0
ARC
  5
136
330
A
100
AcDbEntity
  8
1
  6
Continuous
 62
     3
100
AcDbCircle
 10
127.465787413669
 20
1557.361726461551
 30
0.0
 40
0.5
100
AcDbArc
 50
-90.0
 51
0.0
  0
ARC
  5
135
330
A
100
AcDbEntity
  8
1
  6
Continuous
 62
     3
100
AcDbCircle
 10
127.465787413669
 20
1570.46172646155
 30
0.0
 40
0.5
100
AcDbArc
 50
0.0
 51
90.0
  0
ARC
  5
134
330
A
100
AcDbEntity
  8
1
  6
DOT_CENTER
 62
     1
100
AcDbCircle
 10
226.283984190494
 20
1591.098113533737
 30
0.0
 40
12.0
100
AcDbArc
 50
90.0
 51
180.0
  0
ARC
  5
133
330
A
100
AcDbEntity
  8
1
  6
Continuous
 62
     3
100
AcDbCircle
 10
226.283984190494
 20
1591.022868975846
 30
0.0
 40
15.4
100
AcDbArc
 50
90.0
 51
180.0
  0
ARC
  5
132
330
A
100
AcDbEntity
  8
1
  6
Continuous
 62
     3
100
AcDbCircle
 10
226.283984190494
 20
1591.022868975846
 30
0.0
 40
8.600000000001999
100
AcDbArc
 50
90.0
 51
180.0
  0
ARC
  5
131
330
A
100
AcDbEntity
  8
1
  6
Continuous
 62
     3
100
AcDbCircle
 10
512.283984190494
 20
1591.022868975846
 30
0.0
 40
8.599999999999999
100
AcDbArc
 50
0.0
 51
90.0
  0
ARC
  5
130
330
A
100
AcDbEntity
  8
1
  6
Continuous
 62
     3
100
AcDbCircle
 10
512.283984190494
 20
1591.022868975846
 30
0.0
 40
15.4
100
AcDbArc
 50
0.0
 51
90.0
  0
ARC
  5
12F
330
A
100
AcDbEntity
  8
1
  6
Continuous
 62
     3
100
AcDbCircle
 10
512.283984190494
 20
1591.022868975846
 30
0.0
 40
8.599999999999999
100
AcDbArc
 50
0.0
 51
90.0
  0
ARC
  5
12E
330
A
100
AcDbEntity
  8
1
  6
Continuous
 62
     3
100
AcDbCircle
 10
512.283984190494
 20
1591.022868975846
 30
0.0
 40
15.4
100
AcDbArc
 50
0.0
 51
90.0
  0
ARC
  5
12D
330
A
100
AcDbEntity
  8
1
  6
DOT_CENTER
 62
     1
100
AcDbCircle
 10
512.283984190494
 20
1591.098113533737
 30
0.0
 40
12.0
100
AcDbArc
 50
0.0
 51
90.0
  0
ARC
  5
12C
330
A
100
AcDbEntity
  8
1
  6
Continuous
 62
     3
100
AcDbCircle
 10
541.783984190494
 20
1558.861726461551
 30
0.0
 40
2.0
100
AcDbArc
 50
-90.0
 51
0.0
  0
ARC
  5
12B
330
A
100
AcDbEntity
  8
1
  6
Continuous
 62
     3
100
AcDbCircle
 10
541.783984190494
 20
1568.96172646155
 30
0.0
 40
2.0
100
AcDbArc
 50
0.0
 51
90.0
  0
ARC
  5
12A
330
A
100
AcDbEntity
  8
1
  6
Continuous
 62
     3
100
AcDbCircle
 10
506.7839841904939
 20
1568.96172646155
 30
0.0
 40
2.0
100
AcDbArc
 50
90.0
 51
180.0
  0
ARC
  5
129
330
A
100
AcDbEntity
  8
1
  6
Continuous
 62
     3
100
AcDbCircle
 10
506.7839841904939
 20
1558.861726461551
 30
0.0
 40
2.0
100
AcDbArc
 50
180.0
 51
-90.0
  0
SPLINE
  5
128
330
A
100
AcDbEntity
  8
1
  6
DOTTED
 62
     1
100
AcDbSpline
210
0.0
220
0.0
230
1.0
 70
     8
 71
     3
 72
    43
 73
    39
 74
    37
 42
0.0000000001
 43
0.0000000001
 44
0.00000000001
 40
0.0
 40
0.0
 40
0.0
 40
0.0
 40
0.0709330128066689
 40
0.1411452309326218
 40
0.2405637054250053
 40
0.3450222496327258
 40
0.4957060257108957
 40
0.646494065324327
 40
0.8379938838226838
 40
1.029614987596067
 40
1.256859504186051
 40
1.484125023414825
 40
1.740374084647364
 40
1.99663582503489
 40
2.274302901199077
 40
2.551975497967909
 40
2.842771627555737
 40
3.133570049457056
 40
3.428789928217246
 40
3.724009806977294
 40
4.01480822887867
 40
4.305604358466442
 40
4.583276955235274
 40
4.86094403139949
 40
5.117205771786959
 40
5.373454833019543
 40
5.600720352248337
 40
5.827964868838377
 40
6.019585972611733
 40
6.211085791110034
 40
6.361873830723477
 40
6.51255760680157
 40
6.618697930422
 40
6.723171851371278
 40
6.786514783451725
 40
6.849963043873599
 40
6.878008831916778
 40
6.898416005602247
 40
6.898416005602247
 40
6.898416005602247
 40
6.898416005602247
 10
217.6671499153931
 20
1560.428132129363
 30
0.0
 10
217.6499126383823
 20
1560.444573391686
 30
0.0
 10
217.6156132431067
 20
1560.477288846388
 30
0.0
 10
217.5411901221953
 20
1560.509965794038
 30
0.0
 10
217.4536197118343
 20
1560.535356526368
 30
0.0
 10
217.3394663573255
 20
1560.566284339099
 30
0.0
 10
217.2073106126367
 20
1560.595508627199
 30
0.0
 10
217.0455134789469
 20
1560.624418179275
 30
0.0
 10
216.8693754088396
 20
1560.650033238457
 30
0.0
 10
216.6674951113186
 20
1560.675378108363
 30
0.0
 10
216.4532793488277
 20
1560.6978548325
 30
0.0
 10
216.2172741764885
 20
1560.718744309341
 30
0.0
 10
215.9713283237099
 20
1560.736711121372
 30
0.0
 10
215.7084052480243
 20
1560.752535767257
 30
0.0
 10
215.4381715515917
 20
1560.765417775561
 30
0.0
 10
215.1563087195886
 20
1560.775709667081
 30
0.0
 10
214.8699739751199
 20
1560.783015714017
 30
0.0
 10
214.5777316725765
 20
1560.787485443535
 30
0.0
 10
214.2839841904974
 20
1560.788945115876
 30
0.0
 10
213.9902367083997
 20
1560.787485443564
 30
0.0
 10
213.6979944059114
 20
1560.783015713906
 30
0.0
 10
213.4116596612445
 20
1560.77570966749
 30
0.0
 10
213.1297968299474
 20
1560.765417774112
 30
0.0
 10
212.8595631309741
 20
1560.752535772499
 30
0.0
 10
212.5966400640726
 20
1560.736711103476
 30
0.0
 10
212.3506941802926
 20
1560.718744373106
 30
0.0
 10
212.1146891112195
 20
1560.697854624255
 30
0.0
 10
211.900472993071
 20
1560.675378836941
 30
0.0
 10
211.6985938260522
 20
1560.650030989225
 30
0.0
 10
211.5224519866739
 20
1560.624425858528
 30
0.0
 10
211.3606661095568
 20
1560.595486655966
 30
0.0
 10
211.2279270544711
 20
1560.566235553165
 30
0.0
 10
211.1117096079068
 20
1560.534429806545
 30
0.0
 10
211.0240424255313
 20
1560.509286433226
 30
0.0
 10
210.9527961685796
 20
1560.477581527682
 30
0.0
 10
210.9140092325866
 20
1560.44339890697
 30
0.0
 10
210.8887148013018
 20
1560.41457097911
 30
0.0
 10
210.885386139471
 20
1560.398531172334
 30
0.0
 10
210.8839841904941
 20
1560.391775607534
 30
0.0
 11
217.6671499153931
 21
1560.428132129363
 31
0.0
 11
217.6130724410989
 21
1560.474035496121
 31
0.0
 11
217.5499313658746
 21
1560.504743153044
 31
0.0
 11
217.4551106795139
 21
1560.534627438354
 31
0.0
 11
217.3541947008605
 21
1560.561600623379
 31
0.0
 11
217.2071453320291
 21
1560.594495660991
 31
0.0
 11
217.058762807699
 21
1560.621322128591
 31
0.0
 11
216.8693340266463
 21
1560.649409801933
 31
0.0
 11
216.6792090383037
 21
1560.673308258349
 31
0.0
 11
216.4532282992993
 21
1560.697240995744
 31
0.0
 11
216.2268539354528
 21
1560.717347303795
 31
0.0
 11
215.9712967487128
 21
1560.736164999937
 31
0.0
 11
215.7155000328145
 21
1560.751596128286
 31
0.0
 11
215.438151987045
 21
1560.764902769236
 31
0.0
 11
215.1606649907796
 21
1560.775053527826
 31
0.0
 11
214.8699647474292
 21
1560.782520622258
 31
0.0
 11
214.5792003101584
 21
1560.786966316683
 31
0.0
 11
214.2839841904943
 21
1560.788456117218
 31
0.0
 11
213.9887680708303
 21
1560.786966316683
 31
0.0
 11
213.6980036335595
 21
1560.782520622258
 31
0.0
 11
213.4073033902091
 21
1560.775053527826
 31
0.0
 11
213.1298163939437
 21
1560.764902769236
 31
0.0
 11
212.8524683481741
 21
1560.751596128286
 31
0.0
 11
212.5966716322759
 21
1560.736164999937
 31
0.0
 11
212.3411144455359
 21
1560.717347303795
 31
0.0
 11
212.1147400816894
 21
1560.697240995744
 31
0.0
 11
211.8887593426848
 21
1560.673308258349
 31
0.0
 11
211.6986343543423
 21
1560.649409801933
 31
0.0
 11
211.5092055732897
 21
1560.621322128591
 31
0.0
 11
211.3608230489596
 21
1560.594495660991
 31
0.0
 11
211.2137736801283
 21
1560.561600623379
 31
0.0
 11
211.1112625468863
 21
1560.534082704496
 31
0.0
 11
211.0116563967605
 21
1560.502564217609
 31
0.0
 11
210.9546504298002
 21
1560.474948157508
 31
0.0
 11
210.9062170435909
 21
1560.433961710348
 31
0.0
 11
210.8895424046834
 21
1560.411411263694
 31
0.0
 11
210.8839841904941
 21
1560.391775607534
 31
0.0
  0
SPLINE
  5
127
330
A
100
AcDbEntity
  8
1
  6
DOTTED
 62
     1
100
AcDbSpline
210
0.0
220
0.0
230
1.0
 70
     8
 71
     3
 72
    45
 73
    41
 74
    39
 42
0.0000000001
 43
0.0000000001
 44
0.00000000001
 40
0.0
 40
0.0
 40
0.0
 40
0.0
 40
0.0605016873935115
 40
0.1203885793244356
 40
0.2051866899212574
 40
0.294283683510255
 40
0.4228080807532236
 40
0.5514214086586962
 40
0.7147594891425973
 40
0.8782010188315842
 40
1.072027224158408
 40
1.265871343500503
 40
1.484436719257763
 40
1.703012909588224
 40
1.939846592198858
 40
2.176684983560506
 40
2.424716976444194
 40
2.672750924536615
 40
2.92455611524376
 40
3.176361305950876
 40
3.424395254043212
 40
3.672427246926974
 40
3.90926563828855
 40
4.146099320899308
 40
4.364675511229742
 40
4.583240886986883
 40
4.777085006329119
 40
4.970911211655839
 40
5.134352741344798
 40
5.297690821828699
 40
5.426304149734349
 40
5.554828546977284
 40
5.644597719344063
 40
5.731416431063949
 40
5.789858098254694
 40
5.851520029609924
 40
5.883293095263588
 40
5.911928424353685
 40
5.923939731889531
 40
5.932135101073285
 40
5.932135101073285
 40
5.932135101073285
 40
5.932135101073285
 10
217.1696255440845
 20
1559.926200256685
 30
0.0
 10
217.1549231607517
 20
1559.940223686313
 30
0.0
 10
217.125667794193
 20
1559.968128044735
 30
0.0
 10
217.0621892498864
 20
1559.995999558908
 30
0.0
 10
216.9874968410492
 20
1560.017656360013
 30
0.0
 10
216.8901307445562
 20
1560.044035964989
 30
0.0
 10
216.7774096682038
 20
1560.068962563662
 30
0.0
 10
216.6394062306449
 20
1560.09362071102
 30
0.0
 10
216.4891708179064
 20
1560.115468849735
 30
0.0
 10
216.3169787994327
 20
1560.13708653289
 30
0.0
 10
216.134265354955
 20
1560.156257856417
 30
0.0
 10
215.932966825607
 20
1560.174075351372
 30
0.0
 10
215.7231894805899
 20
1560.189399985162
 30
0.0
 10
215.4989315630935
 20
1560.202897477242
 30
0.0
 10
215.2684381161362
 20
1560.213885072559
 30
0.0
 10
215.0280257006043
 20
1560.222663450622
 30
0.0
 10
214.7837990067927
 20
1560.228895078889
 30
0.0
 10
214.5345335134464
 20
1560.232707495245
 30
0.0
 10
214.2839841904985
 20
1560.233952509884
 30
0.0
 10
214.0334348675257
 20
1560.232707495282
 30
0.0
 10
213.7841693742526
 20
1560.22889507874
 30
0.0
 10
213.5399426801778
 20
1560.222663451169
 30
0.0
 10
213.2995302655846
 20
1560.213885070612
 30
0.0
 10
213.069036815248
 20
1560.202897484284
 30
0.0
 10
212.844778909435
 20
1560.189399961122
 30
0.0
 10
212.6350015231843
 20
1560.174075437031
 30
0.0
 10
212.4337031311855
 20
1560.156257576669
 30
0.0
 10
212.2509892136648
 20
1560.137087511634
 30
0.0
 10
212.0787986988181
 20
1560.115465828206
 30
0.0
 10
211.928558272752
 20
1560.09363102703
 30
0.0
 10
211.7905698070239
 20
1560.068933048367
 30
0.0
 10
211.6775824016193
 20
1560.044084407856
 30
0.0
 10
211.5794791276405
 20
1560.017119323414
 30
0.0
 10
211.5040734654404
 20
1559.996132683999
 30
0.0
 10
211.4408916084581
 20
1559.965992704546
 30
0.0
 10
211.4027847576841
 20
1559.934437795231
 30
0.0
 10
211.3764405487964
 20
1559.897715693352
 30
0.0
 10
211.3891680922677
 20
1559.873112761887
 30
0.0
 10
211.4005934387704
 20
1559.861846673047
 30
0.0
 10
211.4052878450046
 20
1559.85699501026
 30
0.0
 10
211.4071917895633
 20
1559.855027286016
 30
0.0
 11
217.1696255440845
 21
1559.926200256685
 31
0.0
 11
217.1235006395395
 21
1559.965353128331
 31
0.0
 11
217.0696450165542
 21
1559.991544953354
 31
0.0
 11
216.9887685487757
 21
1560.017034490825
 31
0.0
 11
216.9026931552182
 21
1560.040041030993
 31
0.0
 11
216.777268693568
 21
1560.068098563073
 31
0.0
 11
216.6507071286982
 21
1560.090979961908
 31
0.0
 11
216.4891355213298
 21
1560.114937095053
 31
0.0
 11
216.3269700900964
 21
1560.135321072584
 31
0.0
 11
216.1342218127102
 21
1560.155734289773
 31
0.0
 11
215.9411377964883
 21
1560.172883787817
 31
0.0
 11
215.7231625489747
 21
1560.188934175703
 31
0.0
 11
215.5049829971793
 21
1560.202096020472
 31
0.0
 11
215.2684214287287
 21
1560.213445802458
 31
0.0
 11
215.0317413436788
 21
1560.222103802432
 31
0.0
 11
214.7837911361153
 21
1560.228472794742
 31
0.0
 11
214.5357861749136
 21
1560.232264710575
 31
0.0
 11
214.2839841904943
 21
1560.233535422796
 31
0.0
 11
214.032182206075
 21
1560.232264710575
 31
0.0
 11
213.7841772448734
 21
1560.228472794742
 31
0.0
 11
213.5362270373098
 21
1560.222103802431
 31
0.0
 11
213.29954695226
 21
1560.213445802458
 31
0.0
 11
213.0629853838093
 21
1560.202096020472
 31
0.0
 11
212.8448058320139
 21
1560.188934175703
 31
0.0
 11
212.6268305845004
 21
1560.172883787817
 31
0.0
 11
212.4337465682784
 21
1560.155734289774
 31
0.0
 11
212.2409982908922
 21
1560.135321072585
 31
0.0
 11
212.0788328596589
 21
1560.114937095054
 31
0.0
 11
211.9172612522904
 21
1560.090979961909
 31
0.0
 11
211.7906996874206
 21
1560.068098563073
 31
0.0
 11
211.6652752257704
 21
1560.040041030993
 31
0.0
 11
211.5785622635933
 21
1560.016816765711
 31
0.0
 11
211.4957730899563
 21
1559.990674052898
 31
0.0
 11
211.4434228574016
 21
1559.964695569196
 31
0.0
 11
211.3967135751923
 21
1559.924440920595
 31
0.0
 11
211.3823070048253
 21
1559.89612169689
 31
0.0
 11
211.3932633559408
 21
1559.869665309337
 31
0.0
 11
211.401474620976
 21
1559.860899088073
 31
0.0
 11
211.4071917895633
 21
1559.855027286016
 31
0.0
  0
SPLINE
  5
126
330
A
100
AcDbEntity
  8
1
  6
DOTTED
 62
     1
100
AcDbSpline
210
0.0
220
0.0
230
1.0
 70
     8
 71
     3
 72
    11
 73
     7
 74
     5
 42
0.0000000001
 43
0.0000000001
 44
0.00000000001
 40
0.0
 40
0.0
 40
0.0
 40
0.0
 40
0.0086574466679021
 40
0.021831233471566
 40
0.0497506338608818
 40
0.0831432253148238
 40
0.0831432253148238
 40
0.0831432253148238
 40
0.0831432253148238
 10
217.1606132264152
 20
1559.85486571644
 30
0.0
 10
217.1626188616011
 20
1559.856949201116
 30
0.0
 10
217.1676764139813
 20
1559.862203064309
 30
0.0
 10
217.1794880597343
 20
1559.873526872069
 30
0.0
 10
217.1912754490768
 20
1559.899620256339
 30
0.0
 10
217.1772592446643
 20
1559.916828217218
 30
0.0
 10
217.1696255440845
 20
1559.926200256685
 30
0.0
 11
217.1606132264152
 21
1559.85486571644
 31
0.0
 11
217.1666498767144
 21
1559.861071378046
 31
0.0
 11
217.175652855814
 21
1559.870688811492
 31
0.0
 11
217.1854910184269
 21
1559.89681740645
 31
0.0
 11
217.1696255440845
 21
1559.926200256685
 31
0.0
  0
SPLINE
  5
125
330
A
100
AcDbEntity
  8
1
  6
DOTTED
 62
     1
100
AcDbSpline
210
0.0
220
0.0
230
1.0
 70
     8
 71
     3
 72
    41
 73
    37
 74
    35
 42
0.0000000001
 43
0.0000000001
 44
0.00000000001
 40
0.0
 40
0.0
 40
0.0
 40
0.0
 40
0.0538481034339017
 40
0.1087084336393064
 40
0.1925812079918385
 40
0.2808226400850518
 40
0.4099629438251958
 40
0.5387812255585603
 40
0.7021193060423383
 40
0.865560835731382
 40
1.059387041058245
 40
1.253231160400441
 40
1.471796536157549
 40
1.690372726488025
 40
1.927206409098794
 40
2.164044800460434
 40
2.412076793344117
 40
2.66011074143645
 40
2.911915932143566
 40
3.163721122850709
 40
3.411755070943159
 40
3.659787063826842
 40
3.896625455188453
 40
4.133459137799115
 40
4.352035328129565
 40
4.570600703886785
 40
4.764444823228981
 40
4.958271028555739
 40
5.12171255824484
 40
5.285050638728645
 40
5.41387268925932
 40
5.54302431858413
 40
5.631249826562963
 40
5.715105009272442
 40
5.769874507639788
 40
5.823603687980829
 40
5.823603687980829
 40
5.823603687980829
 40
5.823603687980829
 10
211.4071917895633
 20
1559.855027286016
 30
0.0
 10
211.4207909879107
 20
1559.843141642403
 30
0.0
 10
211.4482450198416
 20
1559.819146931028
 30
0.0
 10
211.5080562431854
 20
1559.79391747028
 30
0.0
 10
211.58050555301
 20
1559.772623427155
 30
0.0
 10
211.6775243473112
 20
1559.746454733133
 30
0.0
 10
211.7902223198347
 20
1559.721483791809
 30
0.0
 10
211.9284944890376
 20
1559.696768051665
 30
0.0
 10
212.0787975766826
 20
1559.674912184419
 30
0.0
 10
212.2509895771505
 20
1559.653293870376
 30
0.0
 10
212.4337030272927
 20
1559.634122745325
 30
0.0
 10
212.6350015549961
 20
1559.616305192743
 30
0.0
 10
212.8447789005069
 20
1559.600980576254
 30
0.0
 10
213.0690368178635
 20
1559.587483079273
 30
0.0
 10
213.2995302648613
 20
1559.576495485372
 30
0.0
 10
213.5399426803819
 20
1559.567717106917
 30
0.0
 10
213.7841693741969
 20
1559.561485478758
 30
0.0
 10
214.033434867541
 20
1559.557673062375
 30
0.0
 10
214.2839841904943
 20
1559.556428047733
 30
0.0
 10
214.5345335134476
 20
1559.557673062375
 30
0.0
 10
214.7837990067918
 20
1559.561485478758
 30
0.0
 10
215.0280257006068
 20
1559.567717106915
 30
0.0
 10
215.2684381161273
 20
1559.576495485377
 30
0.0
 10
215.4989315631258
 20
1559.587483079252
 30
0.0
 10
215.7231894804795
 20
1559.600980576318
 30
0.0
 10
215.9329668260008
 20
1559.616305192505
 30
0.0
 10
216.1342653536685
 20
1559.634122746099
 30
0.0
 10
216.316978803934
 20
1559.653293867666
 30
0.0
 10
216.4891708040104
 20
1559.674912192782
 30
0.0
 10
216.6394751362985
 20
1559.696768203887
 30
0.0
 10
216.77775224644
 20
1559.721484998261
 30
0.0
 10
216.8904497337275
 20
1559.746456756188
 30
0.0
 10
216.9874618848956
 20
1559.772621482231
 30
0.0
 10
217.0598702907164
 20
1559.793908804928
 30
0.0
 10
217.1196149422494
 20
1559.81909188914
 30
0.0
 10
217.1470347682112
 20
1559.843017576239
 30
0.0
 10
217.1606132264152
 20
1559.85486571644
 30
0.0
 11
211.4071917895633
 21
1559.855027286016
 31
0.0
 11
211.4495372188348
 21
1559.821763448846
 31
0.0
 11
211.4992326380172
 21
1559.798525093859
 31
0.0
 11
211.579227724358
 21
1559.773317387915
 31
0.0
 11
211.6644775207684
 21
1559.750535321507
 31
0.0
 11
211.7905002611701
 21
1559.72233094327
 31
0.0
 11
211.9172612522904
 21
1559.699400595716
 31
0.0
 11
212.0788328596588
 21
1559.675443462571
 31
0.0
 11
212.2409982908922
 21
1559.65505948504
 31
0.0
 11
212.4337465682784
 21
1559.63464626785
 31
0.0
 11
212.6268305845004
 21
1559.617496769807
 31
0.0
 11
212.8448058320139
 21
1559.601446381921
 31
0.0
 11
213.0629853838093
 21
1559.588284537152
 31
0.0
 11
213.29954695226
 21
1559.576934755166
 31
0.0
 11
213.5362270373099
 21
1559.568276755192
 31
0.0
 11
213.7841772448734
 21
1559.561907762881
 31
0.0
 11
214.032182206075
 21
1559.558115847048
 31
0.0
 11
214.2839841904943
 21
1559.556845134827
 31
0.0
 11
214.5357861749136
 21
1559.558115847048
 31
0.0
 11
214.7837911361153
 21
1559.561907762881
 31
0.0
 11
215.0317413436788
 21
1559.568276755192
 31
0.0
 11
215.2684214287287
 21
1559.576934755166
 31
0.0
 11
215.5049829971793
 21
1559.588284537152
 31
0.0
 11
215.7231625489747
 21
1559.60144638192
 31
0.0
 11
215.9411377964883
 21
1559.617496769807
 31
0.0
 11
216.1342218127103
 21
1559.63464626785
 31
0.0
 11
216.3269700900965
 21
1559.655059485039
 31
0.0
 11
216.4891355213299
 21
1559.675443462571
 31
0.0
 11
216.6507071286983
 21
1559.699400595716
 31
0.0
 11
216.7774717869605
 21
1559.722331843361
 31
0.0
 11
216.9035055287881
 21
1559.750538921873
 31
0.0
 11
216.9887399619454
 21
1559.773316798475
 31
0.0
 11
217.0687182956628
 21
1559.798519135728
 31
0.0
 11
217.1183379114966
 21
1559.821705159016
 31
0.0
 11
217.1606132264152
 21
1559.85486571644
 31
0.0
  0
SPLINE
  5
124
330
A
100
AcDbEntity
  8
1
  6
DOTTED
 62
     1
100
AcDbSpline
210
0.0
220
0.0
230
1.0
 70
     8
 71
     3
 72
     9
 73
     5
 74
     3
 42
0.0000000001
 43
0.0000000001
 44
0.00000000001
 40
0.0
 40
0.0
 40
0.0
 40
0.0
 40
0.018659080360116
 40
0.0407918091277895
 40
0.0407918091277895
 40
0.0407918091277895
 40
0.0407918091277895
 10
217.6839841904945
 20
1560.391775604382
 30
0.0
 10
217.6830719637473
 20
1560.398052530232
 30
0.0
 10
217.6810776865036
 20
1560.411774919345
 30
0.0
 10
217.6720487925345
 20
1560.422378734823
 30
0.0
 10
217.6671499153931
 20
1560.428132129363
 30
0.0
 11
217.6839841904945
 21
1560.391775604382
 31
0.0
 11
217.6797756215337
 21
1560.409953866873
 31
0.0
 11
217.6671499153931
 21
1560.428132129363
 31
0.0
  0
SPLINE
  5
123
330
A
100
AcDbEntity
  8
1
  6
DOTTED
 62
     1
100
AcDbSpline
210
0.0
220
0.0
230
1.0
 70
     8
 71
     3
 72
     9
 73
     5
 74
     3
 42
0.0000000001
 43
0.0000000001
 44
0.00000000001
 40
0.0
 40
0.0
 40
0.0
 40
0.0
 40
0.0186590803601096
 40
0.0407918091277993
 40
0.0407918091277993
 40
0.0407918091277993
 40
0.0407918091277993
 10
520.8839841904943
 20
1560.391775604382
 30
0.0
 10
520.8848964172414
 20
1560.398052530232
 30
0.0
 10
520.8868906944851
 20
1560.411774919345
 30
0.0
 10
520.8959195884544
 20
1560.422378734824
 30
0.0
 10
520.9008184655956
 20
1560.428132129363
 30
0.0
 11
520.8839841904943
 21
1560.391775604382
 31
0.0
 11
520.888192759455
 21
1560.409953866873
 31
0.0
 11
520.9008184655956
 21
1560.428132129363
 31
0.0
  0
SPLINE
  5
122
330
A
100
AcDbEntity
  8
1
  6
DOTTED
 62
     1
100
AcDbSpline
210
0.0
220
0.0
230
1.0
 70
     8
 71
     3
 72
    41
 73
    37
 74
    35
 42
0.0000000001
 43
0.0000000001
 44
0.00000000001
 40
0.0
 40
0.0
 40
0.0
 40
0.0
 40
0.0538481034337613
 40
0.1087084336393394
 40
0.1925812079920343
 40
0.2808226400852201
 40
0.4099629438252809
 40
0.5387812255583966
 40
0.7021193060423258
 40
0.8655608357311438
 40
1.059387041058077
 40
1.253231160400171
 40
1.471796536157466
 40
1.690372726487885
 40
1.927206409098825
 40
2.164044800460351
 40
2.412076793343977
 40
2.660110741436196
 40
2.911915932143454
 40
3.163721122850597
 40
3.411755070943047
 40
3.659787063826787
 40
3.89662545518854
 40
4.133459137799106
 40
4.352035328129684
 40
4.570600703886738
 40
4.764444823228873
 40
4.958271028555621
 40
5.121712558244806
 40
5.285050638728669
 40
5.413872689259107
 40
5.543024318584105
 40
5.631249826562797
 40
5.715105009272372
 40
5.769874507639718
 40
5.823603687980781
 40
5.823603687980781
 40
5.823603687980781
 40
5.823603687980781
 10
527.1607765914255
 20
1559.855027286016
 30
0.0
 10
527.1471773930779
 20
1559.843141642403
 30
0.0
 10
527.1197233611469
 20
1559.819146931028
 30
0.0
 10
527.0599121378035
 20
1559.79391747028
 30
0.0
 10
526.9874628279784
 20
1559.772623427155
 30
0.0
 10
526.8904440336772
 20
1559.746454733133
 30
0.0
 10
526.7777460611539
 20
1559.721483791809
 30
0.0
 10
526.639473891951
 20
1559.696768051666
 30
0.0
 10
526.4891708043062
 20
1559.674912184419
 30
0.0
 10
526.3169788038384
 20
1559.653293870375
 30
0.0
 10
526.134265353696
 20
1559.634122745326
 30
0.0
 10
525.9329668259927
 20
1559.616305192743
 30
0.0
 10
525.723189480482
 20
1559.600980576254
 30
0.0
 10
525.498931563125
 20
1559.587483079272
 30
0.0
 10
525.2684381161276
 20
1559.576495485372
 30
0.0
 10
525.0280257006068
 20
1559.567717106917
 30
0.0
 10
524.7837990067919
 20
1559.561485478758
 30
0.0
 10
524.5345335134479
 20
1559.557673062375
 30
0.0
 10
524.2839841904944
 20
1559.556428047733
 30
0.0
 10
524.0334348675411
 20
1559.557673062375
 30
0.0
 10
523.7841693741969
 20
1559.561485478758
 30
0.0
 10
523.5399426803818
 20
1559.567717106915
 30
0.0
 10
523.2995302648614
 20
1559.576495485377
 30
0.0
 10
523.0690368178628
 20
1559.587483079253
 30
0.0
 10
522.844778900509
 20
1559.600980576318
 30
0.0
 10
522.6350015549878
 20
1559.616305192505
 30
0.0
 10
522.4337030273203
 20
1559.634122746101
 30
0.0
 10
522.2509895770547
 20
1559.653293867665
 30
0.0
 10
522.0787975769783
 20
1559.674912192783
 30
0.0
 10
521.9284932446903
 20
1559.696768203888
 30
0.0
 10
521.7902161345486
 20
1559.72148499826
 30
0.0
 10
521.6775186472611
 20
1559.746456756188
 30
0.0
 10
521.5805064960932
 20
1559.77262148223
 30
0.0
 10
521.5080980902722
 20
1559.793908804928
 30
0.0
 10
521.4483534387396
 20
1559.81909188914
 30
0.0
 10
521.4209336127774
 20
1559.84301757624
 30
0.0
 10
521.4073551545736
 20
1559.85486571644
 30
0.0
 11
527.1607765914255
 21
1559.855027286016
 31
0.0
 11
527.1184311621539
 21
1559.821763448846
 31
0.0
 11
527.0687357429714
 21
1559.798525093859
 31
0.0
 11
526.9887406566304
 21
1559.773317387915
 31
0.0
 11
526.9034908602201
 21
1559.750535321507
 31
0.0
 11
526.7774681198185
 21
1559.72233094327
 31
0.0
 11
526.6507071286984
 21
1559.699400595716
 31
0.0
 11
526.4891355213299
 21
1559.675443462571
 31
0.0
 11
526.3269700900967
 21
1559.65505948504
 31
0.0
 11
526.1342218127103
 21
1559.63464626785
 31
0.0
 11
525.9411377964885
 21
1559.617496769807
 31
0.0
 11
525.7231625489748
 21
1559.601446381921
 31
0.0
 11
525.5049829971794
 21
1559.588284537152
 31
0.0
 11
525.2684214287286
 21
1559.576934755166
 31
0.0
 11
525.0317413436788
 21
1559.568276755192
 31
0.0
 11
524.7837911361154
 21
1559.561907762881
 31
0.0
 11
524.5357861749139
 21
1559.558115847048
 31
0.0
 11
524.2839841904944
 21
1559.556845134827
 31
0.0
 11
524.0321822060751
 21
1559.558115847048
 31
0.0
 11
523.7841772448734
 21
1559.561907762881
 31
0.0
 11
523.5362270373099
 21
1559.568276755192
 31
0.0
 11
523.2995469522599
 21
1559.576934755166
 31
0.0
 11
523.0629853838093
 21
1559.588284537151
 31
0.0
 11
522.8448058320138
 21
1559.601446381919
 31
0.0
 11
522.6268305845004
 21
1559.617496769807
 31
0.0
 11
522.4337465682785
 21
1559.63464626785
 31
0.0
 11
522.2409982908922
 21
1559.655059485039
 31
0.0
 11
522.0788328596588
 21
1559.675443462571
 31
0.0
 11
521.9172612522903
 21
1559.699400595716
 31
0.0
 11
521.7904965940284
 21
1559.722331843361
 31
0.0
 11
521.6644628522005
 21
1559.750538921873
 31
0.0
 11
521.5792284190434
 21
1559.773316798475
 31
0.0
 11
521.4992500853258
 21
1559.798519135728
 31
0.0
 11
521.4496304694921
 21
1559.821705159016
 31
0.0
 11
521.4073551545736
 21
1559.85486571644
 31
0.0
  0
SPLINE
  5
121
330
A
100
AcDbEntity
  8
1
  6
DOTTED
 62
     1
100
AcDbSpline
210
0.0
220
0.0
230
1.0
 70
     8
 71
     3
 72
    11
 73
     7
 74
     5
 42
0.0000000001
 43
0.0000000001
 44
0.00000000001
 40
0.0
 40
0.0
 40
0.0
 40
0.0
 40
0.008657446667803
 40
0.0218312334716612
 40
0.0497506338609669
 40
0.083143225314963
 40
0.083143225314963
 40
0.083143225314963
 40
0.083143225314963
 10
521.4073551545736
 20
1559.85486571644
 30
0.0
 10
521.4053495193877
 20
1559.856949201116
 30
0.0
 10
521.4002919670077
 20
1559.86220306431
 30
0.0
 10
521.3884803212541
 20
1559.873526872068
 30
0.0
 10
521.3766929319119
 20
1559.899620256339
 30
0.0
 10
521.3907091363245
 20
1559.916828217218
 30
0.0
 10
521.3983428369042
 20
1559.926200256685
 30
0.0
 11
521.4073551545736
 21
1559.85486571644
 31
0.0
 11
521.4013185042745
 21
1559.861071378046
 31
0.0
 11
521.3923155251745
 21
1559.870688811492
 31
0.0
 11
521.3824773625617
 21
1559.89681740645
 31
0.0
 11
521.3983428369042
 21
1559.926200256685
 31
0.0
  0
SPLINE
  5
120
330
A
100
AcDbEntity
  8
1
  6
DOTTED
 62
     1
100
AcDbSpline
210
0.0
220
0.0
230
1.0
 70
     8
 71
     3
 72
    45
 73
    41
 74
    39
 42
0.0000000001
 43
0.0000000001
 44
0.00000000001
 40
0.0
 40
0.0
 40
0.0
 40
0.0
 40
0.060501687393321
 40
0.1203885793243957
 40
0.2051866899211362
 40
0.2942836835102436
 40
0.4228080807532617
 40
0.551421408658638
 40
0.7147594891425005
 40
0.8782010188315441
 40
1.072027224158251
 40
1.265871343500458
 40
1.484436719257757
 40
1.703012909588248
 40
1.939846592198825
 40
2.176684983560587
 40
2.42471697644419
 40
2.67275092453664
 40
2.924556115243784
 40
3.176361305950814
 40
3.424395254043268
 40
3.672427246926888
 40
3.90926563828852
 40
4.146099320899324
 40
4.364675511229702
 40
4.58324088698682
 40
4.777085006329142
 40
4.970911211655801
 40
5.134352741344844
 40
5.297690821828707
 40
5.426304149734245
 40
5.554828546977153
 40
5.644597719344014
 40
5.7314164310639
 40
5.789858098254671
 40
5.851520029609922
 40
5.883293095263737
 40
5.911928424353537
 40
5.92393973188908
 40
5.932135101073224
 40
5.932135101073224
 40
5.932135101073224
 40
5.932135101073224
 10
521.3983428369042
 20
1559.926200256685
 30
0.0
 10
521.4130452202371
 20
1559.940223686313
 30
0.0
 10
521.4423005867957
 20
1559.968128044735
 30
0.0
 10
521.5057791311022
 20
1559.995999558907
 30
0.0
 10
521.5804715399395
 20
1560.017656360014
 30
0.0
 10
521.6778376364326
 20
1560.044035964988
 30
0.0
 10
521.7905587127846
 20
1560.068962563662
 30
0.0
 10
521.9285621503439
 20
1560.09362071102
 30
0.0
 10
522.0787975630823
 20
1560.115468849734
 30
0.0
 10
522.2509895815559
 20
1560.137086532889
 30
0.0
 10
522.4337030260337
 20
1560.156257856417
 30
0.0
 10
522.6350015553817
 20
1560.174075351371
 30
0.0
 10
522.8447789003986
 20
1560.189399985164
 30
0.0
 10
523.0690368178953
 20
1560.202897477241
 30
0.0
 10
523.2995302648527
 20
1560.213885072559
 30
0.0
 10
523.5399426803842
 20
1560.222663450621
 30
0.0
 10
523.7841693741962
 20
1560.228895078889
 30
0.0
 10
524.0334348675424
 20
1560.232707495245
 30
0.0
 10
524.2839841904904
 20
1560.233952509883
 30
0.0
 10
524.5345335134629
 20
1560.232707495283
 30
0.0
 10
524.7837990067361
 20
1560.228895078739
 30
0.0
 10
525.0280257008109
 20
1560.222663451169
 30
0.0
 10
525.2684381154042
 20
1560.213885070611
 30
0.0
 10
525.4989315657407
 20
1560.202897484283
 30
0.0
 10
525.7231894715538
 20
1560.189399961123
 30
0.0
 10
525.9329668578043
 20
1560.17407543703
 30
0.0
 10
526.1342652498032
 20
1560.156257576669
 30
0.0
 10
526.3169791673239
 20
1560.137087511634
 30
0.0
 10
526.4891696821705
 20
1560.115465828205
 30
0.0
 10
526.6394101082369
 20
1560.09363102703
 30
0.0
 10
526.7773985739648
 20
1560.068933048367
 30
0.0
 10
526.8903859793694
 20
1560.044084407857
 30
0.0
 10
526.9884892533481
 20
1560.017119323414
 30
0.0
 10
527.0638949155483
 20
1559.996132684
 30
0.0
 10
527.1270767725305
 20
1559.965992704545
 30
0.0
 10
527.1651836233051
 20
1559.934437795232
 30
0.0
 10
527.1915278321918
 20
1559.897715693351
 30
0.0
 10
527.1788002887219
 20
1559.873112761886
 30
0.0
 10
527.1673749422177
 20
1559.861846673048
 30
0.0
 10
527.162680535984
 20
1559.856995010261
 30
0.0
 10
527.1607765914255
 20
1559.855027286016
 30
0.0
 11
521.3983428369042
 21
1559.926200256685
 31
0.0
 11
521.4444677414491
 21
1559.965353128331
 31
0.0
 11
521.4983233644345
 21
1559.991544953354
 31
0.0
 11
521.5791998322129
 21
1560.017034490825
 31
0.0
 11
521.6652752257705
 21
1560.040041030993
 31
0.0
 11
521.7906996874208
 21
1560.068098563073
 31
0.0
 11
521.9172612522904
 21
1560.090979961908
 31
0.0
 11
522.0788328596589
 21
1560.114937095052
 31
0.0
 11
522.2409982908922
 21
1560.135321072584
 31
0.0
 11
522.4337465682785
 21
1560.155734289773
 31
0.0
 11
522.6268305845004
 21
1560.172883787817
 31
0.0
 11
522.844805832014
 21
1560.188934175704
 31
0.0
 11
523.0629853838094
 21
1560.202096020472
 31
0.0
 11
523.29954695226
 21
1560.213445802458
 31
0.0
 11
523.53622703731
 21
1560.222103802432
 31
0.0
 11
523.7841772448734
 21
1560.228472794742
 31
0.0
 11
524.0321822060751
 21
1560.232264710575
 31
0.0
 11
524.2839841904944
 21
1560.233535422796
 31
0.0
 11
524.5357861749137
 21
1560.232264710575
 31
0.0
 11
524.7837911361154
 21
1560.228472794742
 31
0.0
 11
525.0317413436788
 21
1560.222103802431
 31
0.0
 11
525.2684214287287
 21
1560.213445802458
 31
0.0
 11
525.5049829971794
 21
1560.202096020472
 31
0.0
 11
525.7231625489748
 21
1560.188934175704
 31
0.0
 11
525.9411377964883
 21
1560.172883787817
 31
0.0
 11
526.1342218127103
 21
1560.155734289774
 31
0.0
 11
526.3269700900965
 21
1560.135321072585
 31
0.0
 11
526.4891355213299
 21
1560.114937095053
 31
0.0
 11
526.6507071286984
 21
1560.090979961909
 31
0.0
 11
526.777268693568
 21
1560.068098563073
 31
0.0
 11
526.9026931552182
 21
1560.040041030993
 31
0.0
 11
526.9894061173954
 21
1560.016816765711
 31
0.0
 11
527.0721952910324
 21
1559.990674052898
 31
0.0
 11
527.1245455235871
 21
1559.964695569196
 31
0.0
 11
527.1712548057965
 21
1559.924440920595
 31
0.0
 11
527.1856613761634
 21
1559.896121696889
 31
0.0
 11
527.174705025048
 21
1559.869665309337
 31
0.0
 11
527.1664937600125
 21
1559.860899088074
 31
0.0
 11
527.1607765914255
 21
1559.855027286016
 31
0.0
  0
SPLINE
  5
11F
330
A
100
AcDbEntity
  8
1
  6
DOTTED
 62
     1
100
AcDbSpline
210
0.0
220
0.0
230
1.0
 70
     8
 71
     3
 72
    43
 73
    39
 74
    37
 42
0.0000000001
 43
0.0000000001
 44
0.00000000001
 40
0.0
 40
0.0
 40
0.0
 40
0.0
 40
0.0709330128067727
 40
0.1411452309327795
 40
0.2405637054248649
 40
0.345022249632805
 40
0.4957060257109194
 40
0.6464940653242014
 40
0.8379938838226303
 40
1.029614987595957
 40
1.256859504186175
 40
1.484125023414897
 40
1.74037408464748
 40
1.996635825034866
 40
2.274302901199194
 40
2.551975497967942
 40
2.842771627555912
 40
3.133570049457288
 40
3.428789928217252
 40
3.72400980697733
 40
4.014808228878705
 40
4.305604358466562
 40
4.58327695523531
 40
4.860944031399503
 40
5.117205771786915
 40
5.373454833019516
 40
5.600720352248217
 40
5.827964868838321
 40
6.019585972611649
 40
6.21108579111009
 40
6.361873830723381
 40
6.512557606801607
 40
6.61869793042201
 40
6.723171851371287
 40
6.786514783451661
 40
6.849963043873638
 40
6.878008831916783
 40
6.898416005602252
 40
6.898416005602252
 40
6.898416005602252
 40
6.898416005602252
 10
520.9008184655956
 20
1560.428132129363
 30
0.0
 10
520.9180557426065
 20
1560.444573391686
 30
0.0
 10
520.952355137882
 20
1560.477288846388
 30
0.0
 10
521.0267782587935
 20
1560.509965794038
 30
0.0
 10
521.1143486691544
 20
1560.535356526368
 30
0.0
 10
521.2285020236633
 20
1560.566284339099
 30
0.0
 10
521.3606577683519
 20
1560.5955086272
 30
0.0
 10
521.522454902042
 20
1560.624418179273
 30
0.0
 10
521.6985929721489
 20
1560.650033238457
 30
0.0
 10
521.9004732696701
 20
1560.675378108363
 30
0.0
 10
522.1146890321611
 20
1560.697854832499
 30
0.0
 10
522.3506942045004
 20
1560.718744309342
 30
0.0
 10
522.5966400572789
 20
1560.736711121372
 30
0.0
 10
522.8595631329644
 20
1560.752535767256
 30
0.0
 10
523.1297968293971
 20
1560.765417775562
 30
0.0
 10
523.4116596614001
 20
1560.775709667081
 30
0.0
 10
523.6979944058689
 20
1560.783015714016
 30
0.0
 10
523.9902367084123
 20
1560.787485443535
 30
0.0
 10
524.2839841904912
 20
1560.788945115877
 30
0.0
 10
524.5777316725891
 20
1560.787485443564
 30
0.0
 10
524.8699739750774
 20
1560.783015713905
 30
0.0
 10
525.1563087197442
 20
1560.77570966749
 30
0.0
 10
525.4381715510415
 20
1560.765417774112
 30
0.0
 10
525.7084052500146
 20
1560.7525357725
 30
0.0
 10
525.971328316916
 20
1560.736711103477
 30
0.0
 10
526.2172742006961
 20
1560.718744373106
 30
0.0
 10
526.4532792697692
 20
1560.697854624254
 30
0.0
 10
526.6674953879177
 20
1560.675378836941
 30
0.0
 10
526.8693745549365
 20
1560.650030989225
 30
0.0
 10
527.0455163943146
 20
1560.624425858528
 30
0.0
 10
527.2073022714319
 20
1560.595486655966
 30
0.0
 10
527.3400413265176
 20
1560.566235553165
 30
0.0
 10
527.4562587730819
 20
1560.534429806545
 30
0.0
 10
527.5439259554572
 20
1560.509286433226
 30
0.0
 10
527.6151722124093
 20
1560.477581527683
 30
0.0
 10
527.6539591484022
 20
1560.44339890697
 30
0.0
 10
527.6792535796868
 20
1560.41457097911
 30
0.0
 10
527.6825822415177
 20
1560.398531172334
 30
0.0
 10
527.6839841904945
 20
1560.391775607534
 30
0.0
 11
520.9008184655956
 21
1560.428132129363
 31
0.0
 11
520.9548959398898
 21
1560.474035496122
 31
0.0
 11
521.0180370151142
 21
1560.504743153044
 31
0.0
 11
521.1128577014746
 21
1560.534627438354
 31
0.0
 11
521.2137736801284
 21
1560.561600623379
 31
0.0
 11
521.3608230489596
 21
1560.594495660991
 31
0.0
 11
521.5092055732896
 21
1560.62132212859
 31
0.0
 11
521.6986343543424
 21
1560.649409801933
 31
0.0
 11
521.8887593426849
 21
1560.673308258349
 31
0.0
 11
522.1147400816896
 21
1560.697240995744
 31
0.0
 11
522.3411144455361
 21
1560.717347303795
 31
0.0
 11
522.596671632276
 21
1560.736164999937
 31
0.0
 11
522.8524683481741
 21
1560.751596128286
 31
0.0
 11
523.1298163939438
 21
1560.764902769236
 31
0.0
 11
523.4073033902092
 21
1560.775053527826
 31
0.0
 11
523.6980036335597
 21
1560.782520622258
 31
0.0
 11
523.9887680708306
 21
1560.786966316683
 31
0.0
 11
524.2839841904944
 21
1560.788456117218
 31
0.0
 11
524.5792003101585
 21
1560.786966316683
 31
0.0
 11
524.8699647474293
 21
1560.782520622258
 31
0.0
 11
525.1606649907797
 21
1560.775053527826
 31
0.0
 11
525.4381519870451
 21
1560.764902769236
 31
0.0
 11
525.7155000328147
 21
1560.751596128287
 31
0.0
 11
525.9712967487128
 21
1560.736164999937
 31
0.0
 11
526.2268539354528
 21
1560.717347303795
 31
0.0
 11
526.4532282992992
 21
1560.697240995744
 31
0.0
 11
526.6792090383038
 21
1560.673308258349
 31
0.0
 11
526.8693340266463
 21
1560.649409801933
 31
0.0
 11
527.0587628076992
 21
1560.621322128591
 31
0.0
 11
527.2071453320291
 21
1560.594495660991
 31
0.0
 11
527.3541947008604
 21
1560.561600623379
 31
0.0
 11
527.4567058341024
 21
1560.534082704496
 31
0.0
 11
527.5563119842282
 21
1560.502564217609
 31
0.0
 11
527.6133179511885
 21
1560.474948157509
 31
0.0
 11
527.6617513373978
 21
1560.433961710348
 31
0.0
 11
527.6784259763052
 21
1560.411411263694
 31
0.0
 11
527.6839841904945
 21
1560.391775607534
 31
0.0
  0
CIRCLE
  5
11E
330
A
100
AcDbEntity
  8
1
  6
Continuous
 62
     3
100
AcDbCircle
 10
227.933984190494
 20
1563.91172646155
 30
0.0
 40
1.5
  0
CIRCLE
  5
11D
330
A
100
AcDbEntity
  8
1
  6
Continuous
 62
     3
100
AcDbCircle
 10
227.933984190494
 20
1563.91172646155
 30
0.0
 40
3.1
  0
CIRCLE
  5
11C
330
A
100
AcDbEntity
  8
1
  6
Continuous
 62
     3
100
AcDbCircle
 10
200.633984190494
 20
1563.91172646155
 30
0.0
 40
3.1
  0
CIRCLE
  5
11B
330
A
100
AcDbEntity
  8
1
  6
Continuous
 62
     3
100
AcDbCircle
 10
200.633984190494
 20
1563.91172646155
 30
0.0
 40
1.5
  0
CIRCLE
  5
11A
330
A
100
AcDbEntity
  8
1
  6
PHANTOM
 62
     1
100
AcDbCircle
 10
159.565787413669
 20
1564.761726461551
 30
0.0
 40
3.399999999999999
  0
CIRCLE
  5
119
330
A
100
AcDbEntity
  8
1
  6
Continuous
 62
     3
100
AcDbCircle
 10
120.965787413669
 20
1564.761726461551
 30
0.0
 40
1.5
  0
CIRCLE
  5
118
330
A
100
AcDbEntity
  8
1
  6
Continuous
 62
     3
100
AcDbCircle
 10
537.933984190494
 20
1563.91172646155
 30
0.0
 40
1.5
  0
CIRCLE
  5
117
330
A
100
AcDbEntity
  8
1
  6
Continuous
 62
     3
100
AcDbCircle
 10
537.933984190494
 20
1563.91172646155
 30
0.0
 40
3.1
  0
CIRCLE
  5
116
330
A
100
AcDbEntity
  8
1
  6
Continuous
 62
     3
100
AcDbCircle
 10
510.6339841904939
 20
1563.91172646155
 30
0.0
 40
3.1
  0
CIRCLE
  5
115
330
A
100
AcDbEntity
  8
1
  6
Continuous
 62
     3
100
AcDbCircle
 10
510.6339841904939
 20
1563.91172646155
 30
0.0
 40
1.5
  0
ARC
  5
114
330
A
100
AcDbEntity
  8
1
  6
Continuous
 62
     3
100
AcDbCircle
 10
214.283984190494
 20
1700.695184220361
 30
0.0
 40
4.0
100
AcDbArc
 50
71.805127661222
 51
180.0
  0
ARC
  5
113
330
A
100
AcDbEntity
  8
1
  6
DOTTED
 62
     1
100
AcDbCircle
 10
214.283984190494
 20
1701.095184220361
 30
0.0
 40
3.399999999999999
100
AcDbArc
 50
0.0
 51
90.0
  0
ARC
  5
112
330
A
100
AcDbEntity
  8
1
  6
DOTTED
 62
     1
100
AcDbCircle
 10
214.283984190494
 20
1701.095184220361
 30
0.0
 40
3.399999999999999
100
AcDbArc
 50
-90.0
 51
0.0
  0
ARC
  5
111
330
A
100
AcDbEntity
  8
1
  6
Continuous
 62
     3
100
AcDbCircle
 10
214.283984190494
 20
1701.095184220361
 30
0.0
 40
3.399999999999999
100
AcDbArc
 50
90.0
 51
-90.0
  0
ARC
  5
110
330
A
100
AcDbEntity
  8
1
  6
DOTTED
 62
     1
100
AcDbCircle
 10
214.283984190494
 20
1700.695184220361
 30
0.0
 40
4.0
100
AcDbArc
 50
0.0
 51
71.805127661222
  0
ARC
  5
10F
330
A
100
AcDbEntity
  8
1
  6
DOTTED
 62
     1
100
AcDbCircle
 10
524.283984190494
 20
1700.695184220361
 30
0.0
 40
4.0
100
AcDbArc
 50
108.194872338779
 51
180.0
  0
ARC
  5
10E
330
A
100
AcDbEntity
  8
1
  6
Continuous
 62
     3
100
AcDbCircle
 10
524.283984190494
 20
1701.095184220361
 30
0.0
 40
3.399999999999999
100
AcDbArc
 50
-90.0
 51
90.0
  0
ARC
  5
10D
330
A
100
AcDbEntity
  8
1
  6
DOTTED
 62
     1
100
AcDbCircle
 10
524.283984190494
 20
1701.095184220361
 30
0.0
 40
3.399999999999999
100
AcDbArc
 50
180.0
 51
-90.0
  0
ARC
  5
10C
330
A
100
AcDbEntity
  8
1
  6
DOTTED
 62
     1
100
AcDbCircle
 10
524.283984190494
 20
1701.095184220361
 30
0.0
 40
3.399999999999999
100
AcDbArc
 50
90.0
 51
180.0
  0
ARC
  5
10B
330
A
100
AcDbEntity
  8
1
  6
Continuous
 62
     3
100
AcDbCircle
 10
524.283984190494
 20
1700.695184220361
 30
0.0
 40
4.0
100
AcDbArc
 50
0.0
 51
108.194872338779
  0
ARC
  5
10A
330
A
100
AcDbEntity
  8
1
  6
DOTTED
 62
     1
100
AcDbCircle
 10
116.462296961635
 20
1603.098113533737
 30
0.0
 40
3.399999999999999
100
AcDbArc
 50
-173.299999999996
 51
6.699999999988
  0
ARC
  5
109
330
A
100
AcDbEntity
  8
1
  6
Continuous
 62
     3
100
AcDbCircle
 10
116.462296961635
 20
1603.098113533737
 30
0.0
 40
3.399999999999999
100
AcDbArc
 50
6.699999999988
 51
96.70000000000101
  0
ARC
  5
108
330
A
100
AcDbEntity
  8
1
  6
Continuous
 62
     3
100
AcDbCircle
 10
116.462296961635
 20
1603.098113533737
 30
0.0
 40
3.399999999999999
100
AcDbArc
 50
96.70000000000101
 51
-173.299999999996
  0
ARC
  5
107
330
A
100
AcDbEntity
  8
1
  6
Continuous
 62
     3
100
AcDbCircle
 10
214.283984190494
 20
1564.56172646155
 30
0.0
 40
4.0
100
AcDbArc
 50
-31.788330617045
 51
0.0
  0
ARC
  5
106
330
A
100
AcDbEntity
  8
1
  6
Continuous
 62
     3
100
AcDbCircle
 10
214.283984190494
 20
1564.56172646155
 30
0.0
 40
4.0
100
AcDbArc
 50
-148.211669382941
 51
-31.788330617045
  0
ARC
  5
105
330
A
100
AcDbEntity
  8
1
  6
Continuous
 62
     3
100
AcDbCircle
 10
214.283984190494
 20
1564.56172646155
 30
0.0
 40
4.0
100
AcDbArc
 50
180.0
 51
-148.211669382941
  0
ARC
  5
104
330
A
100
AcDbEntity
  8
1
  6
Continuous
 62
     3
100
AcDbCircle
 10
524.283984190494
 20
1564.56172646155
 30
0.0
 40
4.0
100
AcDbArc
 50
-31.788330617059
 51
0.0
  0
ARC
  5
103
330
A
100
AcDbEntity
  8
1
  6
Continuous
 62
     3
100
AcDbCircle
 10
524.283984190494
 20
1564.56172646155
 30
0.0
 40
4.0
100
AcDbArc
 50
-148.211669382954
 51
-31.788330617059
  0
ARC
  5
102
330
A
100
AcDbEntity
  8
1
  6
Continuous
 62
     3
100
AcDbCircle
 10
524.283984190494
 20
1564.56172646155
 30
0.0
 40
4.0
100
AcDbArc
 50
180.0
 51
-148.211669382954
  0
LINE
  5
101
330
A
100
AcDbEntity
  8
1
  6
Continuous
 62
     3
100
AcDbLine
 10
218.283984190494
 20
1564.56172646155
 30
0.0
 11
218.283984190494
 21
1568.861726461551
 31
0.0
  0
LINE
  5
100
330
A
100
AcDbEntity
  8
1
  6
Continuous
 62
     3
100
AcDbLine
 10
210.283984190494
 20
1564.56172646155
 30
0.0
 11
210.283984190494
 21
1568.861726461551
 31
0.0
  0
LINE
  5
FF
330
A
100
AcDbEntity
  8
1
  6
Continuous
 62
     3
100
AcDbLine
 10
210.283984190494
 20
1568.861726461551
 30
0.0
 11
210.883984190494
 21
1568.861726461551
 31
0.0
  0
LINE
  5
FE
330
A
100
AcDbEntity
  8
1
  6
Continuous
 62
     3
100
AcDbLine
 10
218.283984190494
 20
1568.861726461551
 30
0.0
 11
218.283984190494
 21
1570.96172646155
 31
0.0
  0
LINE
  5
FD
330
A
100
AcDbEntity
  8
1
  6
Continuous
 62
     3
100
AcDbLine
 10
210.283984190494
 20
1568.861726461551
 30
0.0
 11
210.283984190494
 21
1570.96172646155
 31
0.0
  0
LINE
  5
FC
330
A
100
AcDbEntity
  8
1
  6
Continuous
 62
     3
100
AcDbLine
 10
196.783984190494
 20
1570.96172646155
 30
0.0
 11
208.083984190495
 21
1570.96172646155
 31
0.0
  0
LINE
  5
FB
330
A
100
AcDbEntity
  8
1
  6
Continuous
 62
     3
100
AcDbLine
 10
233.783984190494
 20
1568.96172646155
 30
0.0
 11
233.783984190494
 21
1558.861726461551
 31
0.0
  0
LINE
  5
FA
330
A
100
AcDbEntity
  8
1
  6
Continuous
 62
     3
100
AcDbLine
 10
231.783984190494
 20
1556.861726461551
 30
0.0
 11
221.783984190494
 21
1556.861726461551
 31
0.0
  0
LINE
  5
F9
330
A
100
AcDbEntity
  8
1
  6
Continuous
 62
     3
100
AcDbLine
 10
194.783984190494
 20
1558.861726461551
 30
0.0
 11
194.783984190494
 21
1568.96172646155
 31
0.0
  0
LINE
  5
F8
330
A
100
AcDbEntity
  8
1
  6
Continuous
 62
     3
100
AcDbLine
 10
208.083984190495
 20
1570.96172646155
 30
0.0
 11
208.083984190495
 21
1568.46172646155
 31
0.0
  0
LINE
  5
F7
330
A
100
AcDbEntity
  8
1
  6
Continuous
 62
     3
100
AcDbLine
 10
208.083984190495
 20
1570.96172646155
 30
0.0
 11
210.883984190494
 21
1570.96172646155
 31
0.0
  0
LINE
  5
F6
330
A
100
AcDbEntity
  8
1
  6
Continuous
 62
     3
100
AcDbLine
 10
208.083984190495
 20
1568.46172646155
 30
0.0
 11
206.783984190494
 21
1568.46172646155
 31
0.0
  0
LINE
  5
F5
330
A
100
AcDbEntity
  8
1
  6
Continuous
 62
     3
100
AcDbLine
 10
220.483984190494
 20
1570.96172646155
 30
0.0
 11
220.483984190494
 21
1568.46172646155
 31
0.0
  0
LINE
  5
F4
330
A
100
AcDbEntity
  8
1
  6
Continuous
 62
     3
100
AcDbLine
 10
220.483984190494
 20
1570.96172646155
 30
0.0
 11
231.783984190494
 21
1570.96172646155
 31
0.0
  0
LINE
  5
F3
330
A
100
AcDbEntity
  8
1
  6
Continuous
 62
     3
100
AcDbLine
 10
220.483984190494
 20
1568.46172646155
 30
0.0
 11
221.783984190494
 21
1568.46172646155
 31
0.0
  0
LINE
  5
F2
330
A
100
AcDbEntity
  8
1
  6
Continuous
 62
     3
100
AcDbLine
 10
221.783984190494
 20
1568.46172646155
 30
0.0
 11
221.783984190494
 21
1556.861726461551
 31
0.0
  0
LINE
  5
F1
330
A
100
AcDbEntity
  8
1
  6
Continuous
 62
     3
100
AcDbLine
 10
221.783984190494
 20
1556.861726461551
 30
0.0
 11
206.783984190494
 21
1556.861726461551
 31
0.0
  0
LINE
  5
F0
330
A
100
AcDbEntity
  8
1
  6
Continuous
 62
     3
100
AcDbLine
 10
206.783984190494
 20
1568.46172646155
 30
0.0
 11
206.783984190494
 21
1556.861726461551
 31
0.0
  0
LINE
  5
EF
330
A
100
AcDbEntity
  8
1
  6
Continuous
 62
     3
100
AcDbLine
 10
206.783984190494
 20
1556.861726461551
 30
0.0
 11
196.783984190494
 21
1556.861726461551
 31
0.0
  0
LINE
  5
EE
330
A
100
AcDbEntity
  8
1
  6
DOT_CENTER
 62
     1
100
AcDbLine
 10
204.607082373891
 20
1564.761726461551
 30
0.0
 11
223.817082373891
 21
1564.761726461551
 31
0.0
  0
LINE
  5
ED
330
A
100
AcDbEntity
  8
1
  6
DOT_CENTER
 62
     1
100
AcDbLine
 10
223.529876383582
 20
1563.91172646155
 30
0.0
 11
232.669876383582
 21
1563.91172646155
 31
0.0
  0
LINE
  5
EC
330
A
100
AcDbEntity
  8
1
  6
DOT_CENTER
 62
     1
100
AcDbLine
 10
227.933984190494
 20
1568.861726461551
 30
0.0
 11
227.933984190494
 21
1559.031282915571
 31
0.0
  0
LINE
  5
EB
330
A
100
AcDbEntity
  8
1
  6
DOT_CENTER
 62
     1
100
AcDbLine
 10
200.633984190494
 20
1559.031282915571
 30
0.0
 11
200.633984190494
 21
1568.861726461551
 31
0.0
  0
LINE
  5
EA
330
A
100
AcDbEntity
  8
1
  6
DOT_CENTER
 62
     1
100
AcDbLine
 10
195.898091997406
 20
1563.91172646155
 30
0.0
 11
205.038091997407
 21
1563.91172646155
 31
0.0
  0
LINE
  5
E9
330
A
100
AcDbEntity
  8
1
  6
Continuous
 62
     3
100
AcDbLine
 10
194.783984190494
 20
1709.095184220361
 30
0.0
 11
233.783984190494
 21
1709.095184220361
 31
0.0
  0
LINE
  5
E8
330
A
100
AcDbEntity
  8
1
  6
Continuous
 62
     3
100
AcDbLine
 10
233.783984190494
 20
1709.095184220361
 30
0.0
 11
233.783984190494
 21
1706.595184220361
 31
0.0
  0
LINE
  5
E7
330
A
100
AcDbEntity
  8
1
  6
Continuous
 62
     3
100
AcDbLine
 10
233.283984190494
 20
1706.095184220361
 30
0.0
 11
220.483984190494
 21
1706.095184220361
 31
0.0
  0
LINE
  5
E6
330
A
100
AcDbEntity
  8
1
  6
Continuous
 62
     3
100
AcDbLine
 10
194.783984190494
 20
1706.595184220361
 30
0.0
 11
194.783984190494
 21
1709.095184220361
 31
0.0
  0
LINE
  5
E5
330
A
100
AcDbEntity
  8
1
  6
Continuous
 62
     3
100
AcDbLine
 10
221.783984190494
 20
1706.095184220361
 30
0.0
 11
221.783984190494
 21
1704.495184220361
 31
0.0
  0
LINE
  5
E4
330
A
100
AcDbEntity
  8
1
  6
Continuous
 62
     3
100
AcDbLine
 10
221.283984190494
 20
1694.095184220361
 30
0.0
 11
218.283984190494
 21
1694.095184220361
 31
0.0
  0
LINE
  5
E3
330
A
100
AcDbEntity
  8
1
  6
Continuous
 62
     3
100
AcDbLine
 10
206.783984190494
 20
1694.595184220361
 30
0.0
 11
206.783984190494
 21
1706.095184220361
 31
0.0
  0
LINE
  5
E2
330
A
100
AcDbEntity
  8
1
  6
Continuous
 62
     3
100
AcDbLine
 10
208.083984190495
 20
1706.095184220361
 30
0.0
 11
195.283984190494
 21
1706.095184220361
 31
0.0
  0
LINE
  5
E1
330
A
100
AcDbEntity
  8
1
  6
Continuous
 62
     3
100
AcDbLine
 10
210.283984190494
 20
1694.095184220361
 30
0.0
 11
210.283984190494
 21
1695.29518422036
 31
0.0
  0
LINE
  5
E0
330
A
100
AcDbEntity
  8
1
  6
Continuous
 62
     3
100
AcDbLine
 10
218.283984190494
 20
1694.095184220361
 30
0.0
 11
218.283984190494
 21
1695.29518422036
 31
0.0
  0
LINE
  5
DF
330
A
100
AcDbEntity
  8
1
  6
Continuous
 62
     3
100
AcDbLine
 10
218.283984190494
 20
1694.095184220361
 30
0.0
 11
210.283984190494
 21
1694.095184220361
 31
0.0
  0
LINE
  5
DE
330
A
100
AcDbEntity
  8
1
  6
Continuous
 62
     3
100
AcDbLine
 10
210.283984190494
 20
1694.095184220361
 30
0.0
 11
207.283984190494
 21
1694.095184220361
 31
0.0
  0
LINE
  5
DD
330
A
100
AcDbEntity
  8
1
  6
Continuous
 62
     3
100
AcDbLine
 10
210.283984190494
 20
1695.29518422036
 30
0.0
 11
218.283984190494
 21
1695.29518422036
 31
0.0
  0
LINE
  5
DC
330
A
100
AcDbEntity
  8
1
  6
Continuous
 62
     3
100
AcDbLine
 10
210.283984190494
 20
1695.29518422036
 30
0.0
 11
210.283984190494
 21
1700.695184220361
 31
0.0
  0
LINE
  5
DB
330
A
100
AcDbEntity
  8
1
  6
Continuous
 62
     3
100
AcDbLine
 10
218.283984190494
 20
1695.29518422036
 30
0.0
 11
218.283984190494
 21
1697.695184220361
 31
0.0
  0
LINE
  5
DA
330
A
100
AcDbEntity
  8
1
  6
DOT_CENTER
 62
     1
100
AcDbLine
 10
200.633984190494
 20
1711.412353657934
 30
0.0
 11
200.633984190494
 21
1703.882028303098
 31
0.0
  0
LINE
  5
D9
330
A
100
AcDbEntity
  8
1
  6
DOTTED
 62
     1
100
AcDbLine
 10
202.133984190494
 20
1709.095184220361
 30
0.0
 11
202.133984190494
 21
1708.195184220361
 31
0.0
  0
LINE
  5
D8
330
A
100
AcDbEntity
  8
1
  6
DOTTED
 62
     1
100
AcDbLine
 10
202.133984190494
 20
1708.195184220361
 30
0.0
 11
199.133984190494
 21
1708.195184220361
 31
0.0
  0
LINE
  5
D7
330
A
100
AcDbEntity
  8
1
  6
DOTTED
 62
     1
100
AcDbLine
 10
199.133984190494
 20
1708.195184220361
 30
0.0
 11
199.133984190494
 21
1709.095184220361
 31
0.0
  0
LINE
  5
D6
330
A
100
AcDbEntity
  8
1
  6
DOTTED
 62
     1
100
AcDbLine
 10
199.133984190494
 20
1708.195184220361
 30
0.0
 11
197.533984190494
 21
1706.595184220361
 31
0.0
  0
LINE
  5
D5
330
A
100
AcDbEntity
  8
1
  6
DOTTED
 62
     1
100
AcDbLine
 10
197.533984190494
 20
1706.595184220361
 30
0.0
 11
197.533984190494
 21
1706.095184220361
 31
0.0
  0
LINE
  5
D4
330
A
100
AcDbEntity
  8
1
  6
DOTTED
 62
     1
100
AcDbLine
 10
197.533984190494
 20
1706.595184220361
 30
0.0
 11
203.733984190494
 21
1706.595184220361
 31
0.0
  0
LINE
  5
D3
330
A
100
AcDbEntity
  8
1
  6
DOTTED
 62
     1
100
AcDbLine
 10
203.733984190494
 20
1706.595184220361
 30
0.0
 11
203.733984190494
 21
1706.095184220361
 31
0.0
  0
LINE
  5
D2
330
A
100
AcDbEntity
  8
1
  6
DOTTED
 62
     1
100
AcDbLine
 10
203.733984190494
 20
1706.595184220361
 30
0.0
 11
202.133984190494
 21
1708.195184220361
 31
0.0
  0
LINE
  5
D1
330
A
100
AcDbEntity
  8
1
  6
DOTTED
 62
     1
100
AcDbLine
 10
226.433984190494
 20
1708.195184220361
 30
0.0
 11
224.833984190495
 21
1706.595184220361
 31
0.0
  0
LINE
  5
D0
330
A
100
AcDbEntity
  8
1
  6
DOTTED
 62
     1
100
AcDbLine
 10
224.833984190495
 20
1706.095184220361
 30
0.0
 11
224.833984190495
 21
1706.595184220361
 31
0.0
  0
LINE
  5
CF
330
A
100
AcDbEntity
  8
1
  6
DOTTED
 62
     1
100
AcDbLine
 10
224.833984190495
 20
1706.595184220361
 30
0.0
 11
231.033984190494
 21
1706.595184220361
 31
0.0
  0
LINE
  5
CE
330
A
100
AcDbEntity
  8
1
  6
DOTTED
 62
     1
100
AcDbLine
 10
231.033984190494
 20
1706.095184220361
 30
0.0
 11
231.033984190494
 21
1706.595184220361
 31
0.0
  0
LINE
  5
CD
330
A
100
AcDbEntity
  8
1
  6
DOTTED
 62
     1
100
AcDbLine
 10
231.033984190494
 20
1706.595184220361
 30
0.0
 11
229.433984190494
 21
1708.195184220361
 31
0.0
  0
LINE
  5
CC
330
A
100
AcDbEntity
  8
1
  6
DOTTED
 62
     1
100
AcDbLine
 10
229.433984190494
 20
1709.095184220361
 30
0.0
 11
229.433984190494
 21
1708.195184220361
 31
0.0
  0
LINE
  5
CB
330
A
100
AcDbEntity
  8
1
  6
DOTTED
 62
     1
100
AcDbLine
 10
229.433984190494
 20
1708.195184220361
 30
0.0
 11
226.433984190494
 21
1708.195184220361
 31
0.0
  0
LINE
  5
CA
330
A
100
AcDbEntity
  8
1
  6
DOTTED
 62
     1
100
AcDbLine
 10
226.433984190494
 20
1708.195184220361
 30
0.0
 11
226.433984190494
 21
1709.095184220361
 31
0.0
  0
LINE
  5
C9
330
A
100
AcDbEntity
  8
1
  6
DOT_CENTER
 62
     1
100
AcDbLine
 10
227.933984190494
 20
1703.882028303098
 30
0.0
 11
227.933984190494
 21
1711.412353657934
 31
0.0
  0
LINE
  5
C8
330
A
100
AcDbEntity
  8
1
  6
Continuous
 62
     3
100
AcDbLine
 10
220.483984190494
 20
1706.095184220361
 30
0.0
 11
220.483984190494
 21
1704.495184220361
 31
0.0
  0
LINE
  5
C7
330
A
100
AcDbEntity
  8
1
  6
Continuous
 62
     3
100
AcDbLine
 10
208.083984190495
 20
1694.095184220361
 30
0.0
 11
208.083984190495
 21
1706.095184220361
 31
0.0
  0
LINE
  5
C6
330
A
100
AcDbEntity
  8
1
  6
PHANTOM
 62
     1
100
AcDbLine
 10
217.683984190495
 20
1674.495184220361
 30
0.0
 11
217.683984190495
 21
1701.095184220361
 31
0.0
  0
LINE
  5
C5
330
A
100
AcDbEntity
  8
1
  6
PHANTOM
 62
     1
100
AcDbLine
 10
210.883984190494
 20
1674.495184220361
 30
0.0
 11
210.883984190494
 21
1705.495184220361
 31
0.0
  0
LINE
  5
C4
330
A
100
AcDbEntity
  8
1
  6
PHANTOM
 62
     1
100
AcDbLine
 10
512.283984190494
 20
1665.895184220359
 30
0.0
 11
226.283984190494
 21
1665.895184220359
 31
0.0
  0
LINE
  5
C3
330
A
100
AcDbEntity
  8
1
  6
PHANTOM
 62
     1
100
AcDbLine
 10
512.283984190494
 20
1659.095184220361
 30
0.0
 11
226.283984190494
 21
1659.095184220361
 31
0.0
  0
LINE
  5
C2
330
A
100
AcDbEntity
  8
1
  6
DOT_CENTER
 62
     1
100
AcDbLine
 10
534.736141013248
 20
1701.095184220361
 30
0.0
 11
204.607082373891
 21
1701.095184220361
 31
0.0
  0
LINE
  5
C1
330
A
100
AcDbEntity
  8
1
  6
PHANTOM
 62
     1
100
AcDbLine
 10
217.683984190495
 20
1701.095184220361
 30
0.0
 11
217.683984190495
 21
1705.495184220361
 31
0.0
  0
LINE
  5
C0
330
A
100
AcDbEntity
  8
1
  6
DOT_CENTER
 62
     1
100
AcDbLine
 10
214.283984190494
 20
1716.63072116064
 30
0.0
 11
214.283984190494
 21
1674.41993966247
 31
0.0
  0
LINE
  5
BF
330
A
100
AcDbEntity
  8
1
  6
DOTTED
 62
     1
100
AcDbLine
 10
218.283984190494
 20
1697.695184220361
 30
0.0
 11
218.283984190494
 21
1700.695184220361
 31
0.0
  0
LINE
  5
BE
330
A
100
AcDbEntity
  8
1
  6
DOTTED
 62
     1
100
AcDbLine
 10
220.483984190494
 20
1704.495184220361
 30
0.0
 11
220.483984190494
 21
1697.695184220361
 31
0.0
  0
LINE
  5
BD
330
A
100
AcDbEntity
  8
1
  6
Continuous
 62
     3
100
AcDbLine
 10
220.483984190494
 20
1697.695184220361
 30
0.0
 11
220.483984190494
 21
1694.095184220361
 31
0.0
  0
LINE
  5
BC
330
A
100
AcDbEntity
  8
1
  6
Continuous
 62
     3
100
AcDbLine
 10
221.783984190494
 20
1697.695184220361
 30
0.0
 11
221.783984190494
 21
1694.595184220361
 31
0.0
  0
LINE
  5
BB
330
A
100
AcDbEntity
  8
1
  6
Continuous
 62
     3
100
AcDbLine
 10
214.283984190494
 20
1697.695184220361
 30
0.0
 11
524.283984190494
 21
1697.695184220361
 31
0.0
  0
LINE
  5
BA
330
A
100
AcDbEntity
  8
1
  6
DOTTED
 62
     1
100
AcDbLine
 10
221.783984190494
 20
1704.495184220361
 30
0.0
 11
221.783984190494
 21
1697.695184220361
 31
0.0
  0
LINE
  5
B9
330
A
100
AcDbEntity
  8
1
  6
Continuous
 62
     3
100
AcDbLine
 10
214.283984190494
 20
1704.495184220361
 30
0.0
 11
524.283984190494
 21
1704.495184220361
 31
0.0
  0
LINE
  5
B8
330
A
100
AcDbEntity
  8
1
  6
DOT_CENTER
 62
     1
100
AcDbLine
 10
512.283984190494
 20
1662.419939662469
 30
0.0
 11
226.283984190494
 21
1662.419939662469
 31
0.0
  0
LINE
  5
B7
330
A
100
AcDbEntity
  8
1
  6
DOTTED
 62
     1
100
AcDbLine
 10
516.783984190494
 20
1697.695184220361
 30
0.0
 11
516.783984190494
 21
1704.495184220361
 31
0.0
  0
LINE
  5
B6
330
A
100
AcDbEntity
  8
1
  6
Continuous
 62
     3
100
AcDbLine
 10
516.783984190494
 20
1694.595184220361
 30
0.0
 11
516.783984190494
 21
1697.695184220361
 31
0.0
  0
LINE
  5
B5
330
A
100
AcDbEntity
  8
1
  6
Continuous
 62
     3
100
AcDbLine
 10
518.083984190494
 20
1694.095184220361
 30
0.0
 11
518.083984190494
 21
1697.695184220361
 31
0.0
  0
LINE
  5
B4
330
A
100
AcDbEntity
  8
1
  6
DOTTED
 62
     1
100
AcDbLine
 10
518.083984190494
 20
1697.695184220361
 30
0.0
 11
518.083984190494
 21
1704.495184220361
 31
0.0
  0
LINE
  5
B3
330
A
100
AcDbEntity
  8
1
  6
DOTTED
 62
     1
100
AcDbLine
 10
520.283984190494
 20
1700.695184220361
 30
0.0
 11
520.283984190494
 21
1697.695184220361
 31
0.0
  0
LINE
  5
B2
330
A
100
AcDbEntity
  8
1
  6
DOT_CENTER
 62
     1
100
AcDbLine
 10
524.283984190494
 20
1674.41993966247
 30
0.0
 11
524.283984190494
 21
1716.63072116064
 31
0.0
  0
LINE
  5
B1
330
A
100
AcDbEntity
  8
1
  6
PHANTOM
 62
     1
100
AcDbLine
 10
520.8839841904939
 20
1705.495184220361
 30
0.0
 11
520.8839841904939
 21
1701.095184220361
 31
0.0
  0
LINE
  5
B0
330
A
100
AcDbEntity
  8
1
  6
PHANTOM
 62
     1
100
AcDbLine
 10
527.683984190494
 20
1705.495184220361
 30
0.0
 11
520.8839841904939
 21
1705.495184220361
 31
0.0
  0
LINE
  5
AF
330
A
100
AcDbEntity
  8
1
  6
PHANTOM
 62
     1
100
AcDbLine
 10
521.3839841904939
 20
1705.995184220361
 30
0.0
 11
520.8839841904939
 21
1705.495184220361
 31
0.0
  0
LINE
  5
AE
330
A
100
AcDbEntity
  8
1
  6
PHANTOM
 62
     1
100
AcDbLine
 10
527.183984190494
 20
1705.995184220361
 30
0.0
 11
527.683984190494
 21
1705.495184220361
 31
0.0
  0
LINE
  5
AD
330
A
100
AcDbEntity
  8
1
  6
PHANTOM
 62
     1
100
AcDbLine
 10
521.3839841904939
 20
1705.995184220361
 30
0.0
 11
527.183984190494
 21
1705.995184220361
 31
0.0
  0
LINE
  5
AC
330
A
100
AcDbEntity
  8
1
  6
PHANTOM
 62
     1
100
AcDbLine
 10
527.683984190494
 20
1705.495184220361
 30
0.0
 11
527.683984190494
 21
1674.495184220361
 31
0.0
  0
LINE
  5
AB
330
A
100
AcDbEntity
  8
1
  6
PHANTOM
 62
     1
100
AcDbLine
 10
520.8839841904939
 20
1701.095184220361
 30
0.0
 11
520.8839841904939
 21
1674.495184220361
 31
0.0
  0
LINE
  5
AA
330
A
100
AcDbEntity
  8
1
  6
Continuous
 62
     3
100
AcDbLine
 10
530.4839841904939
 20
1706.095184220361
 30
0.0
 11
530.4839841904939
 21
1694.095184220361
 31
0.0
  0
LINE
  5
A9
330
A
100
AcDbEntity
  8
1
  6
Continuous
 62
     3
100
AcDbLine
 10
518.083984190494
 20
1704.495184220361
 30
0.0
 11
518.083984190494
 21
1706.095184220361
 31
0.0
  0
LINE
  5
A8
330
A
100
AcDbEntity
  8
1
  6
DOT_CENTER
 62
     1
100
AcDbLine
 10
510.6339841904939
 20
1711.412353657934
 30
0.0
 11
510.6339841904939
 21
1703.882028303098
 31
0.0
  0
LINE
  5
A7
330
A
100
AcDbEntity
  8
1
  6
DOTTED
 62
     1
100
AcDbLine
 10
512.1339841904939
 20
1709.095184220361
 30
0.0
 11
512.1339841904939
 21
1708.195184220361
 31
0.0
  0
LINE
  5
A6
330
A
100
AcDbEntity
  8
1
  6
DOTTED
 62
     1
100
AcDbLine
 10
512.1339841904939
 20
1708.195184220361
 30
0.0
 11
509.133984190494
 21
1708.195184220361
 31
0.0
  0
LINE
  5
A5
330
A
100
AcDbEntity
  8
1
  6
DOTTED
 62
     1
100
AcDbLine
 10
509.133984190494
 20
1708.195184220361
 30
0.0
 11
509.133984190494
 21
1709.095184220361
 31
0.0
  0
LINE
  5
A4
330
A
100
AcDbEntity
  8
1
  6
DOTTED
 62
     1
100
AcDbLine
 10
509.133984190494
 20
1708.195184220361
 30
0.0
 11
507.533984190494
 21
1706.595184220361
 31
0.0
  0
LINE
  5
A3
330
A
100
AcDbEntity
  8
1
  6
DOTTED
 62
     1
100
AcDbLine
 10
507.533984190494
 20
1706.595184220361
 30
0.0
 11
507.533984190494
 21
1706.095184220361
 31
0.0
  0
LINE
  5
A2
330
A
100
AcDbEntity
  8
1
  6
DOTTED
 62
     1
100
AcDbLine
 10
507.533984190494
 20
1706.595184220361
 30
0.0
 11
513.7339841904939
 21
1706.595184220361
 31
0.0
  0
LINE
  5
A1
330
A
100
AcDbEntity
  8
1
  6
DOTTED
 62
     1
100
AcDbLine
 10
513.7339841904939
 20
1706.595184220361
 30
0.0
 11
513.7339841904939
 21
1706.095184220361
 31
0.0
  0
LINE
  5
A0
330
A
100
AcDbEntity
  8
1
  6
DOTTED
 62
     1
100
AcDbLine
 10
513.7339841904939
 20
1706.595184220361
 30
0.0
 11
512.1339841904939
 21
1708.195184220361
 31
0.0
  0
LINE
  5
9F
330
A
100
AcDbEntity
  8
1
  6
DOTTED
 62
     1
100
AcDbLine
 10
536.433984190494
 20
1708.195184220361
 30
0.0
 11
534.8339841904939
 21
1706.595184220361
 31
0.0
  0
LINE
  5
9E
330
A
100
AcDbEntity
  8
1
  6
DOTTED
 62
     1
100
AcDbLine
 10
534.8339841904939
 20
1706.095184220361
 30
0.0
 11
534.8339841904939
 21
1706.595184220361
 31
0.0
  0
LINE
  5
9D
330
A
100
AcDbEntity
  8
1
  6
DOTTED
 62
     1
100
AcDbLine
 10
534.8339841904939
 20
1706.595184220361
 30
0.0
 11
541.033984190494
 21
1706.595184220361
 31
0.0
  0
LINE
  5
9C
330
A
100
AcDbEntity
  8
1
  6
DOTTED
 62
     1
100
AcDbLine
 10
541.033984190494
 20
1706.095184220361
 30
0.0
 11
541.033984190494
 21
1706.595184220361
 31
0.0
  0
LINE
  5
9B
330
A
100
AcDbEntity
  8
1
  6
DOTTED
 62
     1
100
AcDbLine
 10
541.033984190494
 20
1706.595184220361
 30
0.0
 11
539.4339841904939
 21
1708.195184220361
 31
0.0
  0
LINE
  5
9A
330
A
100
AcDbEntity
  8
1
  6
DOTTED
 62
     1
100
AcDbLine
 10
539.4339841904939
 20
1709.095184220361
 30
0.0
 11
539.4339841904939
 21
1708.195184220361
 31
0.0
  0
LINE
  5
99
330
A
100
AcDbEntity
  8
1
  6
DOTTED
 62
     1
100
AcDbLine
 10
539.4339841904939
 20
1708.195184220361
 30
0.0
 11
536.433984190494
 21
1708.195184220361
 31
0.0
  0
LINE
  5
98
330
A
100
AcDbEntity
  8
1
  6
DOTTED
 62
     1
100
AcDbLine
 10
536.433984190494
 20
1708.195184220361
 30
0.0
 11
536.433984190494
 21
1709.095184220361
 31
0.0
  0
LINE
  5
97
330
A
100
AcDbEntity
  8
1
  6
DOT_CENTER
 62
     1
100
AcDbLine
 10
537.933984190494
 20
1703.882028303098
 30
0.0
 11
537.933984190494
 21
1711.412353657934
 31
0.0
  0
LINE
  5
96
330
A
100
AcDbEntity
  8
1
  6
Continuous
 62
     3
100
AcDbLine
 10
520.283984190494
 20
1697.695184220361
 30
0.0
 11
520.283984190494
 21
1695.29518422036
 31
0.0
  0
LINE
  5
95
330
A
100
AcDbEntity
  8
1
  6
Continuous
 62
     3
100
AcDbLine
 10
528.283984190494
 20
1700.695184220361
 30
0.0
 11
528.283984190494
 21
1695.29518422036
 31
0.0
  0
LINE
  5
94
330
A
100
AcDbEntity
  8
1
  6
Continuous
 62
     3
100
AcDbLine
 10
520.283984190494
 20
1695.29518422036
 30
0.0
 11
528.283984190494
 21
1695.29518422036
 31
0.0
  0
LINE
  5
93
330
A
100
AcDbEntity
  8
1
  6
Continuous
 62
     3
100
AcDbLine
 10
531.283984190494
 20
1694.095184220361
 30
0.0
 11
528.283984190494
 21
1694.095184220361
 31
0.0
  0
LINE
  5
92
330
A
100
AcDbEntity
  8
1
  6
Continuous
 62
     3
100
AcDbLine
 10
528.283984190494
 20
1694.095184220361
 30
0.0
 11
520.283984190494
 21
1694.095184220361
 31
0.0
  0
LINE
  5
91
330
A
100
AcDbEntity
  8
1
  6
Continuous
 62
     3
100
AcDbLine
 10
520.283984190494
 20
1695.29518422036
 30
0.0
 11
520.283984190494
 21
1694.095184220361
 31
0.0
  0
LINE
  5
90
330
A
100
AcDbEntity
  8
1
  6
Continuous
 62
     3
100
AcDbLine
 10
528.283984190494
 20
1695.29518422036
 30
0.0
 11
528.283984190494
 21
1694.095184220361
 31
0.0
  0
LINE
  5
8F
330
A
100
AcDbEntity
  8
1
  6
Continuous
 62
     3
100
AcDbLine
 10
543.283984190494
 20
1706.095184220361
 30
0.0
 11
530.4839841904939
 21
1706.095184220361
 31
0.0
  0
LINE
  5
8E
330
A
100
AcDbEntity
  8
1
  6
Continuous
 62
     3
100
AcDbLine
 10
531.783984190494
 20
1706.095184220361
 30
0.0
 11
531.783984190494
 21
1694.595184220361
 31
0.0
  0
LINE
  5
8D
330
A
100
AcDbEntity
  8
1
  6
Continuous
 62
     3
100
AcDbLine
 10
520.283984190494
 20
1694.095184220361
 30
0.0
 11
517.283984190494
 21
1694.095184220361
 31
0.0
  0
LINE
  5
8C
330
A
100
AcDbEntity
  8
1
  6
Continuous
 62
     3
100
AcDbLine
 10
516.783984190494
 20
1704.495184220361
 30
0.0
 11
516.783984190494
 21
1706.095184220361
 31
0.0
  0
LINE
  5
8B
330
A
100
AcDbEntity
  8
1
  6
Continuous
 62
     3
100
AcDbLine
 10
543.783984190494
 20
1709.095184220361
 30
0.0
 11
543.783984190494
 21
1706.595184220361
 31
0.0
  0
LINE
  5
8A
330
A
100
AcDbEntity
  8
1
  6
Continuous
 62
     3
100
AcDbLine
 10
518.083984190494
 20
1706.095184220361
 30
0.0
 11
505.283984190494
 21
1706.095184220361
 31
0.0
  0
LINE
  5
89
330
A
100
AcDbEntity
  8
1
  6
Continuous
 62
     3
100
AcDbLine
 10
504.783984190494
 20
1706.595184220361
 30
0.0
 11
504.783984190494
 21
1709.095184220361
 31
0.0
  0
LINE
  5
88
330
A
100
AcDbEntity
  8
1
  6
Continuous
 62
     3
100
AcDbLine
 10
504.783984190494
 20
1709.095184220361
 30
0.0
 11
543.783984190494
 21
1709.095184220361
 31
0.0
  0
LINE
  5
87
330
A
100
AcDbEntity
  8
1
  6
CENTER_DASH_DASH
 62
     1
100
AcDbLine
 10
159.64103197156
 20
1561.361726461551
 30
0.0
 11
116.565787413669
 21
1561.361726461551
 31
0.0
  0
LINE
  5
86
330
A
100
AcDbEntity
  8
1
  6
Continuous
 62
     3
100
AcDbLine
 10
127.965787413669
 20
1568.23697101944
 30
0.0
 11
127.965787413669
 21
1557.361726461551
 31
0.0
  0
LINE
  5
85
330
A
100
AcDbEntity
  8
1
  6
CENTER_DASH_DASH
 62
     1
100
AcDbLine
 10
159.64103197156
 20
1568.161726461551
 30
0.0
 11
116.565787413669
 21
1568.161726461551
 31
0.0
  0
LINE
  5
84
330
A
100
AcDbEntity
  8
1
  6
Continuous
 62
     3
100
AcDbLine
 10
127.965787413669
 20
1570.46172646155
 30
0.0
 11
127.965787413669
 21
1568.46172646155
 31
0.0
  0
LINE
  5
83
330
A
100
AcDbEntity
  8
1
  6
Continuous
 62
     3
100
AcDbLine
 10
127.465787413669
 20
1556.861726461551
 30
0.0
 11
112.965787413669
 21
1556.861726461551
 31
0.0
  0
LINE
  5
82
330
A
100
AcDbEntity
  8
1
  6
Continuous
 62
     3
100
AcDbLine
 10
112.965787413669
 20
1556.861726461551
 30
0.0
 11
112.965787413669
 21
1562.411726461551
 31
0.0
  0
LINE
  5
81
330
A
100
AcDbEntity
  8
1
  6
Continuous
 62
     3
100
AcDbLine
 10
115.965787413669
 20
1570.46172646155
 30
0.0
 11
115.965787413669
 21
1568.46172646155
 31
0.0
  0
LINE
  5
80
330
A
100
AcDbEntity
  8
1
  6
DOT_CENTER
 62
     1
100
AcDbLine
 10
108.2404621365
 20
1563.911726461551
 30
0.0
 11
109.7404621365
 21
1563.911726461551
 31
0.0
  0
LINE
  5
7F
330
A
100
AcDbEntity
  8
1
  6
DOTTED
 62
     1
100
AcDbLine
 10
112.965787413669
 20
1565.411726461551
 30
0.0
 11
113.865787413669
 21
1565.411726461551
 31
0.0
  0
LINE
  5
7E
330
A
100
AcDbEntity
  8
1
  6
Continuous
 62
     3
100
AcDbLine
 10
112.965787413669
 20
1565.411726461551
 30
0.0
 11
112.965787413669
 21
1570.96172646155
 31
0.0
  0
LINE
  5
7D
330
A
100
AcDbEntity
  8
1
  6
DOTTED
 62
     1
100
AcDbLine
 10
113.865787413669
 20
1565.411726461551
 30
0.0
 11
113.865787413669
 21
1562.411726461551
 31
0.0
  0
LINE
  5
7C
330
A
100
AcDbEntity
  8
1
  6
DOTTED
 62
     1
100
AcDbLine
 10
113.865787413669
 20
1562.411726461551
 30
0.0
 11
112.965787413669
 21
1562.411726461551
 31
0.0
  0
LINE
  5
7B
330
A
100
AcDbEntity
  8
1
  6
Continuous
 62
     3
100
AcDbLine
 10
112.965787413669
 20
1562.411726461551
 30
0.0
 11
112.965787413669
 21
1565.411726461551
 31
0.0
  0
LINE
  5
7A
330
A
100
AcDbEntity
  8
1
  6
DOTTED
 62
     1
100
AcDbLine
 10
113.865787413669
 20
1562.411726461551
 30
0.0
 11
115.465787413669
 21
1560.81172646155
 31
0.0
  0
LINE
  5
79
330
A
100
AcDbEntity
  8
1
  6
DOTTED
 62
     1
100
AcDbLine
 10
115.465787413669
 20
1560.81172646155
 30
0.0
 11
115.965787413669
 21
1560.81172646155
 31
0.0
  0
LINE
  5
78
330
A
100
AcDbEntity
  8
1
  6
Continuous
 62
     3
100
AcDbLine
 10
115.965787413669
 20
1560.81172646155
 30
0.0
 11
115.965787413669
 21
1557.361726461551
 31
0.0
  0
LINE
  5
77
330
A
100
AcDbEntity
  8
1
  6
DOTTED
 62
     1
100
AcDbLine
 10
115.465787413669
 20
1560.81172646155
 30
0.0
 11
115.465787413669
 21
1567.01172646155
 31
0.0
  0
LINE
  5
76
330
A
100
AcDbEntity
  8
1
  6
DOTTED
 62
     1
100
AcDbLine
 10
115.465787413669
 20
1567.01172646155
 30
0.0
 11
115.965787413669
 21
1567.01172646155
 31
0.0
  0
LINE
  5
75
330
A
100
AcDbEntity
  8
1
  6
Continuous
 62
     3
100
AcDbLine
 10
115.965787413669
 20
1567.01172646155
 30
0.0
 11
115.965787413669
 21
1560.81172646155
 31
0.0
  0
LINE
  5
74
330
A
100
AcDbEntity
  8
1
  6
DOTTED
 62
     1
100
AcDbLine
 10
115.465787413669
 20
1567.01172646155
 30
0.0
 11
113.865787413669
 21
1565.411726461551
 31
0.0
  0
LINE
  5
73
330
A
100
AcDbEntity
  8
1
  6
Continuous
 62
     3
100
AcDbLine
 10
115.965787413669
 20
1568.46172646155
 30
0.0
 11
127.965787413669
 21
1568.46172646155
 31
0.0
  0
LINE
  5
72
330
A
100
AcDbEntity
  8
1
  6
Continuous
 62
     3
100
AcDbLine
 10
127.965787413669
 20
1568.46172646155
 30
0.0
 11
127.965787413669
 21
1568.23697101944
 31
0.0
  0
LINE
  5
71
330
A
100
AcDbEntity
  8
1
  6
Continuous
 62
     3
100
AcDbLine
 10
115.965787413669
 20
1568.46172646155
 30
0.0
 11
115.965787413669
 21
1567.01172646155
 31
0.0
  0
LINE
  5
70
330
A
100
AcDbEntity
  8
1
  6
PHANTOM
 62
     1
100
AcDbLine
 10
116.565787413669
 20
1568.161726461551
 30
0.0
 11
116.565787413669
 21
1561.361726461551
 31
0.0
  0
LINE
  5
6F
330
A
100
AcDbEntity
  8
1
  6
PHANTOM
 62
     1
100
AcDbLine
 10
116.565787413669
 20
1568.161726461551
 30
0.0
 11
116.065787413669
 21
1567.661726461551
 31
0.0
  0
LINE
  5
6E
330
A
100
AcDbEntity
  8
1
  6
PHANTOM
 62
     1
100
AcDbLine
 10
116.565787413669
 20
1561.361726461551
 30
0.0
 11
116.065787413669
 21
1561.861726461551
 31
0.0
  0
LINE
  5
6D
330
A
100
AcDbEntity
  8
1
  6
PHANTOM
 62
     1
100
AcDbLine
 10
116.065787413669
 20
1561.861726461551
 30
0.0
 11
116.065787413669
 21
1567.661726461551
 31
0.0
  0
LINE
  5
6C
330
A
100
AcDbEntity
  8
1
  6
DOT_CENTER
 62
     1
100
AcDbLine
 10
110.31809525467
 20
1564.761726461551
 30
0.0
 11
162.965787413669
 21
1564.761726461551
 31
0.0
  0
LINE
  5
6B
330
A
100
AcDbEntity
  8
1
  6
PHANTOM
 62
     1
100
AcDbLine
 10
211.383984190494
 20
1705.995184220361
 30
0.0
 11
217.183984190495
 21
1705.995184220361
 31
0.0
  0
LINE
  5
6A
330
A
100
AcDbEntity
  8
1
  6
PHANTOM
 62
     1
100
AcDbLine
 10
217.183984190495
 20
1705.995184220361
 30
0.0
 11
217.683984190495
 21
1705.495184220361
 31
0.0
  0
LINE
  5
69
330
A
100
AcDbEntity
  8
1
  6
PHANTOM
 62
     1
100
AcDbLine
 10
211.383984190494
 20
1705.995184220361
 30
0.0
 11
210.883984190494
 21
1705.495184220361
 31
0.0
  0
LINE
  5
68
330
A
100
AcDbEntity
  8
1
  6
PHANTOM
 62
     1
100
AcDbLine
 10
217.683984190495
 20
1705.495184220361
 30
0.0
 11
210.883984190494
 21
1705.495184220361
 31
0.0
  0
LINE
  5
67
330
A
100
AcDbEntity
  8
1
  6
DOT_CENTER
 62
     1
100
AcDbLine
 10
162.965787413669
 20
1564.761726461551
 30
0.0
 11
169.17997809287
 21
1564.761726461551
 31
0.0
  0
LINE
  5
66
330
A
100
AcDbEntity
  8
1
  6
DOT_CENTER
 62
     1
100
AcDbLine
 10
109.7404621365
 20
1563.911726461551
 30
0.0
 11
118.178943330931
 21
1563.911726461551
 31
0.0
  0
LINE
  5
65
330
A
100
AcDbEntity
  8
1
  6
DOT_CENTER
 62
     1
100
AcDbLine
 10
120.965787413669
 20
1573.22499604557
 30
0.0
 11
120.965787413669
 21
1554.43499604557
 31
0.0
  0
LINE
  5
64
330
A
100
AcDbEntity
  8
1
  6
Continuous
 62
     3
100
AcDbLine
 10
113.085516753204
 20
1602.701433027599
 30
0.0
 11
116.814075346935
 21
1570.96172646155
 31
0.0
  0
LINE
  5
63
330
A
100
AcDbEntity
  8
1
  6
Continuous
 62
     3
100
AcDbLine
 10
119.839077170066
 20
1603.494794039874
 30
0.0
 11
123.660834263099
 21
1570.96172646155
 31
0.0
  0
LINE
  5
62
330
A
100
AcDbEntity
  8
1
  6
DOTTED
 62
     1
100
AcDbLine
 10
124.417668909118
 20
1560.2335354164
 30
0.0
 11
118.657279141794
 21
1559.556845141224
 31
0.0
  0
LINE
  5
61
330
A
100
AcDbEntity
  8
1
  6
DOTTED
 62
     1
100
AcDbLine
 10
124.855918865338
 20
1560.788456109719
 30
0.0
 11
124.417668909118
 21
1560.2335354164
 31
0.0
  0
LINE
  5
60
330
A
100
AcDbEntity
  8
1
  6
DOTTED
 62
     1
100
AcDbLine
 10
118.102358448476
 20
1559.995095097444
 30
0.0
 11
118.657279141794
 21
1559.556845141224
 31
0.0
  0
LINE
  5
5F
330
A
100
AcDbEntity
  8
1
  6
DOTTED
 62
     1
100
AcDbLine
 10
118.102358448476
 20
1559.995095097444
 30
0.0
 11
124.855918865338
 21
1560.788456109719
 31
0.0
  0
LINE
  5
5E
330
A
100
AcDbEntity
  8
1
  6
DOTTED
 62
     1
100
AcDbLine
 10
116.814075346935
 20
1570.96172646155
 30
0.0
 11
118.102358448476
 21
1559.995095097444
 31
0.0
  0
LINE
  5
5D
330
A
100
AcDbEntity
  8
1
  6
DOTTED
 62
     1
100
AcDbLine
 10
123.660834263099
 20
1570.96172646155
 30
0.0
 11
124.855918865338
 21
1560.788456109719
 31
0.0
  0
LINE
  5
5C
330
A
100
AcDbEntity
  8
1
  6
Continuous
 62
     3
100
AcDbLine
 10
112.965787413669
 20
1570.96172646155
 30
0.0
 11
127.465787413669
 21
1570.96172646155
 31
0.0
  0
LINE
  5
5B
330
A
100
AcDbEntity
  8
1
  6
DOT_CENTER
 62
     1
100
AcDbLine
 10
122.208061506267
 20
1554.186751123912
 30
0.0
 11
115.60557660482
 21
1610.39102634465
 31
0.0
  0
LINE
  5
5A
330
A
100
AcDbEntity
  8
1
  6
DOT_CENTER
 62
     1
100
AcDbLine
 10
214.283984190494
 20
1591.098113533737
 30
0.0
 11
214.283984190494
 21
1548.887332035567
 31
0.0
  0
LINE
  5
59
330
A
100
AcDbEntity
  8
1
  6
DOT_CENTER
 62
     1
100
AcDbLine
 10
226.283984190494
 20
1603.098113533737
 30
0.0
 11
512.283984190494
 21
1603.098113533737
 31
0.0
  0
LINE
  5
58
330
A
100
AcDbEntity
  8
1
  6
Continuous
 62
     3
100
AcDbLine
 10
226.283984190494
 20
1599.622868975848
 30
0.0
 11
512.283984190494
 21
1599.622868975848
 31
0.0
  0
LINE
  5
57
330
A
100
AcDbEntity
  8
1
  6
Continuous
 62
     3
100
AcDbLine
 10
226.283984190494
 20
1606.422868975846
 30
0.0
 11
512.283984190494
 21
1606.422868975846
 31
0.0
  0
LINE
  5
56
330
A
100
AcDbEntity
  8
1
  6
DOTTED
 62
     1
100
AcDbLine
 10
210.883984190494
 20
1568.861726461551
 30
0.0
 11
217.683984190495
 21
1568.861726461551
 31
0.0
  0
LINE
  5
55
330
A
100
AcDbEntity
  8
1
  6
DOTTED
 62
     1
100
AcDbLine
 10
210.883984190494
 20
1570.96172646155
 30
0.0
 11
217.683984190495
 21
1570.96172646155
 31
0.0
  0
LINE
  5
54
330
A
100
AcDbEntity
  8
1
  6
Continuous
 62
     3
100
AcDbLine
 10
210.883984190494
 20
1562.454595710979
 30
0.0
 11
210.883984190494
 21
1591.022868975846
 31
0.0
  0
LINE
  5
53
330
A
100
AcDbEntity
  8
1
  6
Continuous
 62
     3
100
AcDbLine
 10
217.683984190495
 20
1562.45459571098
 30
0.0
 11
217.683984190495
 21
1591.022868975846
 31
0.0
  0
LINE
  5
52
330
A
100
AcDbEntity
  8
1
  6
Continuous
 62
     3
100
AcDbLine
 10
217.683984190495
 20
1570.96172646155
 30
0.0
 11
220.483984190494
 21
1570.96172646155
 31
0.0
  0
LINE
  5
51
330
A
100
AcDbEntity
  8
1
  6
Continuous
 62
     3
100
AcDbLine
 10
217.683984190495
 20
1568.861726461551
 30
0.0
 11
218.283984190494
 21
1568.861726461551
 31
0.0
  0
LINE
  5
50
330
A
100
AcDbEntity
  8
1
  6
DOTTED
 62
     1
100
AcDbLine
 10
217.683984190495
 20
1560.372063320166
 30
0.0
 11
217.160613228798
 21
1559.854865718794
 31
0.0
  0
LINE
  5
4F
330
A
100
AcDbEntity
  8
1
  6
DOTTED
 62
     1
100
AcDbLine
 10
210.883984190494
 20
1560.372906065209
 30
0.0
 11
211.407191786043
 21
1559.8550272895
 31
0.0
  0
LINE
  5
4E
330
A
100
AcDbEntity
  8
1
  6
DOTTED
 62
     1
100
AcDbLine
 10
210.883984190494
 20
1562.454595710979
 30
0.0
 11
210.883984190494
 21
1560.372906065209
 31
0.0
  0
LINE
  5
4D
330
A
100
AcDbEntity
  8
1
  6
DOTTED
 62
     1
100
AcDbLine
 10
217.683984190495
 20
1562.45459571098
 30
0.0
 11
217.683984190495
 21
1560.372063320166
 31
0.0
  0
LINE
  5
4C
330
A
100
AcDbEntity
  8
1
  6
DOTTED
 62
     1
100
AcDbLine
 10
520.8839841904939
 20
1560.372063320166
 30
0.0
 11
520.8839841904939
 21
1562.45459571098
 31
0.0
  0
LINE
  5
4B
330
A
100
AcDbEntity
  8
1
  6
DOTTED
 62
     1
100
AcDbLine
 10
527.683984190495
 20
1560.372906065209
 30
0.0
 11
527.683984190494
 21
1562.454595710979
 31
0.0
  0
LINE
  5
4A
330
A
100
AcDbEntity
  8
1
  6
DOTTED
 62
     1
100
AcDbLine
 10
527.160776594945
 20
1559.8550272895
 30
0.0
 11
527.683984190495
 21
1560.372906065209
 31
0.0
  0
LINE
  5
49
330
A
100
AcDbEntity
  8
1
  6
DOTTED
 62
     1
100
AcDbLine
 10
521.407355152191
 20
1559.854865718794
 30
0.0
 11
520.8839841904939
 21
1560.372063320166
 31
0.0
  0
LINE
  5
48
330
A
100
AcDbEntity
  8
1
  6
Continuous
 62
     3
100
AcDbLine
 10
520.283984190494
 20
1568.861726461551
 30
0.0
 11
520.8839841904939
 21
1568.861726461551
 31
0.0
  0
LINE
  5
47
330
A
100
AcDbEntity
  8
1
  6
Continuous
 62
     3
100
AcDbLine
 10
518.083984190494
 20
1570.96172646155
 30
0.0
 11
520.8839841904939
 21
1570.96172646155
 31
0.0
  0
LINE
  5
46
330
A
100
AcDbEntity
  8
1
  6
Continuous
 62
     3
100
AcDbLine
 10
520.8839841904939
 20
1591.022868975846
 30
0.0
 11
520.8839841904939
 21
1562.45459571098
 31
0.0
  0
LINE
  5
45
330
A
100
AcDbEntity
  8
1
  6
Continuous
 62
     3
100
AcDbLine
 10
527.683984190494
 20
1591.022868975846
 30
0.0
 11
527.683984190494
 21
1562.454595710979
 31
0.0
  0
LINE
  5
44
330
A
100
AcDbEntity
  8
1
  6
DOTTED
 62
     1
100
AcDbLine
 10
520.8839841904939
 20
1570.96172646155
 30
0.0
 11
527.683984190494
 21
1570.96172646155
 31
0.0
  0
LINE
  5
43
330
A
100
AcDbEntity
  8
1
  6
DOTTED
 62
     1
100
AcDbLine
 10
520.8839841904939
 20
1568.861726461551
 30
0.0
 11
527.683984190494
 21
1568.861726461551
 31
0.0
  0
LINE
  5
42
330
A
100
AcDbEntity
  8
1
  6
DOT_CENTER
 62
     1
100
AcDbLine
 10
524.283984190494
 20
1548.887332035567
 30
0.0
 11
524.283984190494
 21
1591.098113533737
 31
0.0
  0
LINE
  5
41
330
A
100
AcDbEntity
  8
1
  6
DOT_CENTER
 62
     1
100
AcDbLine
 10
533.5298763835819
 20
1563.91172646155
 30
0.0
 11
542.669876383582
 21
1563.91172646155
 31
0.0
  0
LINE
  5
40
330
A
100
AcDbEntity
  8
1
  6
DOT_CENTER
 62
     1
100
AcDbLine
 10
537.933984190494
 20
1568.861726461551
 30
0.0
 11
537.933984190494
 21
1559.031282915571
 31
0.0
  0
LINE
  5
3F
330
A
100
AcDbEntity
  8
1
  6
DOT_CENTER
 62
     1
100
AcDbLine
 10
510.6339841904939
 20
1559.031282915571
 30
0.0
 11
510.6339841904939
 21
1568.861726461551
 31
0.0
  0
LINE
  5
3E
330
A
100
AcDbEntity
  8
1
  6
DOT_CENTER
 62
     1
100
AcDbLine
 10
505.898091997406
 20
1563.91172646155
 30
0.0
 11
515.038091997406
 21
1563.91172646155
 31
0.0
  0
LINE
  5
3D
330
A
100
AcDbEntity
  8
1
  6
DOT_CENTER
 62
     1
100
AcDbLine
 10
514.750886007097
 20
1564.761726461551
 30
0.0
 11
533.960886007097
 21
1564.761726461551
 31
0.0
  0
LINE
  5
3C
330
A
100
AcDbEntity
  8
1
  6
Continuous
 62
     3
100
AcDbLine
 10
541.783984190494
 20
1556.861726461551
 30
0.0
 11
531.783984190494
 21
1556.861726461551
 31
0.0
  0
LINE
  5
3B
330
A
100
AcDbEntity
  8
1
  6
Continuous
 62
     3
100
AcDbLine
 10
531.783984190494
 20
1556.861726461551
 30
0.0
 11
531.783984190494
 21
1568.46172646155
 31
0.0
  0
LINE
  5
3A
330
A
100
AcDbEntity
  8
1
  6
Continuous
 62
     3
100
AcDbLine
 10
531.783984190494
 20
1556.861726461551
 30
0.0
 11
516.783984190494
 21
1556.861726461551
 31
0.0
  0
LINE
  5
39
330
A
100
AcDbEntity
  8
1
  6
Continuous
 62
     3
100
AcDbLine
 10
516.783984190494
 20
1556.861726461551
 30
0.0
 11
516.783984190494
 21
1568.46172646155
 31
0.0
  0
LINE
  5
38
330
A
100
AcDbEntity
  8
1
  6
Continuous
 62
     3
100
AcDbLine
 10
516.783984190494
 20
1568.46172646155
 30
0.0
 11
518.083984190494
 21
1568.46172646155
 31
0.0
  0
LINE
  5
37
330
A
100
AcDbEntity
  8
1
  6
Continuous
 62
     3
100
AcDbLine
 10
506.7839841904939
 20
1570.96172646155
 30
0.0
 11
518.083984190494
 21
1570.96172646155
 31
0.0
  0
LINE
  5
36
330
A
100
AcDbEntity
  8
1
  6
Continuous
 62
     3
100
AcDbLine
 10
518.083984190494
 20
1568.46172646155
 30
0.0
 11
518.083984190494
 21
1570.96172646155
 31
0.0
  0
LINE
  5
35
330
A
100
AcDbEntity
  8
1
  6
Continuous
 62
     3
100
AcDbLine
 10
531.783984190494
 20
1568.46172646155
 30
0.0
 11
530.4839841904939
 21
1568.46172646155
 31
0.0
  0
LINE
  5
34
330
A
100
AcDbEntity
  8
1
  6
Continuous
 62
     3
100
AcDbLine
 10
527.683984190494
 20
1570.96172646155
 30
0.0
 11
530.4839841904939
 21
1570.96172646155
 31
0.0
  0
LINE
  5
33
330
A
100
AcDbEntity
  8
1
  6
Continuous
 62
     3
100
AcDbLine
 10
530.4839841904939
 20
1568.46172646155
 30
0.0
 11
530.4839841904939
 21
1570.96172646155
 31
0.0
  0
LINE
  5
32
330
A
100
AcDbEntity
  8
1
  6
Continuous
 62
     3
100
AcDbLine
 10
543.783984190494
 20
1568.96172646155
 30
0.0
 11
543.783984190494
 21
1558.861726461551
 31
0.0
  0
LINE
  5
31
330
A
100
AcDbEntity
  8
1
  6
Continuous
 62
     3
100
AcDbLine
 10
516.783984190494
 20
1556.861726461551
 30
0.0
 11
506.7839841904939
 21
1556.861726461551
 31
0.0
  0
LINE
  5
30
330
A
100
AcDbEntity
  8
1
  6
Continuous
 62
     3
100
AcDbLine
 10
504.783984190494
 20
1558.861726461551
 30
0.0
 11
504.783984190494
 21
1568.96172646155
 31
0.0
  0
LINE
  5
2F
330
A
100
AcDbEntity
  8
1
  6
Continuous
 62
     3
100
AcDbLine
 10
530.4839841904939
 20
1570.96172646155
 30
0.0
 11
541.783984190494
 21
1570.96172646155
 31
0.0
  0
LINE
  5
2E
330
A
100
AcDbEntity
  8
1
  6
Continuous
 62
     3
100
AcDbLine
 10
528.283984190494
 20
1570.96172646155
 30
0.0
 11
528.283984190494
 21
1568.861726461551
 31
0.0
  0
LINE
  5
2D
330
A
100
AcDbEntity
  8
1
  6
Continuous
 62
     3
100
AcDbLine
 10
520.283984190494
 20
1570.96172646155
 30
0.0
 11
520.283984190494
 21
1568.861726461551
 31
0.0
  0
LINE
  5
2C
330
A
100
AcDbEntity
  8
1
  6
Continuous
 62
     3
100
AcDbLine
 10
527.683984190494
 20
1568.861726461551
 30
0.0
 11
528.283984190494
 21
1568.861726461551
 31
0.0
  0
LINE
  5
2B
330
A
100
AcDbEntity
  8
1
  6
Continuous
 62
     3
100
AcDbLine
 10
528.283984190494
 20
1568.861726461551
 30
0.0
 11
528.283984190494
 21
1564.56172646155
 31
0.0
  0
LINE
  5
2A
330
A
100
AcDbEntity
  8
1
  6
Continuous
 62
     3
100
AcDbLine
 10
520.283984190494
 20
1568.861726461551
 30
0.0
 11
520.283984190494
 21
1564.56172646155
 31
0.0
  0
LINE
  5
29
330
A
100
AcDbEntity
  8
1
  6
DOT_CENTER
 62
     1
100
AcDbLine
 10
369.283984190494
 20
1722.6482476458
 30
0.0
 11
369.283984190494
 21
1648.3982476458
 31
0.0
  0
LINE
  5
28
330
A
100
AcDbEntity
  8
1
  6
DOT_CENTER
 62
     1
100
AcDbLine
 10
369.283984190494
 20
1620.38466629803
 30
0.0
 11
369.283984190494
 21
1545.67466629803
 31
0.0
  0
ENDSEC
  0
SECTION
  2
OBJECTS
  0
DICTIONARY
  5
19
330
0
100
AcDbDictionary
281
     1
  3
ACAD_COLOR
350
158
  3
ACAD_GROUP
350
1A
  3
ACAD_LAYOUT
350
15B
  3
ACAD_MATERIAL
350
157
  3
ACAD_MLINESTYLE
350
1B
  3
ACAD_PLOTSETTINGS
350
15C
  3
ACAD_PLOTSTYLENAME
350
155
  3
ACAD_TABLESTYLE
350
159
  3
ACDBHEADERROUNDTRIPXREC
350
28F
  3
AcDbVariableDictionary
350
288
  3
AcmDictionary
350
222
  3
AMG
350
161
  3
AMGSNAPSETTINGS
350
278
  3
ASE_INDEX_DICTIONARY
350
280
  3
DWGPROPS
350
28E
  3
MAPISURF_MODULE
350
1EE
  0
DICTIONARY
  5
283
330
A
100
AcDbDictionary
280
     1
281
     1
  3
ACAD_INDEX
360
284
  0
DICTIONARY
  5
158
102
{ACAD_REACTORS
330
19
102
}
330
19
100
AcDbDictionary
281
     1
  0
DICTIONARY
  5
1A
102
{ACAD_REACTORS
330
19
102
}
330
19
100
AcDbDictionary
281
     1
  0
DICTIONARY
  5
15B
102
{ACAD_REACTORS
330
19
102
}
330
19
100
AcDbDictionary
281
     1
  3
Model
350
15D
  3
レイアウト1
350
15E
  0
DICTIONARY
  5
157
102
{ACAD_REACTORS
330
19
102
}
330
19
100
AcDbDictionary
281
     1
  0
DICTIONARY
  5
1B
102
{ACAD_REACTORS
330
19
102
}
330
19
100
AcDbDictionary
281
     1
  3
STANDARD
350
1C
  0
DICTIONARY
  5
15C
102
{ACAD_REACTORS
330
19
102
}
330
19
100
AcDbDictionary
281
     1
  0
ACDBDICTIONARYWDFLT
  5
155
102
{ACAD_REACTORS
330
19
102
}
330
19
100
AcDbDictionary
281
     1
  3
Normal
350
156
100
AcDbDictionaryWithDefault
340
156
  0
DICTIONARY
  5
159
102
{ACAD_REACTORS
330
19
102
}
330
19
100
AcDbDictionary
281
     1
  3
Standard
350
15A
  0
DICTIONARY
  5
28F
102
{ACAD_REACTORS
330
19
102
}
330
19
100
AcDbDictionary
281
     1
  0
DICTIONARY
  5
288
102
{ACAD_REACTORS
330
19
102
}
330
19
100
AcDbDictionary
281
     1
  3
CTABLESTYLE
350
289
  3
DIMASSOC
350
28B
  3
INDEXCTL
350
28A
  3
PROJECTNAME
350
28C
  0
DICTIONARY
  5
222
102
{ACAD_REACTORS
330
19
102
}
330
19
100
AcDbDictionary
281
     1
  3
AcmStdDictionary
350
22E
  3
AMDTSECTSYM_ARROWCOLOR
350
24D
  0
DICTIONARY
  5
161
102
{ACAD_REACTORS
330
19
102
}
330
19
100
AcDbDictionary
281
     1
  3
AcMgSettings
350
162
  0
DICTIONARY
  5
278
102
{ACAD_REACTORS
330
19
102
}
330
19
100
AcDbDictionary
281
     1
  3
DIMENSION
350
27D
  3
FEA
350
27C
  3
HATCH (1)
350
279
  3
HATCH (2)
350
27A
  3
SIMPLE WELD
350
27E
  3
SYMBOLS
350
27B
  0
DICTIONARY
  5
280
102
{ACAD_REACTORS
330
19
102
}
330
19
100
AcDbDictionary
281
     1
  3
ASEBlockHierarchyIndexRecord
350
282
1001
DCO15
1040
1937387588.993
  0
XRECORD
  5
28E
102
{ACAD_REACTORS
330
19
102
}
330
19
100
AcDbXrecord
280
     1
  1
DWGPROPS COOKIE
  2

  3

  4

  6

  7

  8

  9

300
AmdtFileType=84
301
=
302
=
303
=
304
=
305
=
306
=
307
=
308
=
309
=
 40
0.0001598726851852
 41
2305814.417176053
 42
2458226.679317049
  1

 90
        1
  0
DICTIONARY
  5
284
102
{ACAD_REACTORS
330
283
102
}
330
283
100
AcDbDictionary
281
     1
  3
*A1
350
285
  0
LAYOUT
  5
15D
102
{ACAD_XDICTIONARY
360
290
102
}
102
{ACAD_REACTORS
330
15B
102
}
330
15B
100
AcDbPlotSettings
  1

  2
Adobe PDF#:3
  4

  6

 40
0.0
 41
0.0
 42
0.0
 43
0.0
 44
0.0
 45
0.0
 46
0.0
 47
0.0
 48
0.0
 49
0.0
140
0.0
141
0.0
142
1.0
143
1.0
 70
  1712
 72
     0
 73
     0
 74
     0
  7

 75
     0
147
1.0
148
0.0
149
0.0
100
AcDbLayout
  1
Model
 70
     1
 71
     0
 10
0.0
 20
0.0
 11
12.0
 21
9.0
 12
0.0
 22
0.0
 32
0.0
 14
0.0
 24
0.0
 34
0.0
 15
0.0
 25
0.0
 35
0.0
146
0.0
 13
0.0
 23
0.0
 33
0.0
 16
1.0
 26
0.0
 36
0.0
 17
0.0
 27
1.0
 37
0.0
 76
     0
330
A
  0
LAYOUT
  5
15E
102
{ACAD_XDICTIONARY
360
292
102
}
102
{ACAD_REACTORS
330
15B
102
}
330
15B
100
AcDbPlotSettings
  1

  2
Adobe PDF#:3
  4

  6

 40
0.0
 41
0.0
 42
0.0
 43
0.0
 44
0.0
 45
0.0
 46
0.0
 47
0.0
 48
0.0
 49
0.0
140
0.0
141
0.0
142
1.0
143
1.0
 70
   688
 72
     0
 73
     0
 74
     5
  7

 75
    16
147
1.0
148
0.0
149
0.0
100
AcDbLayout
  1
レイアウト1
 70
     0
 71
     1
 10
0.0
 20
0.0
 11
12.0
 21
9.0
 12
0.0
 22
0.0
 32
0.0
 14
1.000000000000000E+20
 24
1.000000000000000E+20
 34
1.000000000000000E+20
 15
-1.000000000000000E+20
 25
-1.000000000000000E+20
 35
-1.000000000000000E+20
146
0.0
 13
0.0
 23
0.0
 33
0.0
 16
1.0
 26
0.0
 36
0.0
 17
0.0
 27
1.0
 37
0.0
 76
     0
330
B
  0
MLINESTYLE
  5
1C
102
{ACAD_REACTORS
330
1B
102
}
330
1B
100
AcDbMlineStyle
  2
STANDARD
 70
     0
  3

 62
     0
 51
90.0
 52
90.0
 71
     2
 49
0.5
 62
   256
  6
BYLAYER
 49
-0.5
 62
   256
  6
BYLAYER
  0
ACDBPLACEHOLDER
  5
156
102
{ACAD_REACTORS
330
155
102
}
330
155
  0
TABLESTYLE
  5
15A
102
{ACAD_REACTORS
330
159
102
}
330
159
100
AcDbTableStyle
  3
Standard
 70
     0
 71
     0
 40
1.5
 41
1.5
280
     0
281
     0
  7
STANDARD
140
4.5
170
     2
 62
     0
 63
     7
283
     0
274
    -2
284
     1
 64
     0
275
    -2
285
     1
 65
     0
276
    -2
286
     1
 66
     0
277
    -2
287
     1
 67
     0
278
    -2
288
     1
 68
     0
279
    -2
289
     1
 69
     0
  7
STANDARD
140
6.0
170
     5
 62
     0
 63
     7
283
     0
274
    -2
284
     1
 64
     0
275
    -2
285
     1
 65
     0
276
    -2
286
     1
 66
     0
277
    -2
287
     1
 67
     0
278
    -2
288
     1
 68
     0
279
    -2
289
     1
 69
     0
  7
STANDARD
140
4.5
170
     5
 62
     0
 63
     7
283
     0
274
    -2
284
     1
 64
     0
275
    -2
285
     1
 65
     0
276
    -2
286
     1
 66
     0
277
    -2
287
     1
 67
     0
278
    -2
288
     1
 68
     0
279
    -2
289
     1
 69
     0
  0
DICTIONARYVAR
  5
289
102
{ACAD_REACTORS
330
288
102
}
330
288
100
DictionaryVariables
280
     0
  1
STANDARD
  0
DICTIONARYVAR
  5
28B
102
{ACAD_REACTORS
330
288
102
}
330
288
100
DictionaryVariables
280
     0
  1
1
  0
DICTIONARYVAR
  5
28A
102
{ACAD_REACTORS
330
288
102
}
330
288
100
DictionaryVariables
280
     0
  1
1
  0
DICTIONARYVAR
  5
28C
102
{ACAD_REACTORS
330
288
102
}
330
288
100
DictionaryVariables
280
     0
  1

  0
DICTIONARY
  5
22E
102
{ACAD_REACTORS
330
222
102
}
330
222
100
AcDbDictionary
281
     1
  0
XRECORD
  5
24D
102
{ACAD_REACTORS
330
222
102
}
330
222
100
AcDbXrecord
280
     1
 90
-1023410169
  0
DICTIONARY
  5
162
102
{ACAD_REACTORS
330
161
102
}
330
161
100
AcDbDictionary
281
     1
  3
DWGSETTINGS
350
163
  3
TRANSSETTINGS
350
167
  0
ACAMGFILTERDAT
  5
27D
102
{ACAD_REACTORS
330
278
102
}
330
278
100
AcAmgFilterDat
 70
    15
  1
DIMENSION,AMDT_*_DIM
  2
*
  3
*
  4
*
  5
*
290
     1
  0
ACAMGFILTERDAT
  5
27C
102
{ACAD_REACTORS
330
278
102
}
330
278
100
AcAmgFilterDat
 70
    15
  1
*
  2
AM_FEA-AM_*
  3
*
  4
*
  5
*
290
     1
  0
ACAMGFILTERDAT
  5
279
102
{ACAD_REACTORS
330
278
102
}
330
278
100
AcAmgFilterDat
 70
    15
  1
HATCH
  2
*
  3
*
  4
*
  5
*
290
     1
  0
ACAMGFILTERDAT
  5
27A
102
{ACAD_REACTORS
330
278
102
}
330
278
100
AcAmgFilterDat
 70
    15
  1
LINE
  2
8,8N,*-8,*-8N,AM_8,AM_8N,*-AM_8,*-AM_8N
  3
*
  4
*
  5
INSERT,STDPART2D
290
     1
  0
ACAMGFILTERDAT
  5
27E
102
{ACAD_REACTORS
330
278
102
}
330
278
100
AcAmgFilterDat
 70
    15
  1
ARC
  2
AM_5
  3
*
  4
2
  5
INSERT
290
     0
  0
ACAMGFILTERDAT
  5
27B
102
{ACAD_REACTORS
330
278
102
}
330
278
100
AcAmgFilterDat
 70
    15
  1
ACMFCFRAME,ACMDATUMTARGET,ACMDATUMID,ACMWELDSYM,ACMSURFSYM,ACMFEATID,ACMPARTREF,ACMBALLOON,AMDTEDGESYM,AMGSCREWCALCTABLE
  2
*
  3
*
  4
*
  5
*
290
     1
  0
XRECORD
  5
282
102
{ACAD_REACTORS
330
280
102
}
330
280
100
AcDbXrecord
280
     1
  0
LAYER_INDEX
  5
285
102
{ACAD_REACTORS
330
284
102
}
330
284
100
AcDbIndex
 40
2458226.679317049
100
AcDbLayerIndex
  8
0
360
286
 90
        0
  8
1
360
287
 90
      296
  0
DICTIONARY
  5
290
330
15D
100
AcDbDictionary
280
     1
281
     1
  3
ACAD_XREC_ROUNDTRIP
360
291
  0
DICTIONARY
  5
292
330
15E
100
AcDbDictionary
280
     1
281
     1
  3
ACAD_XREC_ROUNDTRIP
360
293
  0
IDBUFFER
  5
286
330
0
100
AcDbIdBuffer
  0
IDBUFFER
  5
287
330
0
100
AcDbIdBuffer
330
5F
330
5E
330
5D
330
5C
330
5B
330
5A
330
59
330
58
330
57
330
56
330
55
330
54
330
53
330
52
330
51
330
50
330
4F
330
4E
330
4D
330
4C
330
4B
330
4A
330
49
330
48
330
47
330
46
330
45
330
44
330
43
330
42
330
41
330
40
330
3F
330
3E
330
3D
330
3C
330
3B
330
3A
330
39
330
38
330
37
330
36
330
35
330
34
330
33
330
32
330
31
330
30
330
2F
330
2E
330
2D
330
2C
330
2B
330
2A
330
29
330
28
330
150
330
14E
330
14D
330
14C
330
14B
330
14A
330
149
330
148
330
147
330
146
330
145
330
144
330
143
330
142
330
141
330
140
330
13F
330
13E
330
13D
330
13C
330
13B
330
13A
330
139
330
138
330
137
330
136
330
135
330
134
330
133
330
132
330
131
330
130
330
12F
330
12E
330
12D
330
12C
330
12B
330
12A
330
129
330
128
330
127
330
126
330
125
330
124
330
123
330
122
330
121
330
120
330
11F
330
11E
330
11D
330
11C
330
11B
330
11A
330
119
330
118
330
117
330
116
330
115
330
114
330
113
330
112
330
111
330
110
330
10F
330
10E
330
10D
330
10C
330
10B
330
10A
330
109
330
108
330
107
330
106
330
105
330
104
330
103
330
102
330
101
330
100
330
FF
330
FE
330
FD
330
FC
330
FB
330
FA
330
F9
330
F8
330
F7
330
F6
330
F5
330
F4
330
F3
330
F2
330
F1
330
F0
330
EF
330
EE
330
ED
330
EC
330
EB
330
EA
330
E9
330
E8
330
E7
330
E6
330
E5
330
E4
330
E3
330
E2
330
E1
330
E0
330
DF
330
DE
330
DD
330
DC
330
DB
330
DA
330
D9
330
D8
330
D7
330
D6
330
D5
330
D4
330
D3
330
D2
330
D1
330
D0
330
CF
330
CE
330
CD
330
CC
330
CB
330
CA
330
C9
330
C8
330
C7
330
C6
330
C5
330
C4
330
C3
330
C2
330
C1
330
C0
330
BF
330
BE
330
BD
330
BC
330
BB
330
BA
330
B9
330
B8
330
B7
330
B6
330
B5
330
B4
330
B3
330
B2
330
B1
330
B0
330
AF
330
AE
330
AD
330
AC
330
AB
330
AA
330
A9
330
A8
330
A7
330
A6
330
A5
330
A4
330
A3
330
A2
330
A1
330
A0
330
9F
330
9E
330
9D
330
9C
330
9B
330
9A
330
99
330
98
330
97
330
96
330
95
330
94
330
93
330
92
330
91
330
90
330
8F
330
8E
330
8D
330
8C
330
8B
330
8A
330
89
330
88
330
87
330
86
330
85
330
84
330
83
330
82
330
81
330
80
330
7F
330
7E
330
7D
330
7C
330
7B
330
7A
330
79
330
78
330
77
330
76
330
75
330
74
330
73
330
72
330
71
330
70
330
6F
330
6E
330
6D
330
6C
330
6B
330
6A
330
69
330
68
330
67
330
66
330
65
330
64
330
63
330
62
330
61
330
60
  0
XRECORD
  5
291
102
{ACAD_REACTORS
330
290
102
}
330
290
100
AcDbXrecord
280
     1
102
SHADEPLOT
 70
     0
102
SHADEPLOTRESLEVEL
 70
     2
102
SHADEPLOTCUSTOMDPI
 70
   300
  0
XRECORD
  5
293
102
{ACAD_REACTORS
330
292
102
}
330
292
100
AcDbXrecord
280
     1
102
SHADEPLOT
 70
     0
102
SHADEPLOTRESLEVEL
 70
     2
102
SHADEPLOTCUSTOMDPI
 70
   300
  0
ENDSEC
  0
EOF
