  0
SECTION
  2
HEADER
  9
$ACADVER
  1
AC1015
  9
$ACADMAINTVER
 70
    20
  9
$DWGCODEPAGE
  3
ANSI_932
  9
$INSBASE
 10
0.0
 20
0.0
 30
0.0
  9
$EXTMIN
 10
270.121136695797
 20
359.984721443724
 30
0.0
  9
$EXTMAX
 10
956.2247992168229
 20
457.666593903743
 30
0.0
  9
$LIMMIN
 10
0.0
 20
0.0
  9
$LIMMAX
 10
0.0
 20
0.0
  9
$ORTHOMODE
 70
     0
  9
$REGENMODE
 70
     1
  9
$FILLMODE
 70
     1
  9
$QTEXTMODE
 70
     0
  9
$MIRRTEXT
 70
     1
  9
$LTSCALE
 40
1.0
  9
$ATTMODE
 70
     1
  9
$TEXTSIZE
 40
0.0
  9
$TRACEWID
 40
0.05
  9
$TEXTSTYLE
  7
STANDARD
  9
$CLAYER
  8
0
  9
$CELTYPE
  6
CONTINUOUS
  9
$CECOLOR
 62
   256
  9
$CELTSCALE
 40
1.0
  9
$DISPSILH
 70
     0
  9
$DIMSCALE
 40
1.0
  9
$DIMASZ
 40
0.18
  9
$DIMEXO
 40
0.0625
  9
$DIMDLI
 40
0.38
  9
$DIMRND
 40
0.0
  9
$DIMDLE
 40
0.0
  9
$DIMEXE
 40
0.18
  9
$DIMTP
 40
0.0
  9
$DIMTM
 40
0.0
  9
$DIMTXT
 40
0.18
  9
$DIMCEN
 40
0.09
  9
$DIMTSZ
 40
0.0
  9
$DIMTOL
 70
     0
  9
$DIMLIM
 70
     0
  9
$DIMTIH
 70
     1
  9
$DIMTOH
 70
     1
  9
$DIMSE1
 70
     0
  9
$DIMSE2
 70
     0
  9
$DIMTAD
 70
     0
  9
$DIMZIN
 70
     0
  9
$DIMBLK
  1

  9
$DIMASO
 70
     1
  9
$DIMSHO
 70
     1
  9
$DIMPOST
  1

  9
$DIMAPOST
  1

  9
$DIMALT
 70
     0
  9
$DIMALTD
 70
     2
  9
$DIMALTF
 40
25.4
  9
$DIMLFAC
 40
1.0
  9
$DIMTOFL
 70
     0
  9
$DIMTVP
 40
0.0
  9
$DIMTIX
 70
     0
  9
$DIMSOXD
 70
     0
  9
$DIMSAH
 70
     0
  9
$DIMBLK1
  1

  9
$DIMBLK2
  1

  9
$DIMSTYLE
  2
STANDARD
  9
$DIMCLRD
 70
     0
  9
$DIMCLRE
 70
     0
  9
$DIMCLRT
 70
     0
  9
$DIMTFAC
 40
1.0
  9
$DIMGAP
 40
0.09
  9
$DIMJUST
 70
     0
  9
$DIMSD1
 70
     0
  9
$DIMSD2
 70
     0
  9
$DIMTOLJ
 70
     1
  9
$DIMTZIN
 70
     0
  9
$DIMALTZ
 70
     0
  9
$DIMALTTZ
 70
     0
  9
$DIMUPT
 70
     0
  9
$DIMDEC
 70
     4
  9
$DIMTDEC
 70
     4
  9
$DIMALTU
 70
     2
  9
$DIMALTTD
 70
     2
  9
$DIMTXSTY
  7
STANDARD
  9
$DIMAUNIT
 70
     0
  9
$DIMADEC
 70
     0
  9
$DIMALTRND
 40
0.0
  9
$DIMAZIN
 70
     0
  9
$DIMDSEP
 70
    46
  9
$DIMATFIT
 70
     3
  9
$DIMFRAC
 70
     0
  9
$DIMLDRBLK
  1

  9
$DIMLUNIT
 70
     2
  9
$DIMLWD
 70
    -2
  9
$DIMLWE
 70
    -2
  9
$DIMTMOVE
 70
     0
  9
$LUNITS
 70
     2
  9
$LUPREC
 70
     2
  9
$SKETCHINC
 40
0.1
  9
$FILLETRAD
 40
0.0
  9
$AUNITS
 70
     0
  9
$AUPREC
 70
     0
  9
$MENU
  1
acad
  9
$ELEVATION
 40
0.0
  9
$PELEVATION
 40
0.0
  9
$THICKNESS
 40
0.0
  9
$LIMCHECK
 70
     0
  9
$CHAMFERA
 40
0.0
  9
$CHAMFERB
 40
0.0
  9
$CHAMFERC
 40
0.0
  9
$CHAMFERD
 40
0.0
  9
$SKPOLY
 70
     0
  9
$TDCREATE
 40
2305814.417176053
  9
$TDUCREATE
 40
6.0000000000
  9
$TDUPDATE
 40
2458229.625356076
  9
$TDUUPDATE
 40
2458229.250356076
  9
$TDINDWG
 40
0.0001936690
  9
$TDUSRTIMER
 40
0.0001929514
  9
$USRTIMER
 70
     1
  9
$ANGBASE
 50
0.0
  9
$ANGDIR
 70
     0
  9
$PDMODE
 70
     0
  9
$PDSIZE
 40
0.0
  9
$PLINEWID
 40
0.0
  9
$SPLFRAME
 70
     0
  9
$SPLINETYPE
 70
     6
  9
$SPLINESEGS
 70
     8
  9
$HANDSEED
  5
28F
  9
$SURFTAB1
 70
     6
  9
$SURFTAB2
 70
     6
  9
$SURFTYPE
 70
     6
  9
$SURFU
 70
     6
  9
$SURFV
 70
     6
  9
$UCSBASE
  2

  9
$UCSNAME
  2

  9
$UCSORG
 10
0.0
 20
0.0
 30
0.0
  9
$UCSXDIR
 10
1.0
 20
0.0
 30
0.0
  9
$UCSYDIR
 10
0.0
 20
1.0
 30
0.0
  9
$UCSORTHOREF
  2

  9
$UCSORTHOVIEW
 70
     0
  9
$UCSORGTOP
 10
0.0
 20
0.0
 30
0.0
  9
$UCSORGBOTTOM
 10
0.0
 20
0.0
 30
0.0
  9
$UCSORGLEFT
 10
0.0
 20
0.0
 30
0.0
  9
$UCSORGRIGHT
 10
0.0
 20
0.0
 30
0.0
  9
$UCSORGFRONT
 10
0.0
 20
0.0
 30
0.0
  9
$UCSORGBACK
 10
0.0
 20
0.0
 30
0.0
  9
$PUCSBASE
  2

  9
$PUCSNAME
  2

  9
$PUCSORG
 10
0.0
 20
0.0
 30
0.0
  9
$PUCSXDIR
 10
1.0
 20
0.0
 30
0.0
  9
$PUCSYDIR
 10
0.0
 20
1.0
 30
0.0
  9
$PUCSORTHOREF
  2

  9
$PUCSORTHOVIEW
 70
     0
  9
$PUCSORGTOP
 10
0.0
 20
0.0
 30
0.0
  9
$PUCSORGBOTTOM
 10
0.0
 20
0.0
 30
0.0
  9
$PUCSORGLEFT
 10
0.0
 20
0.0
 30
0.0
  9
$PUCSORGRIGHT
 10
0.0
 20
0.0
 30
0.0
  9
$PUCSORGFRONT
 10
0.0
 20
0.0
 30
0.0
  9
$PUCSORGBACK
 10
0.0
 20
0.0
 30
0.0
  9
$USERI1
 70
     0
  9
$USERI2
 70
     0
  9
$USERI3
 70
     0
  9
$USERI4
 70
     0
  9
$USERI5
 70
     0
  9
$USERR1
 40
0.0
  9
$USERR2
 40
0.0
  9
$USERR3
 40
0.0
  9
$USERR4
 40
0.0
  9
$USERR5
 40
0.0
  9
$WORLDVIEW
 70
     1
  9
$SHADEDGE
 70
     3
  9
$SHADEDIF
 70
    70
  9
$TILEMODE
 70
     1
  9
$MAXACTVP
 70
    16
  9
$PINSBASE
 10
0.0
 20
0.0
 30
0.0
  9
$PLIMCHECK
 70
     0
  9
$PEXTMIN
 10
1.000000000000000E+20
 20
1.000000000000000E+20
 30
1.000000000000000E+20
  9
$PEXTMAX
 10
-1.000000000000000E+20
 20
-1.000000000000000E+20
 30
-1.000000000000000E+20
  9
$PLIMMIN
 10
0.0
 20
0.0
  9
$PLIMMAX
 10
12.0
 20
9.0
  9
$UNITMODE
 70
     0
  9
$VISRETAIN
 70
     0
  9
$PLINEGEN
 70
     1
  9
$PSLTSCALE
 70
     0
  9
$TREEDEPTH
 70
  3020
  9
$CMLSTYLE
  2
STANDARD
  9
$CMLJUST
 70
     0
  9
$CMLSCALE
 40
1.0
  9
$PROXYGRAPHICS
 70
     0
  9
$MEASUREMENT
 70
     1
  9
$CELWEIGHT
370
    -1
  9
$ENDCAPS
280
     0
  9
$JOINSTYLE
280
     0
  9
$LWDISPLAY
290
     0
  9
$INSUNITS
 70
     0
  9
$HYPERLINKBASE
  1

  9
$STYLESHEET
  1

  9
$XEDIT
290
     1
  9
$CEPSNTYPE
380
     0
  9
$PSTYLEMODE
290
     1
  9
$FINGERPRINTGUID
  2
{DDB6ADB3-FD47-463C-965B-0EC1616C827C}
  9
$VERSIONGUID
  2
{4C89B3C1-4A7C-4DD7-B366-C52C25725E7A}
  9
$EXTNAMES
290
     1
  9
$PSVPSCALE
 40
0.0
  9
$OLESTARTUP
290
     0
  0
ENDSEC
  0
SECTION
  2
CLASSES
  0
CLASS
  1
IMAGE
  2
AcDbRasterImage
  3
ISM
 90
    32895
280
     0
281
     1
  0
CLASS
  1
DICTIONARYVAR
  2
AcDbDictionaryVar
  3
ObjectDBX Classes
 90
        0
280
     0
281
     0
  0
CLASS
  1
RASTERVARIABLES
  2
AcDbRasterVariables
  3
ISM
 90
    32768
280
     0
281
     0
  0
CLASS
  1
IMAGEDEF
  2
AcDbRasterImageDef
  3
ISM
 90
    32768
280
     0
281
     0
  0
CLASS
  1
IMAGEDEF_REACTOR
  2
AcDbRasterImageDefReactor
  3
ISM
 90
    32769
280
     0
281
     0
  0
CLASS
  1
IDBUFFER
  2
AcDbIdBuffer
  3
ObjectDBX Classes
 90
        0
280
     0
281
     0
  0
CLASS
  1
SPATIAL_FILTER
  2
AcDbSpatialFilter
  3
ObjectDBX Classes
 90
    32768
280
     0
281
     0
  0
CLASS
  1
SORTENTSTABLE
  2
AcDbSortentsTable
  3
ObjectDBX Classes
 90
    32768
280
     0
281
     0
  0
CLASS
  1
LAYER_INDEX
  2
AcDbLayerIndex
  3
ObjectDBX Classes
 90
        0
280
     0
281
     0
  0
CLASS
  1
SPATIAL_INDEX
  2
AcDbSpatialIndex
  3
ObjectDBX Classes
 90
    32768
280
     0
281
     0
  0
CLASS
  1
OBJECT_PTR
  2
CAseDLPNTableRecord
  3
ASE-LPNTableRecord
 90
    32769
280
     0
281
     0
  0
CLASS
  1
LAYOUT
  2
AcDbLayout
  3
ObjectDBX Classes
 90
        0
280
     0
281
     0
  0
CLASS
  1
PLOTSETTINGS
  2
AcDbPlotSettings
  3
ObjectDBX Classes
 90
    32768
280
     0
281
     0
  0
CLASS
  1
ACDBDICTIONARYWDFLT
  2
AcDbDictionaryWithDefault
  3
ObjectDBX Classes
 90
        0
280
     0
281
     0
  0
CLASS
  1
ACDBPLACEHOLDER
  2
AcDbPlaceHolder
  3
ObjectDBX Classes
 90
        0
280
     0
281
     0
  0
CLASS
  1
VBA_PROJECT
  2
AcDbVbaProject
  3
acad
 90
    32768
280
     0
281
     0
  0
CLASS
  1
WIPEOUT
  2
AcDbWipeout
  3
"WipeOut|Product Desc: Object Enabler for WipeOut entity^I^I^I^I^I^I|Company: Autodesk, Inc.^I^I^I^I^I^I|WEB Address: www.autodesk.com"
 90
    32895
280
     0
281
     1
  0
CLASS
  1
WIPEOUTVARIABLES
  2
AcDbWipeoutVariables
  3
"WipeOut|Product Desc:     WipeOut Dbx Application|Company:          Autodesk, Inc.|WEB Address:      www.autodesk.com"
 90
    32768
280
     0
281
     0
  0
CLASS
  1
RTEXT
  2
RText
  3
RText|AutoCAD Express Tool|expresstools@autodesk.com
 90
    32768
280
     0
281
     1
  0
CLASS
  1
ARCALIGNEDTEXT
  2
AcDbArcAlignedText
  3
ATEXT|AutoCAD Express Tool|expresstools@autodesk.com
 90
    32768
280
     0
281
     1
  0
CLASS
  1
TABLESTYLE
  2
AcDbTableStyle
  3
ObjectDBX Classes
 90
     2047
280
     0
281
     0
  0
CLASS
  1
AMGSETTINGSOBJ
  2
AmgSettingsObj
  3
"AcadM|Product Description: AutoCAD Mechanical 2000|Company: Autodesk"
 90
        0
280
     0
281
     0
  0
CLASS
  1
ACME_DOCUMENT
  2
AcMeDbDoc
  3
AcMeServices
 90
        0
280
     0
281
     0
  0
CLASS
  1
ACMESCOPE
  2
AcMeScope
  3
AcMeServices
 90
        0
280
     0
281
     0
  0
CLASS
  1
ACMECOMMANDHISTORY
  2
AcMeCommandHistory
  3
AcMeServices
 90
        0
280
     0
281
     0
  0
CLASS
  1
ACIMSYSVARMAN
  2
AcImSysVarManager
  3
AcMeServices
 90
        0
280
     0
281
     0
  0
CLASS
  1
ACIMREALSYSVAR
  2
AcImRealSysVar
  3
AcMeServices
 90
        0
280
     0
281
     0
  0
CLASS
  1
ACIMINTSYSVAR
  2
AcImIntSysVar
  3
AcMeServices
 90
        0
280
     0
281
     0
  0
CLASS
  1
ACMEDRAWINGMAN
  2
AcMeDrawingMan
  3
AcMeServices
 90
        0
280
     0
281
     0
  0
CLASS
  1
ACMEVIEW
  2
AcMeView
  3
AcMeServices
 90
        0
280
     0
281
     0
  0
CLASS
  1
ACDBENTITYCACHE
  2
AcMeEntityCache
  3
AcMeServices
 90
        0
280
     0
281
     0
  0
CLASS
  1
GSMANAGER
  2
AcMeGSManager
  3
AcMeServices
 90
        0
280
     0
281
     0
  0
CLASS
  1
AMDTINTERNALREACTOR
  2
AmdtInternalReactor
  3
AcMeServices
 90
        0
280
     0
281
     0
  0
CLASS
  1
ACMESTATEMGR
  2
AcMeStateMgr
  3
AcMeServices
 90
        0
280
     0
281
     0
  0
CLASS
  1
ACGREFMASTER
  2
AcGrefMaster
  3
AcAttribServices
 90
        0
280
     0
281
     0
  0
CLASS
  1
AM_DRAWING_MGR
  2
AcDmDwgMgr
  3
AcMechDwgViewMgmt
 90
        0
280
     0
281
     0
  0
CLASS
  1
AM_DWG_DOCUMENT
  2
AcDmDwgDocument
  3
AcMechDwgViewMgmt
 90
        0
280
     0
281
     0
  0
CLASS
  1
AM_DWG_SHEET
  2
AcDmSheet
  3
AcMechDwgViewMgmt
 90
        0
280
     0
281
     0
  0
CLASS
  1
AM_VIEWDIMPARMAP
  2
AcDmViewDimParMap
  3
AcMechDwgViewMgmt
 90
        0
280
     0
281
     0
  0
CLASS
  1
AM_DWGMGR_NAME
  2
AcDmDwgMgrName
  3
AcMechDwgViewMgmt
 90
        0
280
     0
281
     0
  0
CLASS
  1
ACME_DATABASE
  2
AcMeDbDatabase
  3
AcMeServices
 90
        0
280
     0
281
     0
  0
CLASS
  1
ACRFINSADJUSTERMGR
  2
AcRfInsAdjusterMgr
  3
AcMeServices
 90
        0
280
     0
281
     0
  0
CLASS
  1
ACGREFACADMASTER
  2
AcGrefacadMaster
  3
AcGrefServices
 90
        0
280
     0
281
     0
  0
CLASS
  1
AMDTMENUSTATEMGR
  2
AmdtMenuStateMgr
  3
McadcomServices
 90
        0
280
     0
281
     0
  0
CLASS
  1
AMDTMCOMMENUSTATE
  2
AmdtMcomMenuState
  3
McadcomServices
 90
        0
280
     0
281
     0
  0
CLASS
  1
AMIMASTER
  2
AmiMaster
  3
AmiServices
 90
        0
280
     0
281
     0
  0
CLASS
  1
ASAPP
  2
AcAsAppObject
  3
AutoSurfServices
 90
        0
280
     0
281
     0
  0
CLASS
  1
IM_STATIC_MAN
  2
AcImStaticVarManager
  3
AcMeServices
 90
        0
280
     0
281
     0
  0
CLASS
  1
ACIMSTRSYSVAR
  2
AcImStrSysVar
  3
AcMeServices
 90
        0
280
     0
281
     0
  0
CLASS
  1
ACIMDBLSTATICVAR
  2
AcImDblStaticVar
  3
AcMeServices
 90
        0
280
     0
281
     0
  0
CLASS
  1
ACIMSTRSTATICVAR
  2
AcImStrStaticVar
  3
AcMeServices
 90
        0
280
     0
281
     0
  0
CLASS
  1
ACIMINTSTATICVAR
  2
AcImIntStaticVar
  3
AcMeServices
 90
        0
280
     0
281
     0
  0
CLASS
  1
ACASGREFMASTER
  2
AcAsGrefMaster
  3
AutoSurfResolverServices
 90
        0
280
     0
281
     0
  0
CLASS
  1
ACADGREFMODULE
  2
AcAdGrefModule
  3
AdGrefServices
 90
        0
280
     0
281
     0
  0
CLASS
  1
AMDTMAPISURFMOUDULE
  2
AmdtMApiSurfModule
  3
MApiSurfServices
 90
        0
280
     0
281
     0
  0
CLASS
  1
MAPIAMMOUDLE
  2
MApiAmModule
  3
MApiAmServices
 90
        0
280
     0
281
     0
  0
CLASS
  1
AMDTADMENUSTATE
  2
AmdtAdMenuState
  3
DesignerServices
 90
        0
280
     0
281
     0
  0
CLASS
  1
ADAPPL
  2
AcAdAppl
  3
DesignerServices
 90
        0
280
     0
281
     0
  0
CLASS
  1
DEPMGR
  2
AcAdDepMgr
  3
DesignerServices
 90
        0
280
     0
281
     0
  0
CLASS
  1
PARAMMGR
  2
AcAdParamMgr
  3
DesignerServices
 90
        0
280
     0
281
     0
  0
CLASS
  1
PARAMSCOPE
  2
AcAdParamScope
  3
DesignerServices
 90
        0
280
     0
281
     0
  0
CLASS
  1
NAMEDAPPL
  2
AcAdNamedAppl
  3
DesignerServices
 90
        0
280
     0
281
     0
  0
CLASS
  1
AMDTDMMENUSTATE
  2
AmdtDmMenuState
  3
AcMechDwgViewMgmt
 90
        0
280
     0
281
     0
  0
CLASS
  1
MAPIADMODULE
  2
MApiAdModule
  3
MApiAdServices
 90
        0
280
     0
281
     0
  0
CLASS
  1
AMDTAMMENUSTATE
  2
AmdtAmMenuState
  3
DesignerAssemblies
 90
        0
280
     0
281
     0
  0
CLASS
  1
ACAMPROJECT
  2
AcAmProject
  3
DesignerAssemblies
 90
        0
280
     0
281
     0
  0
CLASS
  1
ACAMGRCOMPDEF
  2
AcAmGrCompDef
  3
DesignerAssemblies
 90
        0
280
     0
281
     0
  0
CLASS
  1
ACCMCONTEXT
  2
AcCmContext
  3
DesignerAssemblies
 90
        0
280
     0
281
     0
  0
CLASS
  1
ACAMCOMPDEF
  2
AcAmCompDef
  3
DesignerAssemblies
 90
        0
280
     0
281
     0
  0
CLASS
  1
ACAMCOMPDEFMGR
  2
AcAmCompDefMgr
  3
DesignerAssemblies
 90
        0
280
     0
281
     0
  0
CLASS
  1
AMCONTEXTMGR
  2
AcAmContextMgr
  3
DesignerAssemblies
 90
        0
280
     0
281
     0
  0
CLASS
  1
ACAMCONTEXTMODELER
  2
AcAmContextModeler
  3
DesignerAssemblies
 90
        0
280
     0
281
     0
  0
CLASS
  1
ACMDATADICTIONARY
  2
AcmDataDictionary
  3
"AcmSymBB|Product Description: AutoCAD Mechanical 2004 DX|Company: Autodesk"
 90
        0
280
     0
281
     0
  0
CLASS
  1
ACMDATAENTRYBLOCK
  2
AcmDataEntryBlock
  3
"AcmSymBB|Product Description: AutoCAD Mechanical 2004 DX|Company: Autodesk"
 90
        0
280
     0
281
     0
  0
CLASS
  1
CATALOGSTATE
  2
AcAmCatalogState
  3
DesignerAssemblies
 90
        0
280
     0
281
     0
  0
CLASS
  1
ACAMGRCOMPDEFSET
  2
AcAmGrCompDefSet
  3
DesignerAssemblies
 90
        0
280
     0
281
     0
  0
CLASS
  1
AMDTBROWSERDBTAB
  2
AmdtBrowserDbTab
  3
McadcomServices
 90
        0
280
     0
281
     0
  0
CLASS
  1
CBROWSERAPPOBJECT
  2
CBrowserAppObject
  3
McadcomServices
 90
        0
280
     0
281
     0
  0
CLASS
  1
DM_PLACEHOLDER
  2
AcDmSelsetPlaceholder
  3
AcMechDwgViewMgmt
 90
        0
280
     0
281
     0
  0
CLASS
  1
ACMSTANDARDISO
  2
AcmStandardISO
  3
"Amdt_StdImp|Product Description: AutoCAD Mechanical 2004 DX|Company: Autodesk"
 90
        0
280
     0
281
     0
  0
CLASS
  1
AMGOBJPROPCFG
  2
AmgObjPropCfg
  3
"AmgLay|Product Description: AutoCAD Mechanical 2000|Company: Autodesk"
 90
        1
280
     0
281
     0
  0
CLASS
  1
AMDTEDGESTANDARDISO13715
  2
AmdtEdgeStdISO13715
  3
"Amdt_StdImp|Product Description: AutoCAD Mechanical 2004 DX|Company: Autodesk"
 90
        0
280
     0
281
     0
  0
CLASS
  1
ACMSURFSTANDARDISO
  2
AcmSurfTextStdISO
  3
"Amdt_StdImp|Product Description: AutoCAD Mechanical 2004 DX|Company: Autodesk"
 90
        0
280
     0
281
     0
  0
CLASS
  1
ACMFCFSTANDARDISO
  2
AcmFCFStdISO
  3
"Amdt_StdImp|Product Description: AutoCAD Mechanical 2004 DX|Company: Autodesk"
 90
        0
280
     0
281
     0
  0
CLASS
  1
ACMWELDSTANDARDISO
  2
AcmWeldingStdISO
  3
"Amdt_StdImp|Product Description: AutoCAD Mechanical 2004 DX|Company: Autodesk"
 90
        0
280
     0
281
     0
  0
CLASS
  1
ACMIDSTANDARDISO
  2
AcmIdStdISO
  3
"Amdt_StdImp|Product Description: AutoCAD Mechanical 2004 DX|Company: Autodesk"
 90
        0
280
     0
281
     0
  0
CLASS
  1
ACMDATUMSTANDARDISO
  2
AcmDatumStdISO
  3
"Amdt_StdImp|Product Description: AutoCAD Mechanical 2004 DX|Company: Autodesk"
 90
        0
280
     0
281
     0
  0
CLASS
  1
ACMBOMSTANDARDISO
  2
AcmBOMStdISO
  3
"Amdt_StdImp|Product Description: AutoCAD Mechanical 2004 DX|Company: Autodesk"
 90
        0
280
     0
281
     0
  0
CLASS
  1
ACMDETAILSTANDARDISO
  2
AmdtDetailSymStdISO
  3
"Amdt_StdImp|Product Description: AutoCAD Mechanical 2004 DX|Company: Autodesk"
 90
        0
280
     0
281
     0
  0
CLASS
  1
ACMSECTIONSTANDARDISO
  2
AmdtSectionSymStdISO
  3
"Amdt_StdImp|Product Description: AutoCAD Mechanical 2004 DX|Company: Autodesk"
 90
        0
280
     0
281
     0
  0
CLASS
  1
ACMCENTERLINESTANDARDISO
  2
AmdtCenterLineStdISO
  3
"Amdt_StdImp|Product Description: AutoCAD Mechanical 2004 DX|Company: Autodesk"
 90
        0
280
     0
281
     0
  0
CLASS
  1
ACMTHREADLINESTANDARDISO
  2
AmdtThreadLineStdISO
  3
"Amdt_StdImp|Product Description: AutoCAD Mechanical 2004 DX|Company: Autodesk"
 90
        0
280
     0
281
     0
  0
CLASS
  1
ACMNOTESTANDARDISO
  2
AmdtNoteStdISO
  3
"Amdt_StdImp|Product Description: AutoCAD Mechanical 2004 DX|Company: Autodesk"
 90
        0
280
     0
281
     0
  0
CLASS
  1
AMDTNOTETEMPLATEDB
  2
AmdtNoteTemplateDB
  3
AMDT_STDIMP_MODULE_NAME
 90
        0
280
     0
281
     0
  0
CLASS
  1
ACAMGLAYSTD
  2
AcAmgLayStd
  3
"AcAmgLayStd|Product Description: AutoCAD Mechanical 2000|Company: Autodesk"
 90
        0
280
     0
281
     0
  0
CLASS
  1
ACAMGDIMSTD
  2
AcAmgDimStd
  3
"AcAmgDimStd|Product Description: AutoCAD Mechanical 2000|Company: Autodesk"
 90
        0
280
     0
281
     0
  0
CLASS
  1
ACAMGHOLECHARTSTDISO
  2
AcAmgHoleChartStdISO
  3
ACMSYMBB_MODULE_NAME
 90
        0
280
     0
281
     0
  0
CLASS
  1
ACAMGTITLESTD
  2
AcAmgTitleStd
  3
"TITLEAPP"
 90
        0
280
     0
281
     0
  0
CLASS
  1
ACAMGFILTERDAT
  2
AcAmgFilterDat
  3
"AcadM|Product Description: AutoCAD Mechanical 2000|Company: Autodesk"
 90
        0
280
     0
281
     0
  0
ENDSEC
  0
SECTION
  2
TABLES
  0
TABLE
  2
VPORT
  5
7
330
0
100
AcDbSymbolTable
 70
     3
  0
VPORT
  5
288
330
7
100
AcDbSymbolTableRecord
100
AcDbViewportTableRecord
  2
*Active
 70
     0
 10
0.0
 20
0.0
 11
1.0
 21
1.0
 12
604.6363250342738
 22
404.2464736737334
 13
0.0
 23
0.0
 14
1.0
 24
1.0
 15
0.0
 25
0.0
 16
0.0
 26
0.0
 36
1.0
 17
8.53664292203609
 27
4.579183999999999
 37
0.0
 40
620.2306167478931
 41
1.113389626055488
 42
50.0
 43
0.0
 44
0.0
 50
0.0
 51
0.0
 71
     0
 72
   100
 73
     1
 74
     1
 75
     0
 76
     0
 77
     0
 78
     0
281
     0
 65
     0
110
0.0
120
0.0
130
0.0
111
1.0
121
0.0
131
0.0
112
0.0
122
1.0
132
0.0
 79
     0
146
0.0
  0
ENDTAB
  0
TABLE
  2
LTYPE
  5
4
330
0
100
AcDbSymbolTable
 70
    23
  0
LTYPE
  5
11
330
4
100
AcDbSymbolTableRecord
100
AcDbLinetypeTableRecord
  2
BYBLOCK
 70
     0
  3

 72
    65
 73
     0
 40
0.0
  0
LTYPE
  5
12
330
4
100
AcDbSymbolTableRecord
100
AcDbLinetypeTableRecord
  2
BYLAYER
 70
     0
  3

 72
    65
 73
     0
 40
0.0
  0
LTYPE
  5
13
330
4
100
AcDbSymbolTableRecord
100
AcDbLinetypeTableRecord
  2
CONTINUOUS
 70
     0
  3
Solid line
 72
    65
 73
     0
 40
0.0
  0
LTYPE
  5
1D
330
4
100
AcDbSymbolTableRecord
100
AcDbLinetypeTableRecord
  2
DASHED
 70
     0
  3
Dashed
 72
    65
 73
     2
 40
15.0
 49
12.0
 74
     0
 49
-3.0
 74
     0
  0
LTYPE
  5
1E
330
4
100
AcDbSymbolTableRecord
100
AcDbLinetypeTableRecord
  2
DOTTED
 70
     0
  3
Dotted
 72
    65
 73
     2
 40
3.5
 49
0.5
 74
     0
 49
-3.0
 74
     0
  0
LTYPE
  5
1F
330
4
100
AcDbSymbolTableRecord
100
AcDbLinetypeTableRecord
  2
DOT_CENTER
 70
     0
  3
Dot_Center
 72
    65
 73
     4
 40
2.0
 49
1.25
 74
     0
 49
-0.25
 74
     0
 49
0.25
 74
     0
 49
-0.25
 74
     0
  0
LTYPE
  5
20
330
4
100
AcDbSymbolTableRecord
100
AcDbLinetypeTableRecord
  2
LONG_DASHED
 70
     0
  3
Long_Dashed
 72
    65
 73
     2
 40
2.0
 49
1.5
 74
     0
 49
-0.5
 74
     0
  0
LTYPE
  5
21
330
4
100
AcDbSymbolTableRecord
100
AcDbLinetypeTableRecord
  2
DASH_CENTER
 70
     0
  3
Dash_Center
 72
    65
 73
     4
 40
36.0
 49
24.0
 74
     0
 49
-3.0
 74
     0
 49
6.0
 74
     0
 49
-3.0
 74
     0
  0
LTYPE
  5
22
330
4
100
AcDbSymbolTableRecord
100
AcDbLinetypeTableRecord
  2
PHANTOM
 70
     0
  3
Phantom
 72
    65
 73
     6
 40
2.5
 49
1.25
 74
     0
 49
-0.25
 74
     0
 49
0.25
 74
     0
 49
-0.25
 74
     0
 49
0.25
 74
     0
 49
-0.25
 74
     0
  0
LTYPE
  5
23
330
4
100
AcDbSymbolTableRecord
100
AcDbLinetypeTableRecord
  2
CENTER_DASH_DASH
 70
     0
  3
Center_Dash_Dash
 72
    65
 73
     6
 40
22.0
 49
12.0
 74
     0
 49
-3.0
 74
     0
 49
0.5
 74
     0
 49
-3.0
 74
     0
 49
0.5
 74
     0
 49
-3.0
 74
     0
  0
LTYPE
  5
193
330
4
100
AcDbSymbolTableRecord
100
AcDbLinetypeTableRecord
  2
HIDDEN
 70
     0
  3
Hidden __ __ __ __ __ __ __ __ __ __ __ __ __ _
 72
    65
 73
     2
 40
9.524999999999998
 49
6.349999999999999
 74
     0
 49
-3.174999999999999
 74
     0
  0
LTYPE
  5
194
330
4
100
AcDbSymbolTableRecord
100
AcDbLinetypeTableRecord
  2
PHANTOM2
 70
     0
  3
Phantom (.5x) ___ _ _ ___ _ _ ___ _ _ ___ _ _
 72
    65
 73
     6
 40
31.75
 49
15.875
 74
     0
 49
-3.174999999999999
 74
     0
 49
3.174999999999999
 74
     0
 49
-3.174999999999999
 74
     0
 49
3.174999999999999
 74
     0
 49
-3.174999999999999
 74
     0
  0
LTYPE
  5
195
330
4
100
AcDbSymbolTableRecord
100
AcDbLinetypeTableRecord
  2
CENTER
 70
     0
  3
Center ____ _ ____ _ ____ _ ____ _ ____ _ ____
 72
    65
 73
     4
 40
50.8
 49
31.75
 74
     0
 49
-6.349999999999999
 74
     0
 49
6.349999999999999
 74
     0
 49
-6.349999999999999
 74
     0
  0
LTYPE
  5
1E4
330
4
100
AcDbSymbolTableRecord
100
AcDbLinetypeTableRecord
  2
ASULTYPE
 70
     0
  3
実線
 72
    65
 73
     2
 40
3.0
 49
2.5
 74
     0
 49
0.5
 74
     0
  0
LTYPE
  5
1E5
330
4
100
AcDbSymbolTableRecord
100
AcDbLinetypeTableRecord
  2
ASVLTYPE
 70
     0
  3
__ __ __ __ __ __ __ __ __ __ __ __ __ __ __ __ __ __ __ __ __
 72
    65
 73
     2
 40
0.75
 49
0.5
 74
     0
 49
-0.25
 74
     0
  0
LTYPE
  5
22C
330
4
100
AcDbSymbolTableRecord
100
AcDbLinetypeTableRecord
  2
AM_ISO02W050
 70
     0
  3
__ __ __ __ __ __ __ __ __ __ __ __ __ __ __
 72
    65
 73
     2
 40
7.5
 49
6.0
 74
     0
 49
-1.5
 74
     0
  0
LTYPE
  5
22D
330
4
100
AcDbSymbolTableRecord
100
AcDbLinetypeTableRecord
  2
AM_ISO08W050
 70
     0
  3
____ . ____ . ____ . ____ . ____ . ____ . ____
 72
    65
 73
     4
 40
18.0
 49
12.0
 74
     0
 49
-1.5
 74
     0
 49
3.0
 74
     0
 49
-1.5
 74
     0
  0
LTYPE
  5
22E
330
4
100
AcDbSymbolTableRecord
100
AcDbLinetypeTableRecord
  2
AM_ISO09W050
 70
     0
  3
_____ . . _____ . . _____ . . ____ .. ____
 72
    65
 73
     6
 40
22.5
 49
12.0
 74
     0
 49
-1.5
 74
     0
 49
3.0
 74
     0
 49
-1.5
 74
     0
 49
3.0
 74
     0
 49
-1.5
 74
     0
  0
LTYPE
  5
22F
330
4
100
AcDbSymbolTableRecord
100
AcDbLinetypeTableRecord
  2
Amconstr
 70
     0
  3
_______________________
 72
    65
 73
     2
 40
9999.0
 49
9999.0
 74
     0
 49
0.0
 74
     0
  0
LTYPE
  5
230
330
4
100
AcDbSymbolTableRecord
100
AcDbLinetypeTableRecord
  2
AM_ISO08W050x2
 70
     0
  3
__ . __ . __ . __ . __ . __
 72
    65
 73
     4
 40
9.0
 49
6.0
 74
     0
 49
-0.75
 74
     0
 49
1.5
 74
     0
 49
-0.75
 74
     0
  0
LTYPE
  5
231
330
4
100
AcDbSymbolTableRecord
100
AcDbLinetypeTableRecord
  2
AM_ISO02W050x2
 70
     0
  3
 _ _ _ _ _ _ _ _ _ _ _ _
 72
    65
 73
     2
 40
3.75
 49
3.0
 74
     0
 49
-0.75
 74
     0
  0
LTYPE
  5
234
330
4
100
AcDbSymbolTableRecord
100
AcDbLinetypeTableRecord
  2
Amzigzag
 70
     0
  3
/\/-/\/-/\/-/\/-/\/-/\/
 72
    65
 73
     2
 40
11.0001
 49
0.0001
 74
     4
 75
   136
340
233
 46
0.04
 50
0.0
 44
0.0
 45
0.0
 49
-11.0
 74
     0
  0
LTYPE
  5
243
330
4
100
AcDbSymbolTableRecord
100
AcDbLinetypeTableRecord
  2
ACISOWELD
 70
     0
  3
_ _ _ _ _
 72
    65
 73
     2
 40
2.0
 49
2.0
 74
     0
 49
-1.0
 74
     0
  0
LTYPE
  5
244
330
4
100
AcDbSymbolTableRecord
100
AcDbLinetypeTableRecord
  2
ACISOTGB
 70
     0
  3
__ . . __ . .
 72
    65
 73
     6
 40
9.0
 49
4.0
 74
     0
 49
-1.0
 74
     0
 49
1.0
 74
     0
 49
-1.0
 74
     0
 49
1.0
 74
     0
 49
-1.0
 74
     0
  0
LTYPE
  5
245
330
4
100
AcDbSymbolTableRecord
100
AcDbLinetypeTableRecord
  2
ACISOTGL
 70
     0
  3
_ _ _ _ _
 72
    65
 73
     2
 40
3.0
 49
2.0
 74
     0
 49
-1.0
 74
     0
  0
ENDTAB
  0
TABLE
  2
LAYER
  5
2
330
0
100
AcDbSymbolTable
 70
     2
  0
LAYER
  5
14
330
2
100
AcDbSymbolTableRecord
100
AcDbLayerTableRecord
  2
0
 70
     0
 62
     7
  6
CONTINUOUS
370
    -3
390
151
  0
LAYER
  5
24
330
2
100
AcDbSymbolTableRecord
100
AcDbLayerTableRecord
  2
1
 70
     0
 62
     7
  6
CONTINUOUS
370
    -3
390
151
  0
ENDTAB
  0
TABLE
  2
STYLE
  5
3
330
0
100
AcDbSymbolTable
 70
     5
  0
STYLE
  5
17
330
3
100
AcDbSymbolTableRecord
100
AcDbTextStyleTableRecord
  2
STANDARD
 70
     0
 40
0.0
 41
1.0
 50
0.0
 71
     0
 42
0.0
  3
txt
  4

  0
STYLE
  5
14A
330
3
100
AcDbSymbolTableRecord
100
AcDbTextStyleTableRecord
  2
CONVERTER_1
 70
     0
 40
0.0
 41
0.8
 50
0.0
 71
     0
 42
0.0
  3
MS Gothic
  4

1001
ACAD
1000
MS Gothic
1071
    32785
  0
STYLE
  5
233
330
3
100
AcDbSymbolTableRecord
100
AcDbTextStyleTableRecord
  2

 70
     1
 40
0.0
 41
1.0
 50
0.0
 71
     0
 42
0.2
  3
genltshp.shx
  4

  0
STYLE
  5
235
330
3
100
AcDbSymbolTableRecord
100
AcDbTextStyleTableRecord
  2
ACISOTS
 70
     0
 40
1.0
 41
1.0
 50
0.0
 71
     0
 42
0.2
  3
isocp.shx
  4
extfont.shx
  0
STYLE
  5
242
330
3
100
AcDbSymbolTableRecord
100
AcDbTextStyleTableRecord
  2
ACISOGDT
 70
     0
 40
0.0
 41
1.0
 50
0.0
 71
     0
 42
0.2
  3
AMGDT
  4

  0
ENDTAB
  0
TABLE
  2
VIEW
  5
5
330
0
100
AcDbSymbolTable
 70
     0
  0
ENDTAB
  0
TABLE
  2
UCS
  5
6
330
0
100
AcDbSymbolTable
 70
     0
  0
ENDTAB
  0
TABLE
  2
APPID
  5
8
330
0
100
AcDbSymbolTable
 70
    16
  0
APPID
  5
16
330
8
100
AcDbSymbolTableRecord
100
AcDbRegAppTableRecord
  2
ACAD
 70
     0
  0
APPID
  5
15F
330
8
100
AcDbSymbolTableRecord
100
AcDbRegAppTableRecord
  2
GENIUS_GENDIM_13
 70
     0
  0
APPID
  5
160
330
8
100
AcDbSymbolTableRecord
100
AcDbRegAppTableRecord
  2
GENIUS_GENDTOL_13
 70
     0
  0
APPID
  5
161
330
8
100
AcDbSymbolTableRecord
100
AcDbRegAppTableRecord
  2
GENIUS_GE3DTOL_13
 70
     0
  0
APPID
  5
164
330
8
100
AcDbSymbolTableRecord
100
AcDbRegAppTableRecord
  2
MCAD_NO_VIS
 70
     0
  0
APPID
  5
165
330
8
100
AcDbSymbolTableRecord
100
AcDbRegAppTableRecord
  2
ACAD_TEMP_GRAPHIC
 70
     0
  0
APPID
  5
197
330
8
100
AcDbSymbolTableRecord
100
AcDbRegAppTableRecord
  2
AD_DRAW
 70
     0
  0
APPID
  5
19A
330
8
100
AcDbSymbolTableRecord
100
AcDbRegAppTableRecord
  2
ACATTRIBSERVICES
 70
     0
  0
APPID
  5
1E6
330
8
100
AcDbSymbolTableRecord
100
AcDbRegAppTableRecord
  2
ASURF_PCURVE_APPNAME
 70
     0
  0
APPID
  5
1EB
330
8
100
AcDbSymbolTableRecord
100
AcDbRegAppTableRecord
  2
AMG_3D2D_5.0
 70
     0
  0
APPID
  5
21C
330
8
100
AcDbSymbolTableRecord
100
AcDbRegAppTableRecord
  2
DESIGNERASSEMBLIES
 70
     0
  0
APPID
  5
223
330
8
100
AcDbSymbolTableRecord
100
AcDbRegAppTableRecord
  2
ACADM_DIM_EDIT
 70
     0
  0
APPID
  5
224
330
8
100
AcDbSymbolTableRecord
100
AcDbRegAppTableRecord
  2
AMDT_DM_ADJ
 70
     0
  0
APPID
  5
252
330
8
100
AcDbSymbolTableRecord
100
AcDbRegAppTableRecord
  2
ACAD_DSTYLE_DIMARC_LENGTH_SYMBOL
 70
     0
  0
APPID
  5
253
330
8
100
AcDbSymbolTableRecord
100
AcDbRegAppTableRecord
  2
ACAD_DSTYLE_DIMJOGGED_JOGANGLE_SYMBOL
 70
     0
  0
APPID
  5
27C
330
8
100
AcDbSymbolTableRecord
100
AcDbRegAppTableRecord
  2
DCO15
 70
     0
  0
ENDTAB
  0
TABLE
  2
DIMSTYLE
  5
9
330
0
100
AcDbSymbolTable
 70
     8
100
AcDbDimStyleTable
 71
     0
  0
DIMSTYLE
105
18
330
9
100
AcDbSymbolTableRecord
100
AcDbDimStyleTableRecord
  2
STANDARD
 70
     0
340
17
  0
DIMSTYLE
105
251
330
9
100
AcDbSymbolTableRecord
100
AcDbDimStyleTableRecord
  2
AM_ISO
 70
     0
  4
"
 41
2.5
 42
1.0
 43
10.0
 44
1.0
 47
0.1
 48
0.1
 73
     0
 74
     0
 77
     1
 78
     8
 79
     2
140
3.5
141
0.0
143
0.0393701
146
0.71
147
1.5
172
     1
176
   256
177
   256
178
     2
271
     2
272
     3
274
     4
283
     0
284
     8
340
17
371
    -1
372
    -1
1001
ACAD_DSTYLE_DIMARC_LENGTH_SYMBOL
1070
   379
1070
     1
1001
ACAD_DSTYLE_DIMJOGGED_JOGANGLE_SYMBOL
1070
   384
1040
0.7853981633974483
  0
DIMSTYLE
105
25A
330
9
100
AcDbSymbolTableRecord
100
AcDbDimStyleTableRecord
  2
AM_ISO$3
 70
     0
  4
"
 41
2.5
 42
1.0
 43
10.0
 44
1.0
 47
0.1
 48
0.1
 73
     0
 77
     1
 78
     8
 79
     2
140
3.5
141
0.0
143
0.0393701
146
0.71
147
1.5
176
   256
177
   256
178
     2
271
     2
272
     3
274
     4
283
     0
284
     8
288
     1
289
     0
340
17
371
    -1
372
    -1
1001
ACAD_DSTYLE_DIMARC_LENGTH_SYMBOL
1070
   379
1070
     1
1001
ACAD_DSTYLE_DIMJOGGED_JOGANGLE_SYMBOL
1070
   384
1040
0.7853981633974483
  0
DIMSTYLE
105
25D
330
9
100
AcDbSymbolTableRecord
100
AcDbDimStyleTableRecord
  2
AM_ISO$4
 70
     0
  4
"
 41
2.5
 42
1.0
 43
10.0
 44
1.0
 47
0.1
 48
0.1
 73
     0
 77
     1
 78
     8
 79
     2
140
3.5
141
0.0
143
0.0393701
146
0.71
147
1.5
176
   256
177
   256
178
     2
271
     2
272
     3
274
     4
283
     0
284
     8
288
     1
289
     0
340
17
371
    -1
372
    -1
1001
ACAD_DSTYLE_DIMARC_LENGTH_SYMBOL
1070
   379
1070
     1
1001
ACAD_DSTYLE_DIMJOGGED_JOGANGLE_SYMBOL
1070
   384
1040
0.7853981633974483
  0
DIMSTYLE
105
260
330
9
100
AcDbSymbolTableRecord
100
AcDbDimStyleTableRecord
  2
AM_ISO$6
 70
     0
  4
"
 41
2.5
 42
1.0
 43
10.0
 44
1.0
 47
0.1
 48
0.1
 73
     0
 74
     0
 78
     8
 79
     2
140
3.5
141
0.0
143
0.0393701
146
0.71
147
1.5
172
     1
176
   256
177
   256
178
     2
271
     2
272
     3
274
     4
283
     0
284
     8
340
17
371
    -1
372
    -1
1001
ACAD_DSTYLE_DIMARC_LENGTH_SYMBOL
1070
   379
1070
     1
1001
ACAD_DSTYLE_DIMJOGGED_JOGANGLE_SYMBOL
1070
   384
1040
0.7853981633974483
  0
DIMSTYLE
105
263
330
9
100
AcDbSymbolTableRecord
100
AcDbDimStyleTableRecord
  2
AM_ISO$7
 70
     0
  4
"
 41
2.5
 42
1.0
 43
10.0
 44
1.0
 47
0.1
 48
0.1
 73
     0
 74
     0
 77
     1
 78
     8
 79
     2
140
5.0
141
0.0
143
0.0393701
146
0.71
147
1.5
172
     1
176
   256
177
   256
178
     2
271
     2
272
     3
274
     4
283
     0
284
     8
340
17
371
    -1
372
    -1
1001
ACAD_DSTYLE_DIMARC_LENGTH_SYMBOL
1070
   379
1070
     1
1001
ACAD_DSTYLE_DIMJOGGED_JOGANGLE_SYMBOL
1070
   384
1040
0.7853981633974483
  0
DIMSTYLE
105
266
330
9
100
AcDbSymbolTableRecord
100
AcDbDimStyleTableRecord
  2
AM_ISO$SF
 70
     0
  4
"
 41
2.5
 42
1.0
 43
10.0
 44
1.0
 47
0.1
 48
0.1
 73
     0
 74
     0
 75
     1
 76
     1
 77
     1
 78
     8
 79
     2
140
3.5
141
0.0
143
0.0393701
146
0.71
147
1.5
172
     1
176
   256
177
   256
178
     2
271
     2
272
     3
274
     4
283
     0
284
     8
340
17
371
    -1
372
    -1
1001
ACAD_DSTYLE_DIMARC_LENGTH_SYMBOL
1070
   379
1070
     1
1001
ACAD_DSTYLE_DIMJOGGED_JOGANGLE_SYMBOL
1070
   384
1040
0.7853981633974483
  0
DIMSTYLE
105
26D
330
9
100
AcDbSymbolTableRecord
100
AcDbDimStyleTableRecord
  2
AM_ISO$SH
 70
     0
  4
"
 41
2.5
 42
1.0
 43
10.0
 44
1.0
 47
0.1
 48
0.1
 73
     0
 74
     0
 75
     1
 76
     1
 77
     1
 78
     8
 79
     2
140
3.5
141
0.0
143
0.0393701
144
2.0
146
0.71
147
1.5
172
     1
173
     1
176
   256
177
   256
178
     2
271
     2
272
     3
274
     4
283
     0
284
     8
340
17
343
267
371
    -1
372
    -1
1001
ACAD_DSTYLE_DIMARC_LENGTH_SYMBOL
1070
   379
1070
     1
1001
ACAD_DSTYLE_DIMJOGGED_JOGANGLE_SYMBOL
1070
   384
1040
0.7853981633974483
  0
ENDTAB
  0
TABLE
  2
BLOCK_RECORD
  5
1
330
0
100
AcDbSymbolTable
 70
     2
  0
BLOCK_RECORD
  5
A
102
{ACAD_XDICTIONARY
360
27E
102
}
330
1
100
AcDbSymbolTableRecord
100
AcDbBlockTableRecord
  2
*MODEL_SPACE
340
158
  0
BLOCK_RECORD
  5
B
330
1
100
AcDbSymbolTableRecord
100
AcDbBlockTableRecord
  2
*PAPER_SPACE
340
159
  0
BLOCK_RECORD
  5
267
330
1
100
AcDbSymbolTableRecord
100
AcDbBlockTableRecord
  2
GENAXEH
340
0
  0
ENDTAB
  0
ENDSEC
  0
SECTION
  2
BLOCKS
  0
BLOCK
  5
D
330
A
100
AcDbEntity
  8
0
100
AcDbBlockBegin
  2
*MODEL_SPACE
 70
     0
 10
0.0
 20
0.0
 30
0.0
  3
*MODEL_SPACE
  1

  0
ENDBLK
  5
E
330
A
100
AcDbEntity
  8
0
100
AcDbBlockEnd
  0
BLOCK
  5
F
330
B
100
AcDbEntity
 67
     1
  8
0
100
AcDbBlockBegin
  2
*PAPER_SPACE
 70
     0
 10
0.0
 20
0.0
 30
0.0
  3
*PAPER_SPACE
  1

  0
ENDBLK
  5
10
330
B
100
AcDbEntity
 67
     1
  8
0
100
AcDbBlockEnd
  0
BLOCK
  5
269
330
267
100
AcDbEntity
  8
0
100
AcDbBlockBegin
  2
GENAXEH
 70
     0
 10
0.0
 20
0.0
 30
0.0
  3
GENAXEH
  1

  0
LINE
  5
268
330
267
100
AcDbEntity
  8
0
100
AcDbLine
 10
-1.0
 20
0.0
 30
0.0
 11
1.0
 21
0.0
 31
0.0
  0
ENDBLK
  5
26A
330
267
100
AcDbEntity
  8
0
100
AcDbBlockEnd
  0
ENDSEC
  0
SECTION
  2
ENTITIES
  0
TEXT
  5
14B
330
A
100
AcDbEntity
  8
1
 62
     1
100
AcDbText
 10
272.11646356043
 20
367.451320173422
 30
0.0
 40
3.6
  1
反り止め金具
 41
0.8
  7
CONVERTER_1
100
AcDbText
  0
ARC
  5
149
330
A
100
AcDbEntity
  8
1
  6
Continuous
 62
     3
100
AcDbCircle
 10
365.549984757835
 20
386.554046739188
 30
0.0
 40
0.5
100
AcDbArc
 50
90.0
 51
180.0
  0
ARC
  5
148
330
A
100
AcDbEntity
  8
1
  6
Continuous
 62
     3
100
AcDbCircle
 10
365.549984757835
 20
367.554046739188
 30
0.0
 40
0.5
100
AcDbArc
 50
180.0
 51
-90.0
  0
ARC
  5
147
330
A
100
AcDbEntity
  8
1
  6
Continuous
 62
     3
100
AcDbCircle
 10
493.549984757836
 20
386.554046739188
 30
0.0
 40
0.5
100
AcDbArc
 50
90.0
 51
180.0
  0
ARC
  5
146
330
A
100
AcDbEntity
  8
1
  6
Continuous
 62
     3
100
AcDbCircle
 10
493.549984757836
 20
367.554046739188
 30
0.0
 40
0.500000000001
100
AcDbArc
 50
180.0
 51
-90.0
  0
ARC
  5
145
330
A
100
AcDbEntity
  8
1
  6
Continuous
 62
     3
100
AcDbCircle
 10
490.549984757835
 20
367.554046739188
 30
0.0
 40
0.5
100
AcDbArc
 50
0.0
 51
90.0
  0
ARC
  5
144
330
A
100
AcDbEntity
  8
1
  6
Continuous
 62
     3
100
AcDbCircle
 10
491.549984757835
 20
366.054046739188
 30
0.0
 40
0.5
100
AcDbArc
 50
180.0
 51
-90.0
  0
ARC
  5
143
330
A
100
AcDbEntity
  8
1
  6
Continuous
 62
     3
100
AcDbCircle
 10
490.549984757835
 20
381.554046739188
 30
0.0
 40
0.5
100
AcDbArc
 50
-90.0
 51
0.0
  0
ARC
  5
142
330
A
100
AcDbEntity
  8
1
  6
Continuous
 62
     3
100
AcDbCircle
 10
491.549984757835
 20
388.054046739188
 30
0.0
 40
0.5
100
AcDbArc
 50
90.0
 51
180.0
  0
ARC
  5
141
330
A
100
AcDbEntity
  8
1
  6
Continuous
 62
     3
100
AcDbCircle
 10
492.049984757835
 20
369.054046739188
 30
0.0
 40
1.0
100
AcDbArc
 50
0.0
 51
90.0
  0
ARC
  5
140
330
A
100
AcDbEntity
  8
1
  6
Continuous
 62
     3
100
AcDbCircle
 10
492.049984757835
 20
380.054046739188
 30
0.0
 40
1.0
100
AcDbArc
 50
-90.0
 51
0.0
  0
ARC
  5
13F
330
A
100
AcDbEntity
  8
1
  6
DOTTED
 62
     1
100
AcDbCircle
 10
276.772720336498
 20
438.72594574162
 30
0.0
 40
1.0
100
AcDbArc
 50
180.0
 51
-90.0
  0
ARC
  5
13E
330
A
100
AcDbEntity
  8
1
  6
DOTTED
 62
     1
100
AcDbCircle
 10
276.772720336498
 20
427.725945741622
 30
0.0
 40
1.0
100
AcDbArc
 50
90.0
 51
180.0
  0
ARC
  5
13D
330
A
100
AcDbEntity
  8
1
  6
Continuous
 62
     3
100
AcDbCircle
 10
277.272720336498
 20
446.72594574162
 30
0.0
 40
0.5
100
AcDbArc
 50
0.0
 51
90.0
  0
ARC
  5
13C
330
A
100
AcDbEntity
  8
1
  6
Continuous
 62
     3
100
AcDbCircle
 10
278.272720336498
 20
440.2259457416199
 30
0.0
 40
0.5
100
AcDbArc
 50
180.0
 51
-90.0
  0
ARC
  5
13B
330
A
100
AcDbEntity
  8
1
  6
Continuous
 62
     3
100
AcDbCircle
 10
277.272720336498
 20
424.725945741622
 30
0.0
 40
0.5
100
AcDbArc
 50
-90.0
 51
0.0
  0
ARC
  5
13A
330
A
100
AcDbEntity
  8
1
  6
Continuous
 62
     3
100
AcDbCircle
 10
278.272720336498
 20
426.2259457416219
 30
0.0
 40
0.5
100
AcDbArc
 50
90.0
 51
180.0
  0
ARC
  5
139
330
A
100
AcDbEntity
  8
1
  6
DOTTED
 62
     1
100
AcDbCircle
 10
275.272720336498
 20
445.22594574162
 30
0.0
 40
0.5
100
AcDbArc
 50
0.0
 51
90.0
  0
ARC
  5
138
330
A
100
AcDbEntity
  8
1
  6
DOTTED
 62
     1
100
AcDbCircle
 10
275.272720336498
 20
426.2259457416219
 30
0.0
 40
0.5
100
AcDbArc
 50
-90.0
 51
0.0
  0
ARC
  5
137
330
A
100
AcDbEntity
  8
1
  6
Continuous
 62
     3
100
AcDbCircle
 10
328.549984757835
 20
444.72594574162
 30
0.0
 40
1.0
100
AcDbArc
 50
90.0
 51
180.0
  0
ARC
  5
136
330
A
100
AcDbEntity
  8
1
  6
Continuous
 62
     3
100
AcDbCircle
 10
328.549984757835
 20
426.725945741622
 30
0.0
 40
1.0
100
AcDbArc
 50
180.0
 51
-90.0
  0
ARC
  5
135
330
A
100
AcDbEntity
  8
1
  6
Continuous
 62
     3
100
AcDbCircle
 10
780.695154980448
 20
440.97594574162
 30
0.0
 40
0.75
100
AcDbArc
 50
90.0
 51
180.0
  0
ARC
  5
134
330
A
100
AcDbEntity
  8
1
  6
Continuous
 62
     3
100
AcDbCircle
 10
792.695154980448
 20
440.97594574162
 30
0.0
 40
0.75
100
AcDbArc
 50
0.0
 51
90.0
  0
ARC
  5
133
330
A
100
AcDbEntity
  8
1
  6
Continuous
 62
     3
100
AcDbCircle
 10
792.695154980448
 20
433.9759457416199
 30
0.0
 40
0.75
100
AcDbArc
 50
-90.0
 51
0.0
  0
ARC
  5
132
330
A
100
AcDbEntity
  8
1
  6
Continuous
 62
     3
100
AcDbCircle
 10
792.695154980448
 20
433.9759457416199
 30
0.0
 40
0.75
100
AcDbArc
 50
180.0
 51
-90.0
  0
ARC
  5
131
330
A
100
AcDbEntity
  8
1
  6
Continuous
 62
     3
100
AcDbCircle
 10
780.695154980448
 20
433.9759457416199
 30
0.0
 40
0.75
100
AcDbArc
 50
-90.0
 51
0.0
  0
ARC
  5
130
330
A
100
AcDbEntity
  8
1
  6
Continuous
 62
     3
100
AcDbCircle
 10
780.695154980448
 20
433.9759457416199
 30
0.0
 40
0.75
100
AcDbArc
 50
180.0
 51
-90.0
  0
ARC
  5
12F
330
A
100
AcDbEntity
  8
1
  6
Continuous
 62
     3
100
AcDbCircle
 10
798.195154980448
 20
427.725945741622
 30
0.0
 40
1.0
100
AcDbArc
 50
-90.0
 51
0.0
  0
ARC
  5
12E
330
A
100
AcDbEntity
  8
1
  6
Continuous
 62
     3
100
AcDbCircle
 10
775.195154980448
 20
427.725945741622
 30
0.0
 40
1.0
100
AcDbArc
 50
180.0
 51
-90.0
  0
ARC
  5
12D
330
A
100
AcDbEntity
  8
1
  6
Continuous
 62
     3
100
AcDbCircle
 10
775.195154980448
 20
438.72594574162
 30
0.0
 40
1.0
100
AcDbArc
 50
90.0
 51
180.0
  0
ARC
  5
12C
330
A
100
AcDbEntity
  8
1
  6
Continuous
 62
     3
100
AcDbCircle
 10
798.195154980448
 20
438.72594574162
 30
0.0
 40
1.0
100
AcDbArc
 50
0.0
 51
90.0
  0
ARC
  5
12B
330
A
100
AcDbEntity
  8
1
  6
Continuous
 62
     3
100
AcDbCircle
 10
798.195154980448
 20
446.22594574162
 30
0.0
 40
1.0
100
AcDbArc
 50
0.0
 51
90.0
  0
ARC
  5
12A
330
A
100
AcDbEntity
  8
1
  6
Continuous
 62
     3
100
AcDbCircle
 10
775.195154980448
 20
446.22594574162
 30
0.0
 40
1.0
100
AcDbArc
 50
90.0
 51
180.0
  0
ARC
  5
129
330
A
100
AcDbEntity
  8
1
  6
Continuous
 62
     3
100
AcDbCircle
 10
775.195154980448
 20
425.225945741622
 30
0.0
 40
1.0
100
AcDbArc
 50
180.0
 51
-90.0
  0
ARC
  5
128
330
A
100
AcDbEntity
  8
1
  6
Continuous
 62
     3
100
AcDbCircle
 10
798.195154980448
 20
425.225945741622
 30
0.0
 40
1.0
100
AcDbArc
 50
-90.0
 51
0.0
  0
ARC
  5
127
330
A
100
AcDbEntity
  8
1
  6
Continuous
 62
     3
100
AcDbCircle
 10
946.695154980448
 20
426.725945741622
 30
0.0
 40
1.0
100
AcDbArc
 50
-90.0
 51
0.0
  0
ARC
  5
126
330
A
100
AcDbEntity
  8
1
  6
Continuous
 62
     3
100
AcDbCircle
 10
946.695154980448
 20
444.72594574162
 30
0.0
 40
1.0
100
AcDbArc
 50
0.0
 51
90.0
  0
ARC
  5
125
330
A
100
AcDbEntity
  8
1
  6
Continuous
 62
     3
100
AcDbCircle
 10
500.049984757835
 20
425.225945741622
 30
0.0
 40
1.0
100
AcDbArc
 50
-90.0
 51
0.0
  0
ARC
  5
124
330
A
100
AcDbEntity
  8
1
  6
Continuous
 62
     3
100
AcDbCircle
 10
477.049984757835
 20
425.225945741622
 30
0.0
 40
1.0
100
AcDbArc
 50
180.0
 51
-90.0
  0
ARC
  5
123
330
A
100
AcDbEntity
  8
1
  6
Continuous
 62
     3
100
AcDbCircle
 10
477.049984757835
 20
446.22594574162
 30
0.0
 40
1.0
100
AcDbArc
 50
90.0
 51
180.0
  0
ARC
  5
122
330
A
100
AcDbEntity
  8
1
  6
Continuous
 62
     3
100
AcDbCircle
 10
500.049984757835
 20
446.22594574162
 30
0.0
 40
1.0
100
AcDbArc
 50
0.0
 51
90.0
  0
ARC
  5
121
330
A
100
AcDbEntity
  8
1
  6
Continuous
 62
     3
100
AcDbCircle
 10
500.049984757835
 20
438.72594574162
 30
0.0
 40
1.0
100
AcDbArc
 50
0.0
 51
90.0
  0
ARC
  5
120
330
A
100
AcDbEntity
  8
1
  6
Continuous
 62
     3
100
AcDbCircle
 10
477.049984757835
 20
438.72594574162
 30
0.0
 40
1.0
100
AcDbArc
 50
90.0
 51
180.0
  0
ARC
  5
11F
330
A
100
AcDbEntity
  8
1
  6
Continuous
 62
     3
100
AcDbCircle
 10
477.049984757835
 20
427.725945741622
 30
0.0
 40
1.0
100
AcDbArc
 50
180.0
 51
-90.0
  0
ARC
  5
11E
330
A
100
AcDbEntity
  8
1
  6
Continuous
 62
     3
100
AcDbCircle
 10
500.049984757835
 20
427.725945741622
 30
0.0
 40
1.0
100
AcDbArc
 50
-90.0
 51
0.0
  0
ARC
  5
11D
330
A
100
AcDbEntity
  8
1
  6
Continuous
 62
     3
100
AcDbCircle
 10
482.549984757835
 20
433.9759457416199
 30
0.0
 40
0.75
100
AcDbArc
 50
180.0
 51
-90.0
  0
ARC
  5
11C
330
A
100
AcDbEntity
  8
1
  6
Continuous
 62
     3
100
AcDbCircle
 10
482.549984757835
 20
433.9759457416199
 30
0.0
 40
0.75
100
AcDbArc
 50
-90.0
 51
0.0
  0
ARC
  5
11B
330
A
100
AcDbEntity
  8
1
  6
Continuous
 62
     3
100
AcDbCircle
 10
494.549984757835
 20
433.9759457416199
 30
0.0
 40
0.75
100
AcDbArc
 50
180.0
 51
-90.0
  0
ARC
  5
11A
330
A
100
AcDbEntity
  8
1
  6
Continuous
 62
     3
100
AcDbCircle
 10
494.549984757835
 20
433.9759457416199
 30
0.0
 40
0.75
100
AcDbArc
 50
-90.0
 51
0.0
  0
ARC
  5
119
330
A
100
AcDbEntity
  8
1
  6
Continuous
 62
     3
100
AcDbCircle
 10
494.549984757835
 20
440.97594574162
 30
0.0
 40
0.75
100
AcDbArc
 50
0.0
 51
90.0
  0
ARC
  5
118
330
A
100
AcDbEntity
  8
1
  6
Continuous
 62
     3
100
AcDbCircle
 10
482.549984757835
 20
440.97594574162
 30
0.0
 40
0.75
100
AcDbArc
 50
90.0
 51
180.0
  0
CIRCLE
  5
117
330
A
100
AcDbEntity
  8
1
  6
Continuous
 62
     3
100
AcDbCircle
 10
360.5499847578351
 20
374.554046739188
 30
0.0
 40
2.5
  0
CIRCLE
  5
116
330
A
100
AcDbEntity
  8
1
  6
Continuous
 62
     3
100
AcDbCircle
 10
360.5499847578351
 20
441.72594574162
 30
0.0
 40
1.85
  0
CIRCLE
  5
115
330
A
100
AcDbEntity
  8
1
  6
Continuous
 62
     3
100
AcDbCircle
 10
450.549984757835
 20
441.72594574162
 30
0.0
 40
1.85
  0
CIRCLE
  5
114
330
A
100
AcDbEntity
  8
1
  6
Continuous
 62
     3
100
AcDbCircle
 10
526.5499847578349
 20
441.72594574162
 30
0.0
 40
1.85
  0
CIRCLE
  5
113
330
A
100
AcDbEntity
  8
1
  6
Continuous
 62
     3
100
AcDbCircle
 10
584.315024416701
 20
441.72594574162
 30
0.0
 40
1.85
  0
CIRCLE
  5
112
330
A
100
AcDbEntity
  8
1
  6
Continuous
 62
     3
100
AcDbCircle
 10
690.9301153215819
 20
441.72594574162
 30
0.0
 40
1.85
  0
CIRCLE
  5
111
330
A
100
AcDbEntity
  8
1
  6
Continuous
 62
     3
100
AcDbCircle
 10
748.695154980448
 20
441.72594574162
 30
0.0
 40
1.85
  0
CIRCLE
  5
110
330
A
100
AcDbEntity
  8
1
  6
Continuous
 62
     3
100
AcDbCircle
 10
824.695154980448
 20
441.72594574162
 30
0.0
 40
1.85
  0
CIRCLE
  5
10F
330
A
100
AcDbEntity
  8
1
  6
Continuous
 62
     3
100
AcDbCircle
 10
914.695154980448
 20
441.72594574162
 30
0.0
 40
1.85
  0
ARC
  5
10E
330
A
100
AcDbEntity
  8
1
  6
Continuous
 62
     3
100
AcDbCircle
 10
360.5499847578351
 20
374.554046739188
 30
0.0
 40
4.5
100
AcDbArc
 50
90.0
 51
-90.0
  0
ARC
  5
10D
330
A
100
AcDbEntity
  8
1
  6
Continuous
 62
     3
100
AcDbCircle
 10
360.5499847578351
 20
374.554046739188
 30
0.0
 40
4.500000000001
100
AcDbArc
 50
-41.810314895771
 51
41.810314895771
  0
ARC
  5
10C
330
A
100
AcDbEntity
  8
1
  6
Continuous
 62
     3
100
AcDbCircle
 10
488.549984757835
 20
374.554046739188
 30
0.0
 40
4.5
100
AcDbArc
 50
90.0
 51
117.266044450725
  0
ARC
  5
10B
330
A
100
AcDbEntity
  8
1
  6
Continuous
 62
     3
100
AcDbCircle
 10
488.549984757835
 20
374.554046739188
 30
0.0
 40
4.500000000001
100
AcDbArc
 50
-41.81031489576899
 51
-2.733955549257
  0
ARC
  5
10A
330
A
100
AcDbEntity
  8
1
  6
Continuous
 62
     3
100
AcDbCircle
 10
488.549984757835
 20
374.554046739188
 30
0.0
 40
6.5
100
AcDbArc
 50
90.0
 51
-90.0
  0
ARC
  5
109
330
A
100
AcDbEntity
  8
1
  6
Continuous
 62
     3
100
AcDbCircle
 10
488.549984757835
 20
374.554046739188
 30
0.0
 40
4.5
100
AcDbArc
 50
-117.266044450725
 51
-90.0
  0
ARC
  5
108
330
A
100
AcDbEntity
  8
1
  6
Continuous
 62
     3
100
AcDbCircle
 10
488.549984757835
 20
374.554046739188
 30
0.0
 40
4.5
100
AcDbArc
 50
-177.266044450728
 51
-122.733955549258
  0
ARC
  5
107
330
A
100
AcDbEntity
  8
1
  6
Continuous
 62
     3
100
AcDbCircle
 10
488.549984757835
 20
374.554046739188
 30
0.0
 40
4.499999999998999
100
AcDbArc
 50
122.733955549259
 51
177.266044450726
  0
ARC
  5
106
330
A
100
AcDbEntity
  8
1
  6
Continuous
 62
     3
100
AcDbCircle
 10
488.549984757835
 20
374.554046739188
 30
0.0
 40
4.500000000001
100
AcDbArc
 50
2.733955549254999
 51
41.81031489576899
  0
ARC
  5
105
330
A
100
AcDbEntity
  8
1
  6
Continuous
 62
     3
100
AcDbCircle
 10
280.272720336498
 20
433.22594574162
 30
0.0
 40
6.499999999997999
100
AcDbArc
 50
-90.0
 51
90.0
  0
ARC
  5
104
330
A
100
AcDbEntity
  8
1
  6
DOTTED
 62
     1
100
AcDbCircle
 10
280.272720336498
 20
433.22594574162
 30
0.0
 40
4.499999999997999
100
AcDbArc
 50
-90.0
 51
90.0
  0
LINE
  5
103
330
A
100
AcDbEntity
  8
1
  6
Continuous
 62
     3
100
AcDbLine
 10
365.049984757835
 20
379.054046739188
 30
0.0
 11
360.5499847578351
 21
379.054046739188
 31
0.0
  0
LINE
  5
102
330
A
100
AcDbEntity
  8
1
  6
Continuous
 62
     3
100
AcDbLine
 10
365.049984757835
 20
382.804046739188
 30
0.0
 11
365.049984757835
 21
381.204046739188
 31
0.0
  0
LINE
  5
101
330
A
100
AcDbEntity
  8
1
  6
Continuous
 62
     3
100
AcDbLine
 10
367.0499847578351
 20
387.054046739188
 30
0.0
 11
365.549984757835
 21
387.054046739188
 31
0.0
  0
LINE
  5
100
330
A
100
AcDbEntity
  8
1
  6
Continuous
 62
     3
100
AcDbLine
 10
367.0499847578351
 20
377.554046739188
 30
0.0
 11
367.0499847578351
 21
381.204046739188
 31
0.0
  0
LINE
  5
FF
330
A
100
AcDbEntity
  8
1
  6
Continuous
 62
     3
100
AcDbLine
 10
363.904086724086
 20
377.554046739188
 30
0.0
 11
367.0499847578351
 21
377.554046739188
 31
0.0
  0
LINE
  5
FE
330
A
100
AcDbEntity
  8
1
  6
Continuous
 62
     3
100
AcDbLine
 10
367.0499847578351
 20
371.554046739188
 30
0.0
 11
363.904086724086
 21
371.554046739188
 31
0.0
  0
LINE
  5
FD
330
A
100
AcDbEntity
  8
1
  6
Continuous
 62
     3
100
AcDbLine
 10
367.0499847578351
 20
367.054046739188
 30
0.0
 11
367.0499847578351
 21
371.554046739188
 31
0.0
  0
LINE
  5
FC
330
A
100
AcDbEntity
  8
1
  6
Continuous
 62
     3
100
AcDbLine
 10
365.549984757835
 20
367.054046739188
 30
0.0
 11
367.0499847578351
 21
367.054046739188
 31
0.0
  0
LINE
  5
FB
330
A
100
AcDbEntity
  8
1
  6
Continuous
 62
     3
100
AcDbLine
 10
365.049984757835
 20
370.054046739188
 30
0.0
 11
365.049984757835
 21
367.554046739188
 31
0.0
  0
LINE
  5
FA
330
A
100
AcDbEntity
  8
1
  6
Continuous
 62
     3
100
AcDbLine
 10
360.5499847578351
 20
370.054046739188
 30
0.0
 11
365.049984757835
 21
370.054046739188
 31
0.0
  0
LINE
  5
F9
330
A
100
AcDbEntity
  8
1
  6
DOT_CENTER
 62
     1
100
AcDbLine
 10
371.613707679614
 20
374.554046739188
 30
0.0
 11
351.323707679614
 21
374.554046739188
 31
0.0
  0
LINE
  5
F8
330
A
100
AcDbEntity
  8
1
  6
Continuous
 62
     3
100
AcDbLine
 10
365.299984757835
 20
383.054046739188
 30
0.0
 11
365.049984757835
 21
383.304046739188
 31
0.0
  0
LINE
  5
F7
330
A
100
AcDbEntity
  8
1
  6
Continuous
 62
     3
100
AcDbLine
 10
365.049984757835
 20
386.554046739188
 30
0.0
 11
365.049984757835
 21
384.904046739188
 31
0.0
  0
LINE
  5
F6
330
A
100
AcDbEntity
  8
1
  6
Continuous
 62
     3
100
AcDbLine
 10
365.299984757835
 20
383.054046739188
 30
0.0
 11
365.049984757835
 21
382.804046739188
 31
0.0
  0
LINE
  5
F5
330
A
100
AcDbEntity
  8
1
  6
DOT_CENTER
 62
     1
100
AcDbLine
 10
368.4328377301349
 20
383.054046739188
 30
0.0
 11
362.842165629126
 21
383.054046739188
 31
0.0
  0
LINE
  5
F4
330
A
100
AcDbEntity
  8
1
  6
Continuous
 62
     3
100
AcDbLine
 10
493.049984757835
 20
367.554046739188
 30
0.0
 11
493.049984757835
 21
367.054046739188
 31
0.0
  0
LINE
  5
F3
330
A
100
AcDbEntity
  8
1
  6
Continuous
 62
     3
100
AcDbLine
 10
493.549984757836
 20
387.054046739188
 30
0.0
 11
493.049984757835
 21
387.054046739188
 31
0.0
  0
LINE
  5
F2
330
A
100
AcDbEntity
  8
1
  6
Continuous
 62
     3
100
AcDbLine
 10
493.049984757835
 20
379.054046739188
 30
0.0
 11
488.549984757835
 21
379.054046739188
 31
0.0
  0
LINE
  5
F1
330
A
100
AcDbEntity
  8
1
  6
Continuous
 62
     3
100
AcDbLine
 10
493.049984757835
 20
382.804046739188
 30
0.0
 11
493.049984757835
 21
379.054046739188
 31
0.0
  0
LINE
  5
F0
330
A
100
AcDbEntity
  8
1
  6
Continuous
 62
     3
100
AcDbLine
 10
495.049984757836
 20
387.054046739188
 30
0.0
 11
493.549984757836
 21
387.054046739188
 31
0.0
  0
LINE
  5
EF
330
A
100
AcDbEntity
  8
1
  6
Continuous
 62
     3
100
AcDbLine
 10
495.049984757836
 20
377.554046739188
 30
0.0
 11
495.049984757836
 21
387.054046739188
 31
0.0
  0
LINE
  5
EE
330
A
100
AcDbEntity
  8
1
  6
Continuous
 62
     3
100
AcDbLine
 10
491.9040867240859
 20
377.554046739188
 30
0.0
 11
495.049984757836
 21
377.554046739188
 31
0.0
  0
LINE
  5
ED
330
A
100
AcDbEntity
  8
1
  6
Continuous
 62
     3
100
AcDbLine
 10
495.049984757836
 20
371.554046739188
 30
0.0
 11
491.9040867240859
 21
371.554046739188
 31
0.0
  0
LINE
  5
EC
330
A
100
AcDbEntity
  8
1
  6
Continuous
 62
     3
100
AcDbLine
 10
495.049984757836
 20
367.054046739188
 30
0.0
 11
495.049984757836
 21
371.554046739188
 31
0.0
  0
LINE
  5
EB
330
A
100
AcDbEntity
  8
1
  6
Continuous
 62
     3
100
AcDbLine
 10
493.549984757836
 20
367.054046739188
 30
0.0
 11
495.049984757836
 21
367.054046739188
 31
0.0
  0
LINE
  5
EA
330
A
100
AcDbEntity
  8
1
  6
Continuous
 62
     3
100
AcDbLine
 10
493.049984757835
 20
370.054046739188
 30
0.0
 11
493.049984757835
 21
367.554046739188
 31
0.0
  0
LINE
  5
E9
330
A
100
AcDbEntity
  8
1
  6
Continuous
 62
     3
100
AcDbLine
 10
488.549984757835
 20
370.054046739188
 30
0.0
 11
493.049984757835
 21
370.054046739188
 31
0.0
  0
LINE
  5
E8
330
A
100
AcDbEntity
  8
1
  6
DOT_CENTER
 62
     1
100
AcDbLine
 10
500.3284629189959
 20
374.554046739188
 30
0.0
 11
478.4784629189959
 21
374.554046739188
 31
0.0
  0
LINE
  5
E7
330
A
100
AcDbEntity
  8
1
  6
Continuous
 62
     3
100
AcDbLine
 10
493.299984757836
 20
383.054046739188
 30
0.0
 11
493.049984757835
 21
383.304046739188
 31
0.0
  0
LINE
  5
E6
330
A
100
AcDbEntity
  8
1
  6
Continuous
 62
     3
100
AcDbLine
 10
493.049984757835
 20
386.554046739188
 30
0.0
 11
493.049984757835
 21
383.304046739188
 31
0.0
  0
LINE
  5
E5
330
A
100
AcDbEntity
  8
1
  6
Continuous
 62
     3
100
AcDbLine
 10
493.299984757836
 20
383.054046739188
 30
0.0
 11
493.049984757835
 21
382.804046739188
 31
0.0
  0
LINE
  5
E4
330
A
100
AcDbEntity
  8
1
  6
Continuous
 62
     3
100
AcDbLine
 10
490.549984757835
 20
381.054046739188
 30
0.0
 11
488.549984757835
 21
381.054046739188
 31
0.0
  0
LINE
  5
E3
330
A
100
AcDbEntity
  8
1
  6
Continuous
 62
     3
100
AcDbLine
 10
491.049984757835
 20
388.054046739188
 30
0.0
 11
491.049984757835
 21
381.554046739188
 31
0.0
  0
LINE
  5
E2
330
A
100
AcDbEntity
  8
1
  6
Continuous
 62
     3
100
AcDbLine
 10
495.049984757836
 20
388.554046739188
 30
0.0
 11
491.549984757835
 21
388.554046739188
 31
0.0
  0
LINE
  5
E1
330
A
100
AcDbEntity
  8
1
  6
Continuous
 62
     3
100
AcDbLine
 10
495.049984757836
 20
387.054046739188
 30
0.0
 11
495.049984757836
 21
388.554046739188
 31
0.0
  0
LINE
  5
E0
330
A
100
AcDbEntity
  8
1
  6
Continuous
 62
     3
100
AcDbLine
 10
490.549984757835
 20
368.054046739188
 30
0.0
 11
488.549984757835
 21
368.054046739188
 31
0.0
  0
LINE
  5
DF
330
A
100
AcDbEntity
  8
1
  6
Continuous
 62
     3
100
AcDbLine
 10
491.049984757835
 20
366.054046739188
 30
0.0
 11
491.049984757835
 21
367.554046739188
 31
0.0
  0
LINE
  5
DE
330
A
100
AcDbEntity
  8
1
  6
Continuous
 62
     3
100
AcDbLine
 10
495.049984757836
 20
365.554046739188
 30
0.0
 11
491.549984757835
 21
365.554046739188
 31
0.0
  0
LINE
  5
DD
330
A
100
AcDbEntity
  8
1
  6
Continuous
 62
     3
100
AcDbLine
 10
495.049984757836
 20
367.054046739188
 30
0.0
 11
495.049984757836
 21
365.554046739188
 31
0.0
  0
LINE
  5
DC
330
A
100
AcDbEntity
  8
1
  6
Continuous
 62
     3
100
AcDbLine
 10
493.049984757835
 20
367.054046739188
 30
0.0
 11
493.549984757836
 21
367.054046739188
 31
0.0
  0
LINE
  5
DB
330
A
100
AcDbEntity
  8
1
  6
Continuous
 62
     3
100
AcDbLine
 10
493.049984757835
 20
387.054046739188
 30
0.0
 11
493.049984757835
 21
386.554046739188
 31
0.0
  0
LINE
  5
DA
330
A
100
AcDbEntity
  8
1
  6
Continuous
 62
     3
100
AcDbLine
 10
493.049984757835
 20
382.804046739188
 30
0.0
 11
493.049984757835
 21
383.304046739188
 31
0.0
  0
LINE
  5
D9
330
A
100
AcDbEntity
  8
1
  6
Continuous
 62
     3
100
AcDbLine
 10
493.1687869113529
 20
374.554046739188
 30
0.0
 11
490.859385834593
 21
378.554046739188
 31
0.0
  0
LINE
  5
D8
330
A
100
AcDbEntity
  8
1
  6
Continuous
 62
     3
100
AcDbLine
 10
486.240583681078
 20
370.554046739188
 30
0.0
 11
490.859385834593
 21
370.554046739188
 31
0.0
  0
LINE
  5
D7
330
A
100
AcDbEntity
  8
1
  6
Continuous
 62
     3
100
AcDbLine
 10
483.931182604319
 20
374.554046739188
 30
0.0
 11
486.240583681078
 21
370.554046739188
 31
0.0
  0
LINE
  5
D6
330
A
100
AcDbEntity
  8
1
  6
Continuous
 62
     3
100
AcDbLine
 10
486.240583681078
 20
378.554046739188
 30
0.0
 11
483.931182604319
 21
374.554046739188
 31
0.0
  0
LINE
  5
D5
330
A
100
AcDbEntity
  8
1
  6
Continuous
 62
     3
100
AcDbLine
 10
490.859385834593
 20
378.554046739188
 30
0.0
 11
486.240583681078
 21
378.554046739188
 31
0.0
  0
LINE
  5
D4
330
A
100
AcDbEntity
  8
1
  6
Continuous
 62
     3
100
AcDbLine
 10
490.859385834593
 20
370.554046739188
 30
0.0
 11
493.1687869113529
 21
374.554046739188
 31
0.0
  0
LINE
  5
D3
330
A
100
AcDbEntity
  8
1
  6
DOT_CENTER
 62
     1
100
AcDbLine
 10
280.272720336498
 20
442.1245257376339
 30
0.0
 11
280.272720336498
 21
424.225945741622
 31
0.0
  0
LINE
  5
D2
330
A
100
AcDbEntity
  8
1
  6
DOT_CENTER
 62
     1
100
AcDbLine
 10
290.153855506877
 20
433.22594574162
 30
0.0
 11
270.121136695797
 21
433.22594574162
 31
0.0
  0
LINE
  5
D1
330
A
100
AcDbEntity
  8
1
  6
DOTTED
 62
     1
100
AcDbLine
 10
275.272720336498
 20
445.72594574162
 30
0.0
 11
273.7727203364979
 21
445.72594574162
 31
0.0
  0
LINE
  5
D0
330
A
100
AcDbEntity
  8
1
  6
DOTTED
 62
     1
100
AcDbLine
 10
275.772720336498
 20
438.72594574162
 30
0.0
 11
275.772720336498
 21
445.22594574162
 31
0.0
  0
LINE
  5
CF
330
A
100
AcDbEntity
  8
1
  6
DOTTED
 62
     1
100
AcDbLine
 10
276.772720336498
 20
437.72594574162
 30
0.0
 11
275.772720336498
 21
437.72594574162
 31
0.0
  0
LINE
  5
CE
330
A
100
AcDbEntity
  8
1
  6
DOTTED
 62
     1
100
AcDbLine
 10
275.772720336498
 20
426.2259457416219
 30
0.0
 11
275.772720336498
 21
427.725945741622
 31
0.0
  0
LINE
  5
CD
330
A
100
AcDbEntity
  8
1
  6
DOTTED
 62
     1
100
AcDbLine
 10
275.772720336498
 20
427.725945741622
 30
0.0
 11
275.772720336498
 21
428.725945741622
 31
0.0
  0
LINE
  5
CC
330
A
100
AcDbEntity
  8
1
  6
DOTTED
 62
     1
100
AcDbLine
 10
276.772720336498
 20
428.725945741622
 30
0.0
 11
280.272720336498
 21
428.725945741622
 31
0.0
  0
LINE
  5
CB
330
A
100
AcDbEntity
  8
1
  6
Continuous
 62
     3
100
AcDbLine
 10
273.7727203364979
 20
424.225945741622
 30
0.0
 11
273.7727203364979
 21
447.22594574162
 31
0.0
  0
LINE
  5
CA
330
A
100
AcDbEntity
  8
1
  6
Continuous
 62
     3
100
AcDbLine
 10
277.272720336498
 20
424.225945741622
 30
0.0
 11
273.7727203364979
 21
424.225945741622
 31
0.0
  0
LINE
  5
C9
330
A
100
AcDbEntity
  8
1
  6
Continuous
 62
     3
100
AcDbLine
 10
277.772720336498
 20
426.2259457416219
 30
0.0
 11
277.772720336498
 21
424.725945741622
 31
0.0
  0
LINE
  5
C8
330
A
100
AcDbEntity
  8
1
  6
Continuous
 62
     3
100
AcDbLine
 10
280.272720336498
 20
426.725945741622
 30
0.0
 11
278.272720336498
 21
426.725945741622
 31
0.0
  0
LINE
  5
C7
330
A
100
AcDbEntity
  8
1
  6
Continuous
 62
     3
100
AcDbLine
 10
277.272720336498
 20
447.22594574162
 30
0.0
 11
273.7727203364979
 21
447.22594574162
 31
0.0
  0
LINE
  5
C6
330
A
100
AcDbEntity
  8
1
  6
Continuous
 62
     3
100
AcDbLine
 10
277.772720336498
 20
440.2259457416199
 30
0.0
 11
277.772720336498
 21
446.72594574162
 31
0.0
  0
LINE
  5
C5
330
A
100
AcDbEntity
  8
1
  6
Continuous
 62
     3
100
AcDbLine
 10
280.272720336498
 20
439.72594574162
 30
0.0
 11
278.272720336498
 21
439.72594574162
 31
0.0
  0
LINE
  5
C4
330
A
100
AcDbEntity
  8
1
  6
DOTTED
 62
     1
100
AcDbLine
 10
280.272720336498
 20
437.72594574162
 30
0.0
 11
276.772720336498
 21
437.72594574162
 31
0.0
  0
LINE
  5
C3
330
A
100
AcDbEntity
  8
1
  6
DOTTED
 62
     1
100
AcDbLine
 10
275.772720336498
 20
437.72594574162
 30
0.0
 11
275.772720336498
 21
438.72594574162
 31
0.0
  0
LINE
  5
C2
330
A
100
AcDbEntity
  8
1
  6
DOTTED
 62
     1
100
AcDbLine
 10
273.7727203364979
 20
425.7259457416219
 30
0.0
 11
275.272720336498
 21
425.7259457416219
 31
0.0
  0
LINE
  5
C1
330
A
100
AcDbEntity
  8
1
  6
DOTTED
 62
     1
100
AcDbLine
 10
275.772720336498
 20
428.725945741622
 30
0.0
 11
276.772720336498
 21
428.725945741622
 31
0.0
  0
LINE
  5
C0
330
A
100
AcDbEntity
  8
1
  6
Continuous
 62
     3
100
AcDbLine
 10
330.549984757835
 20
445.72594574162
 30
0.0
 11
476.049984757835
 21
445.72594574162
 31
0.0
  0
LINE
  5
BF
330
A
100
AcDbEntity
  8
1
  6
Continuous
 62
     3
100
AcDbLine
 10
476.049984757835
 20
425.7259457416219
 30
0.0
 11
330.549984757835
 21
425.7259457416219
 31
0.0
  0
LINE
  5
BE
330
A
100
AcDbEntity
  8
1
  6
Continuous
 62
     3
100
AcDbLine
 10
330.549984757835
 20
425.7259457416219
 30
0.0
 11
330.549984757835
 21
445.72594574162
 31
0.0
  0
LINE
  5
BD
330
A
100
AcDbEntity
  8
1
  6
Continuous
 62
     3
100
AcDbLine
 10
330.549984757835
 20
445.72594574162
 30
0.0
 11
328.549984757835
 21
445.72594574162
 31
0.0
  0
LINE
  5
BC
330
A
100
AcDbEntity
  8
1
  6
Continuous
 62
     3
100
AcDbLine
 10
327.549984757835
 20
444.72594574162
 30
0.0
 11
327.549984757835
 21
426.725945741622
 31
0.0
  0
LINE
  5
BB
330
A
100
AcDbEntity
  8
1
  6
Continuous
 62
     3
100
AcDbLine
 10
328.549984757835
 20
425.7259457416219
 30
0.0
 11
330.549984757835
 21
425.7259457416219
 31
0.0
  0
LINE
  5
BA
330
A
100
AcDbEntity
  8
1
  6
Continuous
 62
     3
100
AcDbLine
 10
476.049984757835
 20
428.725945741622
 30
0.0
 11
330.549984757835
 21
428.725945741622
 31
0.0
  0
LINE
  5
B9
330
A
100
AcDbEntity
  8
1
  6
Continuous
 62
     3
100
AcDbLine
 10
476.049984757835
 20
437.72594574162
 30
0.0
 11
330.549984757835
 21
437.72594574162
 31
0.0
  0
LINE
  5
B8
330
A
100
AcDbEntity
  8
1
  6
DOT_CENTER
 62
     1
100
AcDbLine
 10
350.636187938758
 20
441.72594574162
 30
0.0
 11
370.5588589712001
 21
441.72594574162
 31
0.0
  0
LINE
  5
B7
330
A
100
AcDbEntity
  8
1
  6
DOT_CENTER
 62
     1
100
AcDbLine
 10
360.5499847578351
 20
453.95904916266
 30
0.0
 11
360.5499847578351
 21
359.984721443724
 31
0.0
  0
LINE
  5
B6
330
A
100
AcDbEntity
  8
1
  6
DOT_CENTER
 62
     1
100
AcDbLine
 10
450.549984757835
 20
451.4621841720189
 30
0.0
 11
450.549984757835
 21
431.7685093583399
 31
0.0
  0
LINE
  5
B5
330
A
100
AcDbEntity
  8
1
  6
DOT_CENTER
 62
     1
100
AcDbLine
 10
440.636187938758
 20
441.72594574162
 30
0.0
 11
460.5588589712
 21
441.72594574162
 31
0.0
  0
LINE
  5
B4
330
A
100
AcDbEntity
  8
1
  6
DOT_CENTER
 62
     1
100
AcDbLine
 10
516.54111054447
 20
441.72594574162
 30
0.0
 11
536.4637815769119
 21
441.72594574162
 31
0.0
  0
LINE
  5
B3
330
A
100
AcDbEntity
  8
1
  6
DOT_CENTER
 62
     1
100
AcDbLine
 10
526.5499847578349
 20
431.7685093583399
 30
0.0
 11
526.5499847578349
 21
451.4621841720189
 31
0.0
  0
LINE
  5
B2
330
A
100
AcDbEntity
  8
1
  6
DOT_CENTER
 62
     1
100
AcDbLine
 10
584.315024416701
 20
431.7685093583399
 30
0.0
 11
584.315024416701
 21
451.4621841720189
 31
0.0
  0
LINE
  5
B1
330
A
100
AcDbEntity
  8
1
  6
DOT_CENTER
 62
     1
100
AcDbLine
 10
574.306150203336
 20
441.72594574162
 30
0.0
 11
594.2288212357779
 21
441.72594574162
 31
0.0
  0
LINE
  5
B0
330
A
100
AcDbEntity
  8
1
  6
Continuous
 62
     3
100
AcDbLine
 10
662.276342595362
 20
437.72594574162
 30
0.0
 11
612.9687971429209
 21
437.72594574162
 31
0.0
  0
LINE
  5
AF
330
A
100
AcDbEntity
  8
1
  6
Continuous
 62
     3
100
AcDbLine
 10
662.276342595362
 20
428.725945741622
 30
0.0
 11
612.9687971429209
 21
428.725945741622
 31
0.0
  0
LINE
  5
AE
330
A
100
AcDbEntity
  8
1
  6
Continuous
 62
     3
100
AcDbLine
 10
662.276342595362
 20
425.7259457416219
 30
0.0
 11
612.9687971429209
 21
425.7259457416219
 31
0.0
  0
LINE
  5
AD
330
A
100
AcDbEntity
  8
1
  6
Continuous
 62
     3
100
AcDbLine
 10
501.049984757835
 20
445.72594574162
 30
0.0
 11
553.4325045872679
 21
445.72594574162
 31
0.0
  0
LINE
  5
AC
330
A
100
AcDbEntity
  8
1
  6
DOT_CENTER
 62
     1
100
AcDbLine
 10
320.692247421197
 20
433.22594574162
 30
0.0
 11
956.2247992168229
 21
433.22594574162
 31
0.0
  0
LINE
  5
AB
330
A
100
AcDbEntity
  8
1
  6
DOT_CENTER
 62
     1
100
AcDbLine
 10
637.622569869141
 20
457.666593903743
 30
0.0
 11
637.622569869141
 21
412.806593903744
 31
0.0
  0
LINE
  5
AA
330
A
100
AcDbEntity
  8
1
  6
Continuous
 62
     3
100
AcDbLine
 10
553.4325045872679
 20
425.7259457416219
 30
0.0
 11
501.049984757835
 21
425.7259457416219
 31
0.0
  0
LINE
  5
A9
330
A
100
AcDbEntity
  8
1
  6
Continuous
 62
     3
100
AcDbLine
 10
553.4325045872679
 20
428.725945741622
 30
0.0
 11
501.049984757835
 21
428.725945741622
 31
0.0
  0
LINE
  5
A8
330
A
100
AcDbEntity
  8
1
  6
Continuous
 62
     3
100
AcDbLine
 10
553.4325045872679
 20
437.72594574162
 30
0.0
 11
501.049984757835
 21
437.72594574162
 31
0.0
  0
LINE
  5
A7
330
A
100
AcDbEntity
  8
1
  6
Continuous
 62
     3
100
AcDbLine
 10
557.4325045872679
 20
445.72594574162
 30
0.0
 11
608.9687971429209
 21
445.72594574162
 31
0.0
  0
LINE
  5
A6
330
A
100
AcDbEntity
  8
1
  6
Continuous
 62
     3
100
AcDbLine
 10
608.9687971429209
 20
437.72594574162
 30
0.0
 11
557.4325045872679
 21
437.72594574162
 31
0.0
  0
LINE
  5
A5
330
A
100
AcDbEntity
  8
1
  6
Continuous
 62
     3
100
AcDbLine
 10
608.9687971429209
 20
428.725945741622
 30
0.0
 11
557.4325045872679
 21
428.725945741622
 31
0.0
  0
LINE
  5
A4
330
A
100
AcDbEntity
  8
1
  6
Continuous
 62
     3
100
AcDbLine
 10
608.9687971429209
 20
425.7259457416219
 30
0.0
 11
557.4325045872679
 21
425.7259457416219
 31
0.0
  0
LINE
  5
A3
330
A
100
AcDbEntity
  8
1
  6
Continuous
 62
     3
100
AcDbLine
 10
612.9687971429209
 20
445.72594574162
 30
0.0
 11
662.276342595362
 21
445.72594574162
 31
0.0
  0
LINE
  5
A2
330
A
100
AcDbEntity
  8
1
  6
Continuous
 62
     3
100
AcDbLine
 10
666.276342595362
 20
445.72594574162
 30
0.0
 11
717.812635151015
 21
445.72594574162
 31
0.0
  0
LINE
  5
A1
330
A
100
AcDbEntity
  8
1
  6
Continuous
 62
     3
100
AcDbLine
 10
717.812635151015
 20
437.72594574162
 30
0.0
 11
666.276342595362
 21
437.72594574162
 31
0.0
  0
LINE
  5
A0
330
A
100
AcDbEntity
  8
1
  6
Continuous
 62
     3
100
AcDbLine
 10
717.812635151015
 20
428.725945741622
 30
0.0
 11
666.276342595362
 21
428.725945741622
 31
0.0
  0
LINE
  5
9F
330
A
100
AcDbEntity
  8
1
  6
Continuous
 62
     3
100
AcDbLine
 10
717.812635151015
 20
425.7259457416219
 30
0.0
 11
666.276342595362
 21
425.7259457416219
 31
0.0
  0
LINE
  5
9E
330
A
100
AcDbEntity
  8
1
  6
DOT_CENTER
 62
     1
100
AcDbLine
 10
681.0163185025049
 20
441.72594574162
 30
0.0
 11
700.9389895349479
 21
441.72594574162
 31
0.0
  0
LINE
  5
9D
330
A
100
AcDbEntity
  8
1
  6
DOT_CENTER
 62
     1
100
AcDbLine
 10
690.9301153215819
 20
451.4621841720189
 30
0.0
 11
690.9301153215819
 21
431.7685093583399
 31
0.0
  0
LINE
  5
9C
330
A
100
AcDbEntity
  8
1
  6
DOT_CENTER
 62
     1
100
AcDbLine
 10
786.695154980448
 20
420.666869714221
 30
0.0
 11
786.695154980448
 21
449.2668697142189
 31
0.0
  0
LINE
  5
9B
330
A
100
AcDbEntity
  8
1
  6
Continuous
 62
     3
100
AcDbLine
 10
781.445154980448
 20
433.9759457416199
 30
0.0
 11
781.445154980448
 21
439.72594574162
 31
0.0
  0
LINE
  5
9A
330
A
100
AcDbEntity
  8
1
  6
Continuous
 62
     3
100
AcDbLine
 10
775.195154980448
 20
439.72594574162
 30
0.0
 11
779.945154980448
 21
439.72594574162
 31
0.0
  0
LINE
  5
99
330
A
100
AcDbEntity
  8
1
  6
Continuous
 62
     3
100
AcDbLine
 10
791.945154980448
 20
433.9759457416199
 30
0.0
 11
791.945154980448
 21
439.72594574162
 31
0.0
  0
LINE
  5
98
330
A
100
AcDbEntity
  8
1
  6
Continuous
 62
     3
100
AcDbLine
 10
779.945154980448
 20
433.9759457416199
 30
0.0
 11
779.945154980448
 21
439.72594574162
 31
0.0
  0
LINE
  5
97
330
A
100
AcDbEntity
  8
1
  6
Continuous
 62
     3
100
AcDbLine
 10
780.695154980448
 20
441.72594574162
 30
0.0
 11
792.695154980448
 21
441.72594574162
 31
0.0
  0
LINE
  5
96
330
A
100
AcDbEntity
  8
1
  6
Continuous
 62
     3
100
AcDbLine
 10
793.445154980448
 20
440.97594574162
 30
0.0
 11
793.445154980448
 21
439.72594574162
 31
0.0
  0
LINE
  5
95
330
A
100
AcDbEntity
  8
1
  6
Continuous
 62
     3
100
AcDbLine
 10
799.195154980448
 20
446.22594574162
 30
0.0
 11
799.195154980448
 21
438.72594574162
 31
0.0
  0
LINE
  5
94
330
A
100
AcDbEntity
  8
1
  6
Continuous
 62
     3
100
AcDbLine
 10
798.195154980448
 20
424.225945741622
 30
0.0
 11
775.195154980448
 21
424.225945741622
 31
0.0
  0
LINE
  5
93
330
A
100
AcDbEntity
  8
1
  6
Continuous
 62
     3
100
AcDbLine
 10
775.195154980448
 20
447.22594574162
 30
0.0
 11
798.195154980448
 21
447.22594574162
 31
0.0
  0
LINE
  5
92
330
A
100
AcDbEntity
  8
1
  6
DOTTED
 62
     1
100
AcDbLine
 10
814.695154980448
 20
431.22594574162
 30
0.0
 11
813.695154980448
 21
430.2259457416219
 31
0.0
  0
LINE
  5
91
330
A
100
AcDbEntity
  8
1
  6
DOTTED
 62
     1
100
AcDbLine
 10
813.695154980448
 20
436.2259457416199
 30
0.0
 11
814.695154980448
 21
435.22594574162
 31
0.0
  0
LINE
  5
90
330
A
100
AcDbEntity
  8
1
  6
DOTTED
 62
     1
100
AcDbLine
 10
758.695154980448
 20
435.22594574162
 30
0.0
 11
759.6951549804479
 21
436.2259457416199
 31
0.0
  0
LINE
  5
8F
330
A
100
AcDbEntity
  8
1
  6
DOTTED
 62
     1
100
AcDbLine
 10
758.695154980448
 20
431.22594574162
 30
0.0
 11
759.6951549804479
 21
430.2259457416219
 31
0.0
  0
LINE
  5
8E
330
A
100
AcDbEntity
  8
1
  6
DOTTED
 62
     1
100
AcDbLine
 10
789.695154980448
 20
436.2259457416199
 30
0.0
 11
794.695154980448
 21
436.2259457416199
 31
0.0
  0
LINE
  5
8D
330
A
100
AcDbEntity
  8
1
  6
DOTTED
 62
     1
100
AcDbLine
 10
794.695154980448
 20
425.7259457416219
 30
0.0
 11
794.695154980448
 21
445.72594574162
 31
0.0
  0
LINE
  5
8C
330
A
100
AcDbEntity
  8
1
  6
DOTTED
 62
     1
100
AcDbLine
 10
783.695154980448
 20
430.2259457416219
 30
0.0
 11
778.695154980448
 21
430.2259457416219
 31
0.0
  0
LINE
  5
8B
330
A
100
AcDbEntity
  8
1
  6
DOTTED
 62
     1
100
AcDbLine
 10
789.695154980448
 20
437.72594574162
 30
0.0
 11
789.695154980448
 21
428.725945741622
 31
0.0
  0
LINE
  5
8A
330
A
100
AcDbEntity
  8
1
  6
DOTTED
 62
     1
100
AcDbLine
 10
789.695154980448
 20
428.725945741622
 30
0.0
 11
783.695154980448
 21
428.725945741622
 31
0.0
  0
LINE
  5
89
330
A
100
AcDbEntity
  8
1
  6
DOTTED
 62
     1
100
AcDbLine
 10
783.695154980448
 20
428.725945741622
 30
0.0
 11
783.695154980448
 21
437.72594574162
 31
0.0
  0
LINE
  5
88
330
A
100
AcDbEntity
  8
1
  6
DOTTED
 62
     1
100
AcDbLine
 10
783.695154980448
 20
437.72594574162
 30
0.0
 11
789.695154980448
 21
437.72594574162
 31
0.0
  0
LINE
  5
87
330
A
100
AcDbEntity
  8
1
  6
DOTTED
 62
     1
100
AcDbLine
 10
758.695154980448
 20
431.22594574162
 30
0.0
 11
758.695154980448
 21
435.22594574162
 31
0.0
  0
LINE
  5
86
330
A
100
AcDbEntity
  8
1
  6
DOTTED
 62
     1
100
AcDbLine
 10
778.695154980448
 20
436.2259457416199
 30
0.0
 11
783.695154980448
 21
436.2259457416199
 31
0.0
  0
LINE
  5
85
330
A
100
AcDbEntity
  8
1
  6
DOTTED
 62
     1
100
AcDbLine
 10
814.695154980448
 20
435.22594574162
 30
0.0
 11
814.695154980448
 21
431.22594574162
 31
0.0
  0
LINE
  5
84
330
A
100
AcDbEntity
  8
1
  6
DOTTED
 62
     1
100
AcDbLine
 10
794.695154980448
 20
430.2259457416219
 30
0.0
 11
789.695154980448
 21
430.2259457416219
 31
0.0
  0
LINE
  5
83
330
A
100
AcDbEntity
  8
1
  6
DOTTED
 62
     1
100
AcDbLine
 10
778.695154980448
 20
445.72594574162
 30
0.0
 11
778.695154980448
 21
437.72594574162
 31
0.0
  0
LINE
  5
82
330
A
100
AcDbEntity
  8
1
  6
DOT_CENTER
 62
     1
100
AcDbLine
 10
748.695154980448
 20
451.4621841720189
 30
0.0
 11
748.695154980448
 21
431.7685093583399
 31
0.0
  0
LINE
  5
81
330
A
100
AcDbEntity
  8
1
  6
DOT_CENTER
 62
     1
100
AcDbLine
 10
738.781358161371
 20
441.72594574162
 30
0.0
 11
758.7040291938138
 21
441.72594574162
 31
0.0
  0
LINE
  5
80
330
A
100
AcDbEntity
  8
1
  6
DOT_CENTER
 62
     1
100
AcDbLine
 10
814.686280767083
 20
441.72594574162
 30
0.0
 11
834.6089517995249
 21
441.72594574162
 31
0.0
  0
LINE
  5
7F
330
A
100
AcDbEntity
  8
1
  6
DOT_CENTER
 62
     1
100
AcDbLine
 10
824.695154980448
 20
431.7685093583399
 30
0.0
 11
824.695154980448
 21
451.4621841720189
 31
0.0
  0
LINE
  5
7E
330
A
100
AcDbEntity
  8
1
  6
DOT_CENTER
 62
     1
100
AcDbLine
 10
914.695154980448
 20
431.7685093583399
 30
0.0
 11
914.695154980448
 21
451.4621841720189
 31
0.0
  0
LINE
  5
7D
330
A
100
AcDbEntity
  8
1
  6
DOT_CENTER
 62
     1
100
AcDbLine
 10
904.686280767083
 20
441.72594574162
 30
0.0
 11
924.6089517995249
 21
441.72594574162
 31
0.0
  0
LINE
  5
7C
330
A
100
AcDbEntity
  8
1
  6
Continuous
 62
     3
100
AcDbLine
 10
944.6951549804479
 20
437.72594574162
 30
0.0
 11
799.195154980448
 21
437.72594574162
 31
0.0
  0
LINE
  5
7B
330
A
100
AcDbEntity
  8
1
  6
Continuous
 62
     3
100
AcDbLine
 10
944.6951549804479
 20
428.725945741622
 30
0.0
 11
799.195154980448
 21
428.725945741622
 31
0.0
  0
LINE
  5
7A
330
A
100
AcDbEntity
  8
1
  6
Continuous
 62
     3
100
AcDbLine
 10
944.6951549804479
 20
425.7259457416219
 30
0.0
 11
946.695154980448
 21
425.7259457416219
 31
0.0
  0
LINE
  5
79
330
A
100
AcDbEntity
  8
1
  6
Continuous
 62
     3
100
AcDbLine
 10
947.695154980448
 20
426.725945741622
 30
0.0
 11
947.695154980448
 21
444.72594574162
 31
0.0
  0
LINE
  5
78
330
A
100
AcDbEntity
  8
1
  6
Continuous
 62
     3
100
AcDbLine
 10
946.695154980448
 20
445.72594574162
 30
0.0
 11
944.6951549804479
 21
445.72594574162
 31
0.0
  0
LINE
  5
77
330
A
100
AcDbEntity
  8
1
  6
Continuous
 62
     3
100
AcDbLine
 10
944.6951549804479
 20
445.72594574162
 30
0.0
 11
944.6951549804479
 21
425.7259457416219
 31
0.0
  0
LINE
  5
76
330
A
100
AcDbEntity
  8
1
  6
Continuous
 62
     3
100
AcDbLine
 10
944.6951549804479
 20
425.7259457416219
 30
0.0
 11
799.195154980448
 21
425.7259457416219
 31
0.0
  0
LINE
  5
75
330
A
100
AcDbEntity
  8
1
  6
DOTTED
 62
     1
100
AcDbLine
 10
794.695154980448
 20
445.72594574162
 30
0.0
 11
799.195154980448
 21
445.72594574162
 31
0.0
  0
LINE
  5
74
330
A
100
AcDbEntity
  8
1
  6
DOTTED
 62
     1
100
AcDbLine
 10
778.695154980448
 20
445.72594574162
 30
0.0
 11
774.195154980448
 21
445.72594574162
 31
0.0
  0
LINE
  5
73
330
A
100
AcDbEntity
  8
1
  6
DOTTED
 62
     1
100
AcDbLine
 10
778.695154980448
 20
437.72594574162
 30
0.0
 11
774.195154980448
 21
437.72594574162
 31
0.0
  0
LINE
  5
72
330
A
100
AcDbEntity
  8
1
  6
DOTTED
 62
     1
100
AcDbLine
 10
778.695154980448
 20
437.72594574162
 30
0.0
 11
778.695154980448
 21
428.725945741622
 31
0.0
  0
LINE
  5
71
330
A
100
AcDbEntity
  8
1
  6
DOTTED
 62
     1
100
AcDbLine
 10
778.695154980448
 20
428.725945741622
 30
0.0
 11
774.195154980448
 21
428.725945741622
 31
0.0
  0
LINE
  5
70
330
A
100
AcDbEntity
  8
1
  6
DOTTED
 62
     1
100
AcDbLine
 10
778.695154980448
 20
428.725945741622
 30
0.0
 11
778.695154980448
 21
425.7259457416219
 31
0.0
  0
LINE
  5
6F
330
A
100
AcDbEntity
  8
1
  6
DOTTED
 62
     1
100
AcDbLine
 10
778.695154980448
 20
425.7259457416219
 30
0.0
 11
774.195154980448
 21
425.7259457416219
 31
0.0
  0
LINE
  5
6E
330
A
100
AcDbEntity
  8
1
  6
Continuous
 62
     3
100
AcDbLine
 10
799.195154980448
 20
445.72594574162
 30
0.0
 11
944.6951549804479
 21
445.72594574162
 31
0.0
  0
LINE
  5
6D
330
A
100
AcDbEntity
  8
1
  6
DOTTED
 62
     1
100
AcDbLine
 10
799.195154980448
 20
437.72594574162
 30
0.0
 11
794.695154980448
 21
437.72594574162
 31
0.0
  0
LINE
  5
6C
330
A
100
AcDbEntity
  8
1
  6
DOTTED
 62
     1
100
AcDbLine
 10
799.195154980448
 20
428.725945741622
 30
0.0
 11
794.695154980448
 21
428.725945741622
 31
0.0
  0
LINE
  5
6B
330
A
100
AcDbEntity
  8
1
  6
DOTTED
 62
     1
100
AcDbLine
 10
799.195154980448
 20
425.7259457416219
 30
0.0
 11
794.695154980448
 21
425.7259457416219
 31
0.0
  0
LINE
  5
6A
330
A
100
AcDbEntity
  8
1
  6
Continuous
 62
     3
100
AcDbLine
 10
774.195154980448
 20
425.7259457416219
 30
0.0
 11
721.812635151015
 21
425.7259457416219
 31
0.0
  0
LINE
  5
69
330
A
100
AcDbEntity
  8
1
  6
Continuous
 62
     3
100
AcDbLine
 10
774.195154980448
 20
428.725945741622
 30
0.0
 11
721.812635151015
 21
428.725945741622
 31
0.0
  0
LINE
  5
68
330
A
100
AcDbEntity
  8
1
  6
Continuous
 62
     3
100
AcDbLine
 10
774.195154980448
 20
437.72594574162
 30
0.0
 11
721.812635151015
 21
437.72594574162
 31
0.0
  0
LINE
  5
67
330
A
100
AcDbEntity
  8
1
  6
DOTTED
 62
     1
100
AcDbLine
 10
759.6951549804479
 20
436.2259457416199
 30
0.0
 11
778.695154980448
 21
436.2259457416199
 31
0.0
  0
LINE
  5
66
330
A
100
AcDbEntity
  8
1
  6
DOTTED
 62
     1
100
AcDbLine
 10
778.695154980448
 20
430.2259457416219
 30
0.0
 11
759.6951549804479
 21
430.2259457416219
 31
0.0
  0
LINE
  5
65
330
A
100
AcDbEntity
  8
1
  6
DOTTED
 62
     1
100
AcDbLine
 10
813.695154980448
 20
430.2259457416219
 30
0.0
 11
794.695154980448
 21
430.2259457416219
 31
0.0
  0
LINE
  5
64
330
A
100
AcDbEntity
  8
1
  6
DOTTED
 62
     1
100
AcDbLine
 10
794.695154980448
 20
436.2259457416199
 30
0.0
 11
813.695154980448
 21
436.2259457416199
 31
0.0
  0
LINE
  5
63
330
A
100
AcDbEntity
  8
1
  6
Continuous
 62
     3
100
AcDbLine
 10
774.195154980448
 20
445.72594574162
 30
0.0
 11
721.812635151015
 21
445.72594574162
 31
0.0
  0
LINE
  5
62
330
A
100
AcDbEntity
  8
1
  6
Continuous
 62
     3
100
AcDbLine
 10
774.195154980448
 20
425.225945741622
 30
0.0
 11
774.195154980448
 21
446.22594574162
 31
0.0
  0
LINE
  5
61
330
A
100
AcDbEntity
  8
1
  6
Continuous
 62
     3
100
AcDbLine
 10
798.195154980448
 20
426.725945741622
 30
0.0
 11
775.195154980448
 21
426.725945741622
 31
0.0
  0
LINE
  5
60
330
A
100
AcDbEntity
  8
1
  6
Continuous
 62
     3
100
AcDbLine
 10
799.195154980448
 20
438.72594574162
 30
0.0
 11
799.195154980448
 21
425.225945741622
 31
0.0
  0
LINE
  5
5F
330
A
100
AcDbEntity
  8
1
  6
Continuous
 62
     3
100
AcDbLine
 10
793.445154980448
 20
439.72594574162
 30
0.0
 11
798.195154980448
 21
439.72594574162
 31
0.0
  0
LINE
  5
5E
330
A
100
AcDbEntity
  8
1
  6
Continuous
 62
     3
100
AcDbLine
 10
781.445154980448
 20
439.72594574162
 30
0.0
 11
791.945154980448
 21
439.72594574162
 31
0.0
  0
LINE
  5
5D
330
A
100
AcDbEntity
  8
1
  6
Continuous
 62
     3
100
AcDbLine
 10
793.445154980448
 20
439.72594574162
 30
0.0
 11
793.445154980448
 21
433.9759457416199
 31
0.0
  0
LINE
  5
5C
330
A
100
AcDbEntity
  8
1
  6
Continuous
 62
     3
100
AcDbLine
 10
779.945154980448
 20
439.72594574162
 30
0.0
 11
779.945154980448
 21
440.97594574162
 31
0.0
  0
LINE
  5
5B
330
A
100
AcDbEntity
  8
1
  6
Continuous
 62
     3
100
AcDbLine
 10
481.799984757835
 20
439.72594574162
 30
0.0
 11
481.799984757835
 21
440.97594574162
 31
0.0
  0
LINE
  5
5A
330
A
100
AcDbEntity
  8
1
  6
Continuous
 62
     3
100
AcDbLine
 10
495.299984757835
 20
439.72594574162
 30
0.0
 11
495.299984757835
 21
433.9759457416199
 31
0.0
  0
LINE
  5
59
330
A
100
AcDbEntity
  8
1
  6
Continuous
 62
     3
100
AcDbLine
 10
483.299984757835
 20
439.72594574162
 30
0.0
 11
493.799984757835
 21
439.72594574162
 31
0.0
  0
LINE
  5
58
330
A
100
AcDbEntity
  8
1
  6
Continuous
 62
     3
100
AcDbLine
 10
495.299984757835
 20
439.72594574162
 30
0.0
 11
500.049984757835
 21
439.72594574162
 31
0.0
  0
LINE
  5
57
330
A
100
AcDbEntity
  8
1
  6
Continuous
 62
     3
100
AcDbLine
 10
500.049984757835
 20
426.725945741622
 30
0.0
 11
477.049984757835
 21
426.725945741622
 31
0.0
  0
LINE
  5
56
330
A
100
AcDbEntity
  8
1
  6
DOTTED
 62
     1
100
AcDbLine
 10
496.549984757835
 20
436.2259457416199
 30
0.0
 11
515.5499847578349
 21
436.2259457416199
 31
0.0
  0
LINE
  5
55
330
A
100
AcDbEntity
  8
1
  6
DOTTED
 62
     1
100
AcDbLine
 10
515.5499847578349
 20
430.2259457416219
 30
0.0
 11
496.549984757835
 21
430.2259457416219
 31
0.0
  0
LINE
  5
54
330
A
100
AcDbEntity
  8
1
  6
DOTTED
 62
     1
100
AcDbLine
 10
480.549984757835
 20
430.2259457416219
 30
0.0
 11
461.549984757835
 21
430.2259457416219
 31
0.0
  0
LINE
  5
53
330
A
100
AcDbEntity
  8
1
  6
DOTTED
 62
     1
100
AcDbLine
 10
461.549984757835
 20
436.2259457416199
 30
0.0
 11
480.549984757835
 21
436.2259457416199
 31
0.0
  0
LINE
  5
52
330
A
100
AcDbEntity
  8
1
  6
DOTTED
 62
     1
100
AcDbLine
 10
501.049984757835
 20
425.7259457416219
 30
0.0
 11
496.549984757835
 21
425.7259457416219
 31
0.0
  0
LINE
  5
51
330
A
100
AcDbEntity
  8
1
  6
DOTTED
 62
     1
100
AcDbLine
 10
501.049984757835
 20
428.725945741622
 30
0.0
 11
496.549984757835
 21
428.725945741622
 31
0.0
  0
LINE
  5
50
330
A
100
AcDbEntity
  8
1
  6
DOTTED
 62
     1
100
AcDbLine
 10
501.049984757835
 20
437.72594574162
 30
0.0
 11
496.549984757835
 21
437.72594574162
 31
0.0
  0
LINE
  5
4F
330
A
100
AcDbEntity
  8
1
  6
DOTTED
 62
     1
100
AcDbLine
 10
480.549984757835
 20
425.7259457416219
 30
0.0
 11
476.049984757835
 21
425.7259457416219
 31
0.0
  0
LINE
  5
4E
330
A
100
AcDbEntity
  8
1
  6
DOTTED
 62
     1
100
AcDbLine
 10
480.549984757835
 20
428.725945741622
 30
0.0
 11
480.549984757835
 21
425.7259457416219
 31
0.0
  0
LINE
  5
4D
330
A
100
AcDbEntity
  8
1
  6
DOTTED
 62
     1
100
AcDbLine
 10
480.549984757835
 20
428.725945741622
 30
0.0
 11
476.049984757835
 21
428.725945741622
 31
0.0
  0
LINE
  5
4C
330
A
100
AcDbEntity
  8
1
  6
DOTTED
 62
     1
100
AcDbLine
 10
480.549984757835
 20
437.72594574162
 30
0.0
 11
480.549984757835
 21
428.725945741622
 31
0.0
  0
LINE
  5
4B
330
A
100
AcDbEntity
  8
1
  6
DOTTED
 62
     1
100
AcDbLine
 10
480.549984757835
 20
437.72594574162
 30
0.0
 11
476.049984757835
 21
437.72594574162
 31
0.0
  0
LINE
  5
4A
330
A
100
AcDbEntity
  8
1
  6
DOTTED
 62
     1
100
AcDbLine
 10
480.549984757835
 20
445.72594574162
 30
0.0
 11
476.049984757835
 21
445.72594574162
 31
0.0
  0
LINE
  5
49
330
A
100
AcDbEntity
  8
1
  6
DOTTED
 62
     1
100
AcDbLine
 10
496.549984757835
 20
445.72594574162
 30
0.0
 11
501.049984757835
 21
445.72594574162
 31
0.0
  0
LINE
  5
48
330
A
100
AcDbEntity
  8
1
  6
DOTTED
 62
     1
100
AcDbLine
 10
480.549984757835
 20
445.72594574162
 30
0.0
 11
480.549984757835
 21
437.72594574162
 31
0.0
  0
LINE
  5
47
330
A
100
AcDbEntity
  8
1
  6
DOTTED
 62
     1
100
AcDbLine
 10
496.549984757835
 20
430.2259457416219
 30
0.0
 11
491.549984757835
 21
430.2259457416219
 31
0.0
  0
LINE
  5
46
330
A
100
AcDbEntity
  8
1
  6
DOTTED
 62
     1
100
AcDbLine
 10
516.549984757835
 20
435.22594574162
 30
0.0
 11
516.549984757835
 21
431.22594574162
 31
0.0
  0
LINE
  5
45
330
A
100
AcDbEntity
  8
1
  6
DOTTED
 62
     1
100
AcDbLine
 10
480.549984757835
 20
436.2259457416199
 30
0.0
 11
485.549984757835
 21
436.2259457416199
 31
0.0
  0
LINE
  5
44
330
A
100
AcDbEntity
  8
1
  6
DOTTED
 62
     1
100
AcDbLine
 10
460.549984757835
 20
431.22594574162
 30
0.0
 11
460.549984757835
 21
435.22594574162
 31
0.0
  0
LINE
  5
43
330
A
100
AcDbEntity
  8
1
  6
DOTTED
 62
     1
100
AcDbLine
 10
485.549984757835
 20
437.72594574162
 30
0.0
 11
491.549984757835
 21
437.72594574162
 31
0.0
  0
LINE
  5
42
330
A
100
AcDbEntity
  8
1
  6
DOTTED
 62
     1
100
AcDbLine
 10
485.549984757835
 20
428.725945741622
 30
0.0
 11
485.549984757835
 21
437.72594574162
 31
0.0
  0
LINE
  5
41
330
A
100
AcDbEntity
  8
1
  6
DOTTED
 62
     1
100
AcDbLine
 10
491.549984757835
 20
428.725945741622
 30
0.0
 11
485.549984757835
 21
428.725945741622
 31
0.0
  0
LINE
  5
40
330
A
100
AcDbEntity
  8
1
  6
DOTTED
 62
     1
100
AcDbLine
 10
491.549984757835
 20
437.72594574162
 30
0.0
 11
491.549984757835
 21
428.725945741622
 31
0.0
  0
LINE
  5
3F
330
A
100
AcDbEntity
  8
1
  6
DOTTED
 62
     1
100
AcDbLine
 10
485.549984757835
 20
430.2259457416219
 30
0.0
 11
480.549984757835
 21
430.2259457416219
 31
0.0
  0
LINE
  5
3E
330
A
100
AcDbEntity
  8
1
  6
DOTTED
 62
     1
100
AcDbLine
 10
496.549984757835
 20
425.7259457416219
 30
0.0
 11
496.549984757835
 21
445.72594574162
 31
0.0
  0
LINE
  5
3D
330
A
100
AcDbEntity
  8
1
  6
DOTTED
 62
     1
100
AcDbLine
 10
491.549984757835
 20
436.2259457416199
 30
0.0
 11
496.549984757835
 21
436.2259457416199
 31
0.0
  0
LINE
  5
3C
330
A
100
AcDbEntity
  8
1
  6
DOTTED
 62
     1
100
AcDbLine
 10
460.549984757835
 20
431.22594574162
 30
0.0
 11
461.549984757835
 21
430.2259457416219
 31
0.0
  0
LINE
  5
3B
330
A
100
AcDbEntity
  8
1
  6
DOTTED
 62
     1
100
AcDbLine
 10
460.549984757835
 20
435.22594574162
 30
0.0
 11
461.549984757835
 21
436.2259457416199
 31
0.0
  0
LINE
  5
3A
330
A
100
AcDbEntity
  8
1
  6
DOTTED
 62
     1
100
AcDbLine
 10
515.5499847578349
 20
436.2259457416199
 30
0.0
 11
516.549984757835
 21
435.22594574162
 31
0.0
  0
LINE
  5
39
330
A
100
AcDbEntity
  8
1
  6
DOTTED
 62
     1
100
AcDbLine
 10
516.549984757835
 20
431.22594574162
 30
0.0
 11
515.5499847578349
 21
430.2259457416219
 31
0.0
  0
LINE
  5
38
330
A
100
AcDbEntity
  8
1
  6
Continuous
 62
     3
100
AcDbLine
 10
477.049984757835
 20
447.22594574162
 30
0.0
 11
500.049984757835
 21
447.22594574162
 31
0.0
  0
LINE
  5
37
330
A
100
AcDbEntity
  8
1
  6
Continuous
 62
     3
100
AcDbLine
 10
500.049984757835
 20
424.225945741622
 30
0.0
 11
477.049984757835
 21
424.225945741622
 31
0.0
  0
LINE
  5
36
330
A
100
AcDbEntity
  8
1
  6
Continuous
 62
     3
100
AcDbLine
 10
501.049984757835
 20
446.22594574162
 30
0.0
 11
501.049984757835
 21
425.225945741622
 31
0.0
  0
LINE
  5
35
330
A
100
AcDbEntity
  8
1
  6
Continuous
 62
     3
100
AcDbLine
 10
495.299984757835
 20
440.97594574162
 30
0.0
 11
495.299984757835
 21
439.72594574162
 31
0.0
  0
LINE
  5
34
330
A
100
AcDbEntity
  8
1
  6
Continuous
 62
     3
100
AcDbLine
 10
482.549984757835
 20
441.72594574162
 30
0.0
 11
494.549984757835
 21
441.72594574162
 31
0.0
  0
LINE
  5
33
330
A
100
AcDbEntity
  8
1
  6
Continuous
 62
     3
100
AcDbLine
 10
481.799984757835
 20
433.9759457416199
 30
0.0
 11
481.799984757835
 21
439.72594574162
 31
0.0
  0
LINE
  5
32
330
A
100
AcDbEntity
  8
1
  6
Continuous
 62
     3
100
AcDbLine
 10
493.799984757835
 20
433.9759457416199
 30
0.0
 11
493.799984757835
 21
439.72594574162
 31
0.0
  0
LINE
  5
31
330
A
100
AcDbEntity
  8
1
  6
Continuous
 62
     3
100
AcDbLine
 10
477.049984757835
 20
439.72594574162
 30
0.0
 11
481.799984757835
 21
439.72594574162
 31
0.0
  0
LINE
  5
30
330
A
100
AcDbEntity
  8
1
  6
Continuous
 62
     3
100
AcDbLine
 10
483.299984757835
 20
433.9759457416199
 30
0.0
 11
483.299984757835
 21
439.72594574162
 31
0.0
  0
LINE
  5
2F
330
A
100
AcDbEntity
  8
1
  6
DOT_CENTER
 62
     1
100
AcDbLine
 10
488.549984757835
 20
359.984721443724
 30
0.0
 11
488.549984757835
 21
453.95904916266
 31
0.0
  0
LINE
  5
2E
330
A
100
AcDbEntity
  8
1
  6
Continuous
 62
     3
100
AcDbLine
 10
476.049984757835
 20
425.225945741622
 30
0.0
 11
476.049984757835
 21
446.22594574162
 31
0.0
  0
LINE
  5
2D
330
A
100
AcDbEntity
  8
1
  6
Continuous
 62
     3
100
AcDbLine
 10
365.049984757835
 20
384.904046739188
 30
0.0
 11
367.0499847578351
 21
384.904046739188
 31
0.0
  0
LINE
  5
2C
330
A
100
AcDbEntity
  8
1
  6
Continuous
 62
     3
100
AcDbLine
 10
367.0499847578351
 20
384.904046739188
 30
0.0
 11
367.0499847578351
 21
387.054046739188
 31
0.0
  0
LINE
  5
2B
330
A
100
AcDbEntity
  8
1
  6
Continuous
 62
     3
100
AcDbLine
 10
365.049984757835
 20
384.904046739188
 30
0.0
 11
365.049984757835
 21
383.304046739188
 31
0.0
  0
LINE
  5
2A
330
A
100
AcDbEntity
  8
1
  6
Continuous
 62
     3
100
AcDbLine
 10
365.049984757835
 20
381.204046739188
 30
0.0
 11
367.0499847578351
 21
381.204046739188
 31
0.0
  0
LINE
  5
29
330
A
100
AcDbEntity
  8
1
  6
Continuous
 62
     3
100
AcDbLine
 10
365.049984757835
 20
381.204046739188
 30
0.0
 11
365.049984757835
 21
379.054046739188
 31
0.0
  0
LINE
  5
28
330
A
100
AcDbEntity
  8
1
  6
Continuous
 62
     3
100
AcDbLine
 10
367.0499847578351
 20
381.204046739188
 30
0.0
 11
367.0499847578351
 21
384.904046739188
 31
0.0
  0
ENDSEC
  0
SECTION
  2
OBJECTS
  0
DICTIONARY
  5
19
330
0
100
AcDbDictionary
281
     1
  3
ACAD_COLOR
350
153
  3
ACAD_GROUP
350
1A
  3
ACAD_LAYOUT
350
156
  3
ACAD_MATERIAL
350
152
  3
ACAD_MLINESTYLE
350
1B
  3
ACAD_PLOTSETTINGS
350
157
  3
ACAD_PLOTSTYLENAME
350
150
  3
ACAD_TABLESTYLE
350
154
  3
ACDBHEADERROUNDTRIPXREC
350
28A
  3
AcDbVariableDictionary
350
283
  3
AcmDictionary
350
21D
  3
AMG
350
15C
  3
AMGSNAPSETTINGS
350
273
  3
ASE_INDEX_DICTIONARY
350
27B
  3
DWGPROPS
350
289
  3
MAPISURF_MODULE
350
1E9
  0
DICTIONARY
  5
27E
330
A
100
AcDbDictionary
280
     1
281
     1
  3
ACAD_INDEX
360
27F
  0
DICTIONARY
  5
153
102
{ACAD_REACTORS
330
19
102
}
330
19
100
AcDbDictionary
281
     1
  0
DICTIONARY
  5
1A
102
{ACAD_REACTORS
330
19
102
}
330
19
100
AcDbDictionary
281
     1
  0
DICTIONARY
  5
156
102
{ACAD_REACTORS
330
19
102
}
330
19
100
AcDbDictionary
281
     1
  3
Model
350
158
  3
レイアウト1
350
159
  0
DICTIONARY
  5
152
102
{ACAD_REACTORS
330
19
102
}
330
19
100
AcDbDictionary
281
     1
  0
DICTIONARY
  5
1B
102
{ACAD_REACTORS
330
19
102
}
330
19
100
AcDbDictionary
281
     1
  3
STANDARD
350
1C
  0
DICTIONARY
  5
157
102
{ACAD_REACTORS
330
19
102
}
330
19
100
AcDbDictionary
281
     1
  0
ACDBDICTIONARYWDFLT
  5
150
102
{ACAD_REACTORS
330
19
102
}
330
19
100
AcDbDictionary
281
     1
  3
Normal
350
151
100
AcDbDictionaryWithDefault
340
151
  0
DICTIONARY
  5
154
102
{ACAD_REACTORS
330
19
102
}
330
19
100
AcDbDictionary
281
     1
  3
Standard
350
155
  0
DICTIONARY
  5
28A
102
{ACAD_REACTORS
330
19
102
}
330
19
100
AcDbDictionary
281
     1
  0
DICTIONARY
  5
283
102
{ACAD_REACTORS
330
19
102
}
330
19
100
AcDbDictionary
281
     1
  3
CTABLESTYLE
350
284
  3
DIMASSOC
350
286
  3
INDEXCTL
350
285
  3
PROJECTNAME
350
287
  0
DICTIONARY
  5
21D
102
{ACAD_REACTORS
330
19
102
}
330
19
100
AcDbDictionary
281
     1
  3
AcmStdDictionary
350
229
  3
AMDTSECTSYM_ARROWCOLOR
350
248
  0
DICTIONARY
  5
15C
102
{ACAD_REACTORS
330
19
102
}
330
19
100
AcDbDictionary
281
     1
  3
AcMgSettings
350
15D
  0
DICTIONARY
  5
273
102
{ACAD_REACTORS
330
19
102
}
330
19
100
AcDbDictionary
281
     1
  3
DIMENSION
350
278
  3
FEA
350
277
  3
HATCH (1)
350
274
  3
HATCH (2)
350
275
  3
SIMPLE WELD
350
279
  3
SYMBOLS
350
276
  0
DICTIONARY
  5
27B
102
{ACAD_REACTORS
330
19
102
}
330
19
100
AcDbDictionary
281
     1
  3
ASEBlockHierarchyIndexRecord
350
27D
1001
DCO15
1040
1937642126.765
  0
XRECORD
  5
289
102
{ACAD_REACTORS
330
19
102
}
330
19
100
AcDbXrecord
280
     1
  1
DWGPROPS COOKIE
  2

  3

  4

  6

  7

  8

  9

300
AmdtFileType=84
301
=
302
=
303
=
304
=
305
=
306
=
307
=
308
=
309
=
 40
0.0001936689814815
 41
2305814.417176053
 42
2458229.625356076
  1

 90
        1
  0
DICTIONARY
  5
27F
102
{ACAD_REACTORS
330
27E
102
}
330
27E
100
AcDbDictionary
281
     1
  3
*A1
350
280
  0
LAYOUT
  5
158
102
{ACAD_XDICTIONARY
360
28B
102
}
102
{ACAD_REACTORS
330
156
102
}
330
156
100
AcDbPlotSettings
  1

  2
Adobe PDF#:3
  4

  6

 40
0.0
 41
0.0
 42
0.0
 43
0.0
 44
0.0
 45
0.0
 46
0.0
 47
0.0
 48
0.0
 49
0.0
140
0.0
141
0.0
142
1.0
143
1.0
 70
  1712
 72
     0
 73
     0
 74
     0
  7

 75
     0
147
1.0
148
0.0
149
0.0
100
AcDbLayout
  1
Model
 70
     1
 71
     0
 10
0.0
 20
0.0
 11
12.0
 21
9.0
 12
0.0
 22
0.0
 32
0.0
 14
0.0
 24
0.0
 34
0.0
 15
0.0
 25
0.0
 35
0.0
146
0.0
 13
0.0
 23
0.0
 33
0.0
 16
1.0
 26
0.0
 36
0.0
 17
0.0
 27
1.0
 37
0.0
 76
     0
330
A
  0
LAYOUT
  5
159
102
{ACAD_XDICTIONARY
360
28D
102
}
102
{ACAD_REACTORS
330
156
102
}
330
156
100
AcDbPlotSettings
  1

  2
Adobe PDF#:3
  4

  6

 40
0.0
 41
0.0
 42
0.0
 43
0.0
 44
0.0
 45
0.0
 46
0.0
 47
0.0
 48
0.0
 49
0.0
140
0.0
141
0.0
142
1.0
143
1.0
 70
   688
 72
     0
 73
     0
 74
     5
  7

 75
    16
147
1.0
148
0.0
149
0.0
100
AcDbLayout
  1
レイアウト1
 70
     0
 71
     1
 10
0.0
 20
0.0
 11
12.0
 21
9.0
 12
0.0
 22
0.0
 32
0.0
 14
1.000000000000000E+20
 24
1.000000000000000E+20
 34
1.000000000000000E+20
 15
-1.000000000000000E+20
 25
-1.000000000000000E+20
 35
-1.000000000000000E+20
146
0.0
 13
0.0
 23
0.0
 33
0.0
 16
1.0
 26
0.0
 36
0.0
 17
0.0
 27
1.0
 37
0.0
 76
     0
330
B
  0
MLINESTYLE
  5
1C
102
{ACAD_REACTORS
330
1B
102
}
330
1B
100
AcDbMlineStyle
  2
STANDARD
 70
     0
  3

 62
     0
 51
90.0
 52
90.0
 71
     2
 49
0.5
 62
   256
  6
BYLAYER
 49
-0.5
 62
   256
  6
BYLAYER
  0
ACDBPLACEHOLDER
  5
151
102
{ACAD_REACTORS
330
150
102
}
330
150
  0
TABLESTYLE
  5
155
102
{ACAD_REACTORS
330
154
102
}
330
154
100
AcDbTableStyle
  3
Standard
 70
     0
 71
     0
 40
1.5
 41
1.5
280
     0
281
     0
  7
STANDARD
140
4.5
170
     2
 62
     0
 63
     7
283
     0
274
    -2
284
     1
 64
     0
275
    -2
285
     1
 65
     0
276
    -2
286
     1
 66
     0
277
    -2
287
     1
 67
     0
278
    -2
288
     1
 68
     0
279
    -2
289
     1
 69
     0
  7
STANDARD
140
6.0
170
     5
 62
     0
 63
     7
283
     0
274
    -2
284
     1
 64
     0
275
    -2
285
     1
 65
     0
276
    -2
286
     1
 66
     0
277
    -2
287
     1
 67
     0
278
    -2
288
     1
 68
     0
279
    -2
289
     1
 69
     0
  7
STANDARD
140
4.5
170
     5
 62
     0
 63
     7
283
     0
274
    -2
284
     1
 64
     0
275
    -2
285
     1
 65
     0
276
    -2
286
     1
 66
     0
277
    -2
287
     1
 67
     0
278
    -2
288
     1
 68
     0
279
    -2
289
     1
 69
     0
  0
DICTIONARYVAR
  5
284
102
{ACAD_REACTORS
330
283
102
}
330
283
100
DictionaryVariables
280
     0
  1
STANDARD
  0
DICTIONARYVAR
  5
286
102
{ACAD_REACTORS
330
283
102
}
330
283
100
DictionaryVariables
280
     0
  1
1
  0
DICTIONARYVAR
  5
285
102
{ACAD_REACTORS
330
283
102
}
330
283
100
DictionaryVariables
280
     0
  1
1
  0
DICTIONARYVAR
  5
287
102
{ACAD_REACTORS
330
283
102
}
330
283
100
DictionaryVariables
280
     0
  1

  0
DICTIONARY
  5
229
102
{ACAD_REACTORS
330
21D
102
}
330
21D
100
AcDbDictionary
281
     1
  0
XRECORD
  5
248
102
{ACAD_REACTORS
330
21D
102
}
330
21D
100
AcDbXrecord
280
     1
 90
-1023410169
  0
DICTIONARY
  5
15D
102
{ACAD_REACTORS
330
15C
102
}
330
15C
100
AcDbDictionary
281
     1
  3
DWGSETTINGS
350
15E
  3
TRANSSETTINGS
350
162
  0
ACAMGFILTERDAT
  5
278
102
{ACAD_REACTORS
330
273
102
}
330
273
100
AcAmgFilterDat
 70
    15
  1
DIMENSION,AMDT_*_DIM
  2
*
  3
*
  4
*
  5
*
290
     1
  0
ACAMGFILTERDAT
  5
277
102
{ACAD_REACTORS
330
273
102
}
330
273
100
AcAmgFilterDat
 70
    15
  1
*
  2
AM_FEA-AM_*
  3
*
  4
*
  5
*
290
     1
  0
ACAMGFILTERDAT
  5
274
102
{ACAD_REACTORS
330
273
102
}
330
273
100
AcAmgFilterDat
 70
    15
  1
HATCH
  2
*
  3
*
  4
*
  5
*
290
     1
  0
ACAMGFILTERDAT
  5
275
102
{ACAD_REACTORS
330
273
102
}
330
273
100
AcAmgFilterDat
 70
    15
  1
LINE
  2
8,8N,*-8,*-8N,AM_8,AM_8N,*-AM_8,*-AM_8N
  3
*
  4
*
  5
INSERT,STDPART2D
290
     1
  0
ACAMGFILTERDAT
  5
279
102
{ACAD_REACTORS
330
273
102
}
330
273
100
AcAmgFilterDat
 70
    15
  1
ARC
  2
AM_5
  3
*
  4
2
  5
INSERT
290
     0
  0
ACAMGFILTERDAT
  5
276
102
{ACAD_REACTORS
330
273
102
}
330
273
100
AcAmgFilterDat
 70
    15
  1
ACMFCFRAME,ACMDATUMTARGET,ACMDATUMID,ACMWELDSYM,ACMSURFSYM,ACMFEATID,ACMPARTREF,ACMBALLOON,AMDTEDGESYM,AMGSCREWCALCTABLE
  2
*
  3
*
  4
*
  5
*
290
     1
  0
XRECORD
  5
27D
102
{ACAD_REACTORS
330
27B
102
}
330
27B
100
AcDbXrecord
280
     1
  0
LAYER_INDEX
  5
280
102
{ACAD_REACTORS
330
27F
102
}
330
27F
100
AcDbIndex
 40
2458229.625356076
100
AcDbLayerIndex
  8
0
360
281
 90
        0
  8
1
360
282
 90
      291
  0
DICTIONARY
  5
28B
330
158
100
AcDbDictionary
280
     1
281
     1
  3
ACAD_XREC_ROUNDTRIP
360
28C
  0
DICTIONARY
  5
28D
330
159
100
AcDbDictionary
280
     1
281
     1
  3
ACAD_XREC_ROUNDTRIP
360
28E
  0
IDBUFFER
  5
281
330
0
100
AcDbIdBuffer
  0
IDBUFFER
  5
282
330
0
100
AcDbIdBuffer
330
5A
330
59
330
58
330
57
330
56
330
55
330
54
330
53
330
52
330
51
330
50
330
4F
330
4E
330
4D
330
4C
330
4B
330
4A
330
49
330
48
330
47
330
46
330
45
330
44
330
43
330
42
330
41
330
40
330
3F
330
3E
330
3D
330
3C
330
3B
330
3A
330
39
330
38
330
37
330
36
330
35
330
34
330
33
330
32
330
31
330
30
330
2F
330
2E
330
2D
330
2C
330
2B
330
2A
330
29
330
28
330
14B
330
149
330
148
330
147
330
146
330
145
330
144
330
143
330
142
330
141
330
140
330
13F
330
13E
330
13D
330
13C
330
13B
330
13A
330
139
330
138
330
137
330
136
330
135
330
134
330
133
330
132
330
131
330
130
330
12F
330
12E
330
12D
330
12C
330
12B
330
12A
330
129
330
128
330
127
330
126
330
125
330
124
330
123
330
122
330
121
330
120
330
11F
330
11E
330
11D
330
11C
330
11B
330
11A
330
119
330
118
330
117
330
116
330
115
330
114
330
113
330
112
330
111
330
110
330
10F
330
10E
330
10D
330
10C
330
10B
330
10A
330
109
330
108
330
107
330
106
330
105
330
104
330
103
330
102
330
101
330
100
330
FF
330
FE
330
FD
330
FC
330
FB
330
FA
330
F9
330
F8
330
F7
330
F6
330
F5
330
F4
330
F3
330
F2
330
F1
330
F0
330
EF
330
EE
330
ED
330
EC
330
EB
330
EA
330
E9
330
E8
330
E7
330
E6
330
E5
330
E4
330
E3
330
E2
330
E1
330
E0
330
DF
330
DE
330
DD
330
DC
330
DB
330
DA
330
D9
330
D8
330
D7
330
D6
330
D5
330
D4
330
D3
330
D2
330
D1
330
D0
330
CF
330
CE
330
CD
330
CC
330
CB
330
CA
330
C9
330
C8
330
C7
330
C6
330
C5
330
C4
330
C3
330
C2
330
C1
330
C0
330
BF
330
BE
330
BD
330
BC
330
BB
330
BA
330
B9
330
B8
330
B7
330
B6
330
B5
330
B4
330
B3
330
B2
330
B1
330
B0
330
AF
330
AE
330
AD
330
AC
330
AB
330
AA
330
A9
330
A8
330
A7
330
A6
330
A5
330
A4
330
A3
330
A2
330
A1
330
A0
330
9F
330
9E
330
9D
330
9C
330
9B
330
9A
330
99
330
98
330
97
330
96
330
95
330
94
330
93
330
92
330
91
330
90
330
8F
330
8E
330
8D
330
8C
330
8B
330
8A
330
89
330
88
330
87
330
86
330
85
330
84
330
83
330
82
330
81
330
80
330
7F
330
7E
330
7D
330
7C
330
7B
330
7A
330
79
330
78
330
77
330
76
330
75
330
74
330
73
330
72
330
71
330
70
330
6F
330
6E
330
6D
330
6C
330
6B
330
6A
330
69
330
68
330
67
330
66
330
65
330
64
330
63
330
62
330
61
330
60
330
5F
330
5E
330
5D
330
5C
330
5B
  0
XRECORD
  5
28C
102
{ACAD_REACTORS
330
28B
102
}
330
28B
100
AcDbXrecord
280
     1
102
SHADEPLOT
 70
     0
102
SHADEPLOTRESLEVEL
 70
     2
102
SHADEPLOTCUSTOMDPI
 70
   300
  0
XRECORD
  5
28E
102
{ACAD_REACTORS
330
28D
102
}
330
28D
100
AcDbXrecord
280
     1
102
SHADEPLOT
 70
     0
102
SHADEPLOTRESLEVEL
 70
     2
102
SHADEPLOTCUSTOMDPI
 70
   300
  0
ENDSEC
  0
EOF
