  0
SECTION
  2
HEADER
  9
$ACADVER
  1
AC1015
  9
$ACADMAINTVER
 70
    20
  9
$DWGCODEPAGE
  3
ANSI_932
  9
$INSBASE
 10
0.0
 20
0.0
 30
0.0
  9
$EXTMIN
 10
-227.308242942471
 20
4494.6906530724
 30
0.0
  9
$EXTMAX
 10
394.725717491064
 20
4697.45605001009
 30
0.0
  9
$LIMMIN
 10
0.0
 20
0.0
  9
$LIMMAX
 10
0.0
 20
0.0
  9
$ORTHOMODE
 70
     0
  9
$REGENMODE
 70
     1
  9
$FILLMODE
 70
     1
  9
$QTEXTMODE
 70
     0
  9
$MIRRTEXT
 70
     1
  9
$LTSCALE
 40
1.0
  9
$ATTMODE
 70
     1
  9
$TEXTSIZE
 40
0.0
  9
$TRACEWID
 40
0.05
  9
$TEXTSTYLE
  7
STANDARD
  9
$CLAYER
  8
0
  9
$CELTYPE
  6
CONTINUOUS
  9
$CECOLOR
 62
   256
  9
$CELTSCALE
 40
1.0
  9
$DISPSILH
 70
     0
  9
$DIMSCALE
 40
1.0
  9
$DIMASZ
 40
0.18
  9
$DIMEXO
 40
0.0625
  9
$DIMDLI
 40
0.38
  9
$DIMRND
 40
0.0
  9
$DIMDLE
 40
0.0
  9
$DIMEXE
 40
0.18
  9
$DIMTP
 40
0.0
  9
$DIMTM
 40
0.0
  9
$DIMTXT
 40
0.18
  9
$DIMCEN
 40
0.09
  9
$DIMTSZ
 40
0.0
  9
$DIMTOL
 70
     0
  9
$DIMLIM
 70
     0
  9
$DIMTIH
 70
     1
  9
$DIMTOH
 70
     1
  9
$DIMSE1
 70
     0
  9
$DIMSE2
 70
     0
  9
$DIMTAD
 70
     0
  9
$DIMZIN
 70
     0
  9
$DIMBLK
  1

  9
$DIMASO
 70
     1
  9
$DIMSHO
 70
     1
  9
$DIMPOST
  1

  9
$DIMAPOST
  1

  9
$DIMALT
 70
     0
  9
$DIMALTD
 70
     2
  9
$DIMALTF
 40
25.4
  9
$DIMLFAC
 40
1.0
  9
$DIMTOFL
 70
     0
  9
$DIMTVP
 40
0.0
  9
$DIMTIX
 70
     0
  9
$DIMSOXD
 70
     0
  9
$DIMSAH
 70
     0
  9
$DIMBLK1
  1

  9
$DIMBLK2
  1

  9
$DIMSTYLE
  2
STANDARD
  9
$DIMCLRD
 70
     0
  9
$DIMCLRE
 70
     0
  9
$DIMCLRT
 70
     0
  9
$DIMTFAC
 40
1.0
  9
$DIMGAP
 40
0.09
  9
$DIMJUST
 70
     0
  9
$DIMSD1
 70
     0
  9
$DIMSD2
 70
     0
  9
$DIMTOLJ
 70
     1
  9
$DIMTZIN
 70
     0
  9
$DIMALTZ
 70
     0
  9
$DIMALTTZ
 70
     0
  9
$DIMUPT
 70
     0
  9
$DIMDEC
 70
     4
  9
$DIMTDEC
 70
     4
  9
$DIMALTU
 70
     2
  9
$DIMALTTD
 70
     2
  9
$DIMTXSTY
  7
STANDARD
  9
$DIMAUNIT
 70
     0
  9
$DIMADEC
 70
     0
  9
$DIMALTRND
 40
0.0
  9
$DIMAZIN
 70
     0
  9
$DIMDSEP
 70
    46
  9
$DIMATFIT
 70
     3
  9
$DIMFRAC
 70
     0
  9
$DIMLDRBLK
  1

  9
$DIMLUNIT
 70
     2
  9
$DIMLWD
 70
    -2
  9
$DIMLWE
 70
    -2
  9
$DIMTMOVE
 70
     0
  9
$LUNITS
 70
     2
  9
$LUPREC
 70
     2
  9
$SKETCHINC
 40
0.1
  9
$FILLETRAD
 40
0.0
  9
$AUNITS
 70
     0
  9
$AUPREC
 70
     0
  9
$MENU
  1
acad
  9
$ELEVATION
 40
0.0
  9
$PELEVATION
 40
0.0
  9
$THICKNESS
 40
0.0
  9
$LIMCHECK
 70
     0
  9
$CHAMFERA
 40
0.0
  9
$CHAMFERB
 40
0.0
  9
$CHAMFERC
 40
0.0
  9
$CHAMFERD
 40
0.0
  9
$SKPOLY
 70
     0
  9
$TDCREATE
 40
2305814.417176053
  9
$TDUCREATE
 40
6.0000000000
  9
$TDUPDATE
 40
2458438.458457709
  9
$TDUUPDATE
 40
2458438.083457708
  9
$TDINDWG
 40
0.0003018519
  9
$TDUSRTIMER
 40
0.0003018519
  9
$USRTIMER
 70
     1
  9
$ANGBASE
 50
0.0
  9
$ANGDIR
 70
     0
  9
$PDMODE
 70
     0
  9
$PDSIZE
 40
0.0
  9
$PLINEWID
 40
0.0
  9
$SPLFRAME
 70
     0
  9
$SPLINETYPE
 70
     6
  9
$SPLINESEGS
 70
     8
  9
$HANDSEED
  5
2B8
  9
$SURFTAB1
 70
     6
  9
$SURFTAB2
 70
     6
  9
$SURFTYPE
 70
     6
  9
$SURFU
 70
     6
  9
$SURFV
 70
     6
  9
$UCSBASE
  2

  9
$UCSNAME
  2

  9
$UCSORG
 10
0.0
 20
0.0
 30
0.0
  9
$UCSXDIR
 10
1.0
 20
0.0
 30
0.0
  9
$UCSYDIR
 10
0.0
 20
1.0
 30
0.0
  9
$UCSORTHOREF
  2

  9
$UCSORTHOVIEW
 70
     0
  9
$UCSORGTOP
 10
0.0
 20
0.0
 30
0.0
  9
$UCSORGBOTTOM
 10
0.0
 20
0.0
 30
0.0
  9
$UCSORGLEFT
 10
0.0
 20
0.0
 30
0.0
  9
$UCSORGRIGHT
 10
0.0
 20
0.0
 30
0.0
  9
$UCSORGFRONT
 10
0.0
 20
0.0
 30
0.0
  9
$UCSORGBACK
 10
0.0
 20
0.0
 30
0.0
  9
$PUCSBASE
  2

  9
$PUCSNAME
  2

  9
$PUCSORG
 10
0.0
 20
0.0
 30
0.0
  9
$PUCSXDIR
 10
1.0
 20
0.0
 30
0.0
  9
$PUCSYDIR
 10
0.0
 20
1.0
 30
0.0
  9
$PUCSORTHOREF
  2

  9
$PUCSORTHOVIEW
 70
     0
  9
$PUCSORGTOP
 10
0.0
 20
0.0
 30
0.0
  9
$PUCSORGBOTTOM
 10
0.0
 20
0.0
 30
0.0
  9
$PUCSORGLEFT
 10
0.0
 20
0.0
 30
0.0
  9
$PUCSORGRIGHT
 10
0.0
 20
0.0
 30
0.0
  9
$PUCSORGFRONT
 10
0.0
 20
0.0
 30
0.0
  9
$PUCSORGBACK
 10
0.0
 20
0.0
 30
0.0
  9
$USERI1
 70
     0
  9
$USERI2
 70
     0
  9
$USERI3
 70
     0
  9
$USERI4
 70
     0
  9
$USERI5
 70
     0
  9
$USERR1
 40
0.0
  9
$USERR2
 40
0.0
  9
$USERR3
 40
0.0
  9
$USERR4
 40
0.0
  9
$USERR5
 40
0.0
  9
$WORLDVIEW
 70
     1
  9
$SHADEDGE
 70
     3
  9
$SHADEDIF
 70
    70
  9
$TILEMODE
 70
     1
  9
$MAXACTVP
 70
    16
  9
$PINSBASE
 10
0.0
 20
0.0
 30
0.0
  9
$PLIMCHECK
 70
     0
  9
$PEXTMIN
 10
1.000000000000000E+20
 20
1.000000000000000E+20
 30
1.000000000000000E+20
  9
$PEXTMAX
 10
-1.000000000000000E+20
 20
-1.000000000000000E+20
 30
-1.000000000000000E+20
  9
$PLIMMIN
 10
0.0
 20
0.0
  9
$PLIMMAX
 10
12.0
 20
9.0
  9
$UNITMODE
 70
     0
  9
$VISRETAIN
 70
     0
  9
$PLINEGEN
 70
     1
  9
$PSLTSCALE
 70
     0
  9
$TREEDEPTH
 70
  3020
  9
$CMLSTYLE
  2
STANDARD
  9
$CMLJUST
 70
     0
  9
$CMLSCALE
 40
1.0
  9
$PROXYGRAPHICS
 70
     0
  9
$MEASUREMENT
 70
     1
  9
$CELWEIGHT
370
    -1
  9
$ENDCAPS
280
     0
  9
$JOINSTYLE
280
     0
  9
$LWDISPLAY
290
     0
  9
$INSUNITS
 70
     0
  9
$HYPERLINKBASE
  1

  9
$STYLESHEET
  1

  9
$XEDIT
290
     1
  9
$CEPSNTYPE
380
     0
  9
$PSTYLEMODE
290
     1
  9
$FINGERPRINTGUID
  2
{FD3EB200-6CF9-46DF-B7FD-7C9F6F3F11BB}
  9
$VERSIONGUID
  2
{82E7AE4F-C159-4AF0-960B-9BABA3510E65}
  9
$EXTNAMES
290
     1
  9
$PSVPSCALE
 40
0.0
  9
$OLESTARTUP
290
     0
  0
ENDSEC
  0
SECTION
  2
CLASSES
  0
CLASS
  1
IMAGE
  2
AcDbRasterImage
  3
ISM
 90
    32895
280
     0
281
     1
  0
CLASS
  1
DICTIONARYVAR
  2
AcDbDictionaryVar
  3
ObjectDBX Classes
 90
        0
280
     0
281
     0
  0
CLASS
  1
RASTERVARIABLES
  2
AcDbRasterVariables
  3
ISM
 90
    32768
280
     0
281
     0
  0
CLASS
  1
IMAGEDEF
  2
AcDbRasterImageDef
  3
ISM
 90
    32768
280
     0
281
     0
  0
CLASS
  1
IMAGEDEF_REACTOR
  2
AcDbRasterImageDefReactor
  3
ISM
 90
    32769
280
     0
281
     0
  0
CLASS
  1
IDBUFFER
  2
AcDbIdBuffer
  3
ObjectDBX Classes
 90
        0
280
     0
281
     0
  0
CLASS
  1
SPATIAL_FILTER
  2
AcDbSpatialFilter
  3
ObjectDBX Classes
 90
    32768
280
     0
281
     0
  0
CLASS
  1
SORTENTSTABLE
  2
AcDbSortentsTable
  3
ObjectDBX Classes
 90
    32768
280
     0
281
     0
  0
CLASS
  1
LAYER_INDEX
  2
AcDbLayerIndex
  3
ObjectDBX Classes
 90
        0
280
     0
281
     0
  0
CLASS
  1
SPATIAL_INDEX
  2
AcDbSpatialIndex
  3
ObjectDBX Classes
 90
    32768
280
     0
281
     0
  0
CLASS
  1
OBJECT_PTR
  2
CAseDLPNTableRecord
  3
ASE-LPNTableRecord
 90
    32769
280
     0
281
     0
  0
CLASS
  1
LAYOUT
  2
AcDbLayout
  3
ObjectDBX Classes
 90
        0
280
     0
281
     0
  0
CLASS
  1
PLOTSETTINGS
  2
AcDbPlotSettings
  3
ObjectDBX Classes
 90
    32768
280
     0
281
     0
  0
CLASS
  1
ACDBDICTIONARYWDFLT
  2
AcDbDictionaryWithDefault
  3
ObjectDBX Classes
 90
        0
280
     0
281
     0
  0
CLASS
  1
ACDBPLACEHOLDER
  2
AcDbPlaceHolder
  3
ObjectDBX Classes
 90
        0
280
     0
281
     0
  0
CLASS
  1
VBA_PROJECT
  2
AcDbVbaProject
  3
acad
 90
    32768
280
     0
281
     0
  0
CLASS
  1
WIPEOUT
  2
AcDbWipeout
  3
"WipeOut|Product Desc: Object Enabler for WipeOut entity^I^I^I^I^I^I|Company: Autodesk, Inc.^I^I^I^I^I^I|WEB Address: www.autodesk.com"
 90
    32895
280
     0
281
     1
  0
CLASS
  1
WIPEOUTVARIABLES
  2
AcDbWipeoutVariables
  3
"WipeOut|Product Desc:     WipeOut Dbx Application|Company:          Autodesk, Inc.|WEB Address:      www.autodesk.com"
 90
    32768
280
     0
281
     0
  0
CLASS
  1
RTEXT
  2
RText
  3
RText|AutoCAD Express Tool|expresstools@autodesk.com
 90
    32768
280
     0
281
     1
  0
CLASS
  1
ARCALIGNEDTEXT
  2
AcDbArcAlignedText
  3
ATEXT|AutoCAD Express Tool|expresstools@autodesk.com
 90
    32768
280
     0
281
     1
  0
CLASS
  1
TABLESTYLE
  2
AcDbTableStyle
  3
ObjectDBX Classes
 90
     2047
280
     0
281
     0
  0
CLASS
  1
AMGSETTINGSOBJ
  2
AmgSettingsObj
  3
"AcadM|Product Description: AutoCAD Mechanical 2000|Company: Autodesk"
 90
        0
280
     0
281
     0
  0
CLASS
  1
ACME_DOCUMENT
  2
AcMeDbDoc
  3
AcMeServices
 90
        0
280
     0
281
     0
  0
CLASS
  1
ACMESCOPE
  2
AcMeScope
  3
AcMeServices
 90
        0
280
     0
281
     0
  0
CLASS
  1
ACMECOMMANDHISTORY
  2
AcMeCommandHistory
  3
AcMeServices
 90
        0
280
     0
281
     0
  0
CLASS
  1
ACIMSYSVARMAN
  2
AcImSysVarManager
  3
AcMeServices
 90
        0
280
     0
281
     0
  0
CLASS
  1
ACIMREALSYSVAR
  2
AcImRealSysVar
  3
AcMeServices
 90
        0
280
     0
281
     0
  0
CLASS
  1
ACIMINTSYSVAR
  2
AcImIntSysVar
  3
AcMeServices
 90
        0
280
     0
281
     0
  0
CLASS
  1
ACMEDRAWINGMAN
  2
AcMeDrawingMan
  3
AcMeServices
 90
        0
280
     0
281
     0
  0
CLASS
  1
ACMEVIEW
  2
AcMeView
  3
AcMeServices
 90
        0
280
     0
281
     0
  0
CLASS
  1
ACDBENTITYCACHE
  2
AcMeEntityCache
  3
AcMeServices
 90
        0
280
     0
281
     0
  0
CLASS
  1
GSMANAGER
  2
AcMeGSManager
  3
AcMeServices
 90
        0
280
     0
281
     0
  0
CLASS
  1
AMDTINTERNALREACTOR
  2
AmdtInternalReactor
  3
AcMeServices
 90
        0
280
     0
281
     0
  0
CLASS
  1
ACMESTATEMGR
  2
AcMeStateMgr
  3
AcMeServices
 90
        0
280
     0
281
     0
  0
CLASS
  1
ACGREFMASTER
  2
AcGrefMaster
  3
AcAttribServices
 90
        0
280
     0
281
     0
  0
CLASS
  1
AM_DRAWING_MGR
  2
AcDmDwgMgr
  3
AcMechDwgViewMgmt
 90
        0
280
     0
281
     0
  0
CLASS
  1
AM_DWG_DOCUMENT
  2
AcDmDwgDocument
  3
AcMechDwgViewMgmt
 90
        0
280
     0
281
     0
  0
CLASS
  1
AM_DWG_SHEET
  2
AcDmSheet
  3
AcMechDwgViewMgmt
 90
        0
280
     0
281
     0
  0
CLASS
  1
AM_VIEWDIMPARMAP
  2
AcDmViewDimParMap
  3
AcMechDwgViewMgmt
 90
        0
280
     0
281
     0
  0
CLASS
  1
AM_DWGMGR_NAME
  2
AcDmDwgMgrName
  3
AcMechDwgViewMgmt
 90
        0
280
     0
281
     0
  0
CLASS
  1
ACME_DATABASE
  2
AcMeDbDatabase
  3
AcMeServices
 90
        0
280
     0
281
     0
  0
CLASS
  1
ACRFINSADJUSTERMGR
  2
AcRfInsAdjusterMgr
  3
AcMeServices
 90
        0
280
     0
281
     0
  0
CLASS
  1
ACGREFACADMASTER
  2
AcGrefacadMaster
  3
AcGrefServices
 90
        0
280
     0
281
     0
  0
CLASS
  1
AMDTMENUSTATEMGR
  2
AmdtMenuStateMgr
  3
McadcomServices
 90
        0
280
     0
281
     0
  0
CLASS
  1
AMDTMCOMMENUSTATE
  2
AmdtMcomMenuState
  3
McadcomServices
 90
        0
280
     0
281
     0
  0
CLASS
  1
AMIMASTER
  2
AmiMaster
  3
AmiServices
 90
        0
280
     0
281
     0
  0
CLASS
  1
ASAPP
  2
AcAsAppObject
  3
AutoSurfServices
 90
        0
280
     0
281
     0
  0
CLASS
  1
IM_STATIC_MAN
  2
AcImStaticVarManager
  3
AcMeServices
 90
        0
280
     0
281
     0
  0
CLASS
  1
ACIMSTRSYSVAR
  2
AcImStrSysVar
  3
AcMeServices
 90
        0
280
     0
281
     0
  0
CLASS
  1
ACIMDBLSTATICVAR
  2
AcImDblStaticVar
  3
AcMeServices
 90
        0
280
     0
281
     0
  0
CLASS
  1
ACIMSTRSTATICVAR
  2
AcImStrStaticVar
  3
AcMeServices
 90
        0
280
     0
281
     0
  0
CLASS
  1
ACIMINTSTATICVAR
  2
AcImIntStaticVar
  3
AcMeServices
 90
        0
280
     0
281
     0
  0
CLASS
  1
ACASGREFMASTER
  2
AcAsGrefMaster
  3
AutoSurfResolverServices
 90
        0
280
     0
281
     0
  0
CLASS
  1
ACADGREFMODULE
  2
AcAdGrefModule
  3
AdGrefServices
 90
        0
280
     0
281
     0
  0
CLASS
  1
AMDTMAPISURFMOUDULE
  2
AmdtMApiSurfModule
  3
MApiSurfServices
 90
        0
280
     0
281
     0
  0
CLASS
  1
MAPIAMMOUDLE
  2
MApiAmModule
  3
MApiAmServices
 90
        0
280
     0
281
     0
  0
CLASS
  1
AMDTADMENUSTATE
  2
AmdtAdMenuState
  3
DesignerServices
 90
        0
280
     0
281
     0
  0
CLASS
  1
ADAPPL
  2
AcAdAppl
  3
DesignerServices
 90
        0
280
     0
281
     0
  0
CLASS
  1
DEPMGR
  2
AcAdDepMgr
  3
DesignerServices
 90
        0
280
     0
281
     0
  0
CLASS
  1
PARAMMGR
  2
AcAdParamMgr
  3
DesignerServices
 90
        0
280
     0
281
     0
  0
CLASS
  1
PARAMSCOPE
  2
AcAdParamScope
  3
DesignerServices
 90
        0
280
     0
281
     0
  0
CLASS
  1
NAMEDAPPL
  2
AcAdNamedAppl
  3
DesignerServices
 90
        0
280
     0
281
     0
  0
CLASS
  1
AMDTDMMENUSTATE
  2
AmdtDmMenuState
  3
AcMechDwgViewMgmt
 90
        0
280
     0
281
     0
  0
CLASS
  1
MAPIADMODULE
  2
MApiAdModule
  3
MApiAdServices
 90
        0
280
     0
281
     0
  0
CLASS
  1
AMDTAMMENUSTATE
  2
AmdtAmMenuState
  3
DesignerAssemblies
 90
        0
280
     0
281
     0
  0
CLASS
  1
ACAMPROJECT
  2
AcAmProject
  3
DesignerAssemblies
 90
        0
280
     0
281
     0
  0
CLASS
  1
ACAMGRCOMPDEF
  2
AcAmGrCompDef
  3
DesignerAssemblies
 90
        0
280
     0
281
     0
  0
CLASS
  1
ACCMCONTEXT
  2
AcCmContext
  3
DesignerAssemblies
 90
        0
280
     0
281
     0
  0
CLASS
  1
ACAMCOMPDEF
  2
AcAmCompDef
  3
DesignerAssemblies
 90
        0
280
     0
281
     0
  0
CLASS
  1
ACAMCOMPDEFMGR
  2
AcAmCompDefMgr
  3
DesignerAssemblies
 90
        0
280
     0
281
     0
  0
CLASS
  1
AMCONTEXTMGR
  2
AcAmContextMgr
  3
DesignerAssemblies
 90
        0
280
     0
281
     0
  0
CLASS
  1
ACAMCONTEXTMODELER
  2
AcAmContextModeler
  3
DesignerAssemblies
 90
        0
280
     0
281
     0
  0
CLASS
  1
ACMDATADICTIONARY
  2
AcmDataDictionary
  3
"AcmSymBB|Product Description: AutoCAD Mechanical 2004 DX|Company: Autodesk"
 90
        0
280
     0
281
     0
  0
CLASS
  1
ACMDATAENTRYBLOCK
  2
AcmDataEntryBlock
  3
"AcmSymBB|Product Description: AutoCAD Mechanical 2004 DX|Company: Autodesk"
 90
        0
280
     0
281
     0
  0
CLASS
  1
CATALOGSTATE
  2
AcAmCatalogState
  3
DesignerAssemblies
 90
        0
280
     0
281
     0
  0
CLASS
  1
ACAMGRCOMPDEFSET
  2
AcAmGrCompDefSet
  3
DesignerAssemblies
 90
        0
280
     0
281
     0
  0
CLASS
  1
AMDTBROWSERDBTAB
  2
AmdtBrowserDbTab
  3
McadcomServices
 90
        0
280
     0
281
     0
  0
CLASS
  1
CBROWSERAPPOBJECT
  2
CBrowserAppObject
  3
McadcomServices
 90
        0
280
     0
281
     0
  0
CLASS
  1
DM_PLACEHOLDER
  2
AcDmSelsetPlaceholder
  3
AcMechDwgViewMgmt
 90
        0
280
     0
281
     0
  0
CLASS
  1
ACMSTANDARDISO
  2
AcmStandardISO
  3
"Amdt_StdImp|Product Description: AutoCAD Mechanical 2004 DX|Company: Autodesk"
 90
        0
280
     0
281
     0
  0
CLASS
  1
AMGOBJPROPCFG
  2
AmgObjPropCfg
  3
"AmgLay|Product Description: AutoCAD Mechanical 2000|Company: Autodesk"
 90
        1
280
     0
281
     0
  0
CLASS
  1
AMDTEDGESTANDARDISO13715
  2
AmdtEdgeStdISO13715
  3
"Amdt_StdImp|Product Description: AutoCAD Mechanical 2004 DX|Company: Autodesk"
 90
        0
280
     0
281
     0
  0
CLASS
  1
ACMSURFSTANDARDISO
  2
AcmSurfTextStdISO
  3
"Amdt_StdImp|Product Description: AutoCAD Mechanical 2004 DX|Company: Autodesk"
 90
        0
280
     0
281
     0
  0
CLASS
  1
ACMFCFSTANDARDISO
  2
AcmFCFStdISO
  3
"Amdt_StdImp|Product Description: AutoCAD Mechanical 2004 DX|Company: Autodesk"
 90
        0
280
     0
281
     0
  0
CLASS
  1
ACMWELDSTANDARDISO
  2
AcmWeldingStdISO
  3
"Amdt_StdImp|Product Description: AutoCAD Mechanical 2004 DX|Company: Autodesk"
 90
        0
280
     0
281
     0
  0
CLASS
  1
ACMIDSTANDARDISO
  2
AcmIdStdISO
  3
"Amdt_StdImp|Product Description: AutoCAD Mechanical 2004 DX|Company: Autodesk"
 90
        0
280
     0
281
     0
  0
CLASS
  1
ACMDATUMSTANDARDISO
  2
AcmDatumStdISO
  3
"Amdt_StdImp|Product Description: AutoCAD Mechanical 2004 DX|Company: Autodesk"
 90
        0
280
     0
281
     0
  0
CLASS
  1
ACMBOMSTANDARDISO
  2
AcmBOMStdISO
  3
"Amdt_StdImp|Product Description: AutoCAD Mechanical 2004 DX|Company: Autodesk"
 90
        0
280
     0
281
     0
  0
CLASS
  1
ACMDETAILSTANDARDISO
  2
AmdtDetailSymStdISO
  3
"Amdt_StdImp|Product Description: AutoCAD Mechanical 2004 DX|Company: Autodesk"
 90
        0
280
     0
281
     0
  0
CLASS
  1
ACMSECTIONSTANDARDISO
  2
AmdtSectionSymStdISO
  3
"Amdt_StdImp|Product Description: AutoCAD Mechanical 2004 DX|Company: Autodesk"
 90
        0
280
     0
281
     0
  0
CLASS
  1
ACMCENTERLINESTANDARDISO
  2
AmdtCenterLineStdISO
  3
"Amdt_StdImp|Product Description: AutoCAD Mechanical 2004 DX|Company: Autodesk"
 90
        0
280
     0
281
     0
  0
CLASS
  1
ACMTHREADLINESTANDARDISO
  2
AmdtThreadLineStdISO
  3
"Amdt_StdImp|Product Description: AutoCAD Mechanical 2004 DX|Company: Autodesk"
 90
        0
280
     0
281
     0
  0
CLASS
  1
ACMNOTESTANDARDISO
  2
AmdtNoteStdISO
  3
"Amdt_StdImp|Product Description: AutoCAD Mechanical 2004 DX|Company: Autodesk"
 90
        0
280
     0
281
     0
  0
CLASS
  1
AMDTNOTETEMPLATEDB
  2
AmdtNoteTemplateDB
  3
AMDT_STDIMP_MODULE_NAME
 90
        0
280
     0
281
     0
  0
CLASS
  1
ACAMGLAYSTD
  2
AcAmgLayStd
  3
"AcAmgLayStd|Product Description: AutoCAD Mechanical 2000|Company: Autodesk"
 90
        0
280
     0
281
     0
  0
CLASS
  1
ACAMGDIMSTD
  2
AcAmgDimStd
  3
"AcAmgDimStd|Product Description: AutoCAD Mechanical 2000|Company: Autodesk"
 90
        0
280
     0
281
     0
  0
CLASS
  1
ACAMGHOLECHARTSTDISO
  2
AcAmgHoleChartStdISO
  3
ACMSYMBB_MODULE_NAME
 90
        0
280
     0
281
     0
  0
CLASS
  1
ACAMGTITLESTD
  2
AcAmgTitleStd
  3
"TITLEAPP"
 90
        0
280
     0
281
     0
  0
CLASS
  1
ACAMGFILTERDAT
  2
AcAmgFilterDat
  3
"AcadM|Product Description: AutoCAD Mechanical 2000|Company: Autodesk"
 90
        0
280
     0
281
     0
  0
ENDSEC
  0
SECTION
  2
TABLES
  0
TABLE
  2
VPORT
  5
7
330
0
100
AcDbSymbolTable
 70
     3
  0
VPORT
  5
2B1
330
7
100
AcDbSymbolTableRecord
100
AcDbViewportTableRecord
  2
*Active
 70
     0
 10
0.0
 20
0.0
 11
1.0
 21
1.0
 12
75.17209435226039
 22
4591.494167541244
 13
0.0
 23
0.0
 14
1.0
 24
1.0
 15
0.0
 25
0.0
 16
0.0
 26
0.0
 36
1.0
 17
8.53664292203609
 27
4.579183999999999
 37
0.0
 40
562.3122685283767
 41
1.113389626055488
 42
50.0
 43
0.0
 44
0.0
 50
0.0
 51
0.0
 71
     0
 72
   100
 73
     1
 74
     1
 75
     0
 76
     0
 77
     0
 78
     0
281
     0
 65
     0
110
0.0
120
0.0
130
0.0
111
1.0
121
0.0
131
0.0
112
0.0
122
1.0
132
0.0
 79
     0
146
0.0
  0
ENDTAB
  0
TABLE
  2
LTYPE
  5
4
330
0
100
AcDbSymbolTable
 70
    23
  0
LTYPE
  5
11
330
4
100
AcDbSymbolTableRecord
100
AcDbLinetypeTableRecord
  2
BYBLOCK
 70
     0
  3

 72
    65
 73
     0
 40
0.0
  0
LTYPE
  5
12
330
4
100
AcDbSymbolTableRecord
100
AcDbLinetypeTableRecord
  2
BYLAYER
 70
     0
  3

 72
    65
 73
     0
 40
0.0
  0
LTYPE
  5
13
330
4
100
AcDbSymbolTableRecord
100
AcDbLinetypeTableRecord
  2
CONTINUOUS
 70
     0
  3
Solid line
 72
    65
 73
     0
 40
0.0
  0
LTYPE
  5
1D
330
4
100
AcDbSymbolTableRecord
100
AcDbLinetypeTableRecord
  2
DASHED
 70
     0
  3
Dashed
 72
    65
 73
     2
 40
15.0
 49
12.0
 74
     0
 49
-3.0
 74
     0
  0
LTYPE
  5
1E
330
4
100
AcDbSymbolTableRecord
100
AcDbLinetypeTableRecord
  2
DOTTED
 70
     0
  3
Dotted
 72
    65
 73
     2
 40
3.5
 49
0.5
 74
     0
 49
-3.0
 74
     0
  0
LTYPE
  5
1F
330
4
100
AcDbSymbolTableRecord
100
AcDbLinetypeTableRecord
  2
DOT_CENTER
 70
     0
  3
Dot_Center
 72
    65
 73
     4
 40
2.0
 49
1.25
 74
     0
 49
-0.25
 74
     0
 49
0.25
 74
     0
 49
-0.25
 74
     0
  0
LTYPE
  5
20
330
4
100
AcDbSymbolTableRecord
100
AcDbLinetypeTableRecord
  2
LONG_DASHED
 70
     0
  3
Long_Dashed
 72
    65
 73
     2
 40
2.0
 49
1.5
 74
     0
 49
-0.5
 74
     0
  0
LTYPE
  5
21
330
4
100
AcDbSymbolTableRecord
100
AcDbLinetypeTableRecord
  2
DASH_CENTER
 70
     0
  3
Dash_Center
 72
    65
 73
     4
 40
36.0
 49
24.0
 74
     0
 49
-3.0
 74
     0
 49
6.0
 74
     0
 49
-3.0
 74
     0
  0
LTYPE
  5
22
330
4
100
AcDbSymbolTableRecord
100
AcDbLinetypeTableRecord
  2
PHANTOM
 70
     0
  3
Phantom
 72
    65
 73
     6
 40
2.5
 49
1.25
 74
     0
 49
-0.25
 74
     0
 49
0.25
 74
     0
 49
-0.25
 74
     0
 49
0.25
 74
     0
 49
-0.25
 74
     0
  0
LTYPE
  5
23
330
4
100
AcDbSymbolTableRecord
100
AcDbLinetypeTableRecord
  2
CENTER_DASH_DASH
 70
     0
  3
Center_Dash_Dash
 72
    65
 73
     6
 40
22.0
 49
12.0
 74
     0
 49
-3.0
 74
     0
 49
0.5
 74
     0
 49
-3.0
 74
     0
 49
0.5
 74
     0
 49
-3.0
 74
     0
  0
LTYPE
  5
1BC
330
4
100
AcDbSymbolTableRecord
100
AcDbLinetypeTableRecord
  2
HIDDEN
 70
     0
  3
Hidden __ __ __ __ __ __ __ __ __ __ __ __ __ _
 72
    65
 73
     2
 40
9.524999999999998
 49
6.349999999999999
 74
     0
 49
-3.174999999999999
 74
     0
  0
LTYPE
  5
1BD
330
4
100
AcDbSymbolTableRecord
100
AcDbLinetypeTableRecord
  2
PHANTOM2
 70
     0
  3
Phantom (.5x) ___ _ _ ___ _ _ ___ _ _ ___ _ _
 72
    65
 73
     6
 40
31.75
 49
15.875
 74
     0
 49
-3.174999999999999
 74
     0
 49
3.174999999999999
 74
     0
 49
-3.174999999999999
 74
     0
 49
3.174999999999999
 74
     0
 49
-3.174999999999999
 74
     0
  0
LTYPE
  5
1BE
330
4
100
AcDbSymbolTableRecord
100
AcDbLinetypeTableRecord
  2
CENTER
 70
     0
  3
Center ____ _ ____ _ ____ _ ____ _ ____ _ ____
 72
    65
 73
     4
 40
50.8
 49
31.75
 74
     0
 49
-6.349999999999999
 74
     0
 49
6.349999999999999
 74
     0
 49
-6.349999999999999
 74
     0
  0
LTYPE
  5
20D
330
4
100
AcDbSymbolTableRecord
100
AcDbLinetypeTableRecord
  2
ASULTYPE
 70
     0
  3
実線
 72
    65
 73
     2
 40
3.0
 49
2.5
 74
     0
 49
0.5
 74
     0
  0
LTYPE
  5
20E
330
4
100
AcDbSymbolTableRecord
100
AcDbLinetypeTableRecord
  2
ASVLTYPE
 70
     0
  3
__ __ __ __ __ __ __ __ __ __ __ __ __ __ __ __ __ __ __ __ __
 72
    65
 73
     2
 40
0.75
 49
0.5
 74
     0
 49
-0.25
 74
     0
  0
LTYPE
  5
255
330
4
100
AcDbSymbolTableRecord
100
AcDbLinetypeTableRecord
  2
AM_ISO02W050
 70
     0
  3
__ __ __ __ __ __ __ __ __ __ __ __ __ __ __
 72
    65
 73
     2
 40
7.5
 49
6.0
 74
     0
 49
-1.5
 74
     0
  0
LTYPE
  5
256
330
4
100
AcDbSymbolTableRecord
100
AcDbLinetypeTableRecord
  2
AM_ISO08W050
 70
     0
  3
____ . ____ . ____ . ____ . ____ . ____ . ____
 72
    65
 73
     4
 40
18.0
 49
12.0
 74
     0
 49
-1.5
 74
     0
 49
3.0
 74
     0
 49
-1.5
 74
     0
  0
LTYPE
  5
257
330
4
100
AcDbSymbolTableRecord
100
AcDbLinetypeTableRecord
  2
AM_ISO09W050
 70
     0
  3
_____ . . _____ . . _____ . . ____ .. ____
 72
    65
 73
     6
 40
22.5
 49
12.0
 74
     0
 49
-1.5
 74
     0
 49
3.0
 74
     0
 49
-1.5
 74
     0
 49
3.0
 74
     0
 49
-1.5
 74
     0
  0
LTYPE
  5
258
330
4
100
AcDbSymbolTableRecord
100
AcDbLinetypeTableRecord
  2
Amconstr
 70
     0
  3
_______________________
 72
    65
 73
     2
 40
9999.0
 49
9999.0
 74
     0
 49
0.0
 74
     0
  0
LTYPE
  5
259
330
4
100
AcDbSymbolTableRecord
100
AcDbLinetypeTableRecord
  2
AM_ISO08W050x2
 70
     0
  3
__ . __ . __ . __ . __ . __
 72
    65
 73
     4
 40
9.0
 49
6.0
 74
     0
 49
-0.75
 74
     0
 49
1.5
 74
     0
 49
-0.75
 74
     0
  0
LTYPE
  5
25A
330
4
100
AcDbSymbolTableRecord
100
AcDbLinetypeTableRecord
  2
AM_ISO02W050x2
 70
     0
  3
 _ _ _ _ _ _ _ _ _ _ _ _
 72
    65
 73
     2
 40
3.75
 49
3.0
 74
     0
 49
-0.75
 74
     0
  0
LTYPE
  5
25D
330
4
100
AcDbSymbolTableRecord
100
AcDbLinetypeTableRecord
  2
Amzigzag
 70
     0
  3
/\/-/\/-/\/-/\/-/\/-/\/
 72
    65
 73
     2
 40
11.0001
 49
0.0001
 74
     4
 75
   136
340
25C
 46
0.04
 50
0.0
 44
0.0
 45
0.0
 49
-11.0
 74
     0
  0
LTYPE
  5
26C
330
4
100
AcDbSymbolTableRecord
100
AcDbLinetypeTableRecord
  2
ACISOWELD
 70
     0
  3
_ _ _ _ _
 72
    65
 73
     2
 40
2.0
 49
2.0
 74
     0
 49
-1.0
 74
     0
  0
LTYPE
  5
26D
330
4
100
AcDbSymbolTableRecord
100
AcDbLinetypeTableRecord
  2
ACISOTGB
 70
     0
  3
__ . . __ . .
 72
    65
 73
     6
 40
9.0
 49
4.0
 74
     0
 49
-1.0
 74
     0
 49
1.0
 74
     0
 49
-1.0
 74
     0
 49
1.0
 74
     0
 49
-1.0
 74
     0
  0
LTYPE
  5
26E
330
4
100
AcDbSymbolTableRecord
100
AcDbLinetypeTableRecord
  2
ACISOTGL
 70
     0
  3
_ _ _ _ _
 72
    65
 73
     2
 40
3.0
 49
2.0
 74
     0
 49
-1.0
 74
     0
  0
ENDTAB
  0
TABLE
  2
LAYER
  5
2
330
0
100
AcDbSymbolTable
 70
     2
  0
LAYER
  5
14
330
2
100
AcDbSymbolTableRecord
100
AcDbLayerTableRecord
  2
0
 70
     0
 62
     7
  6
CONTINUOUS
370
    -3
390
17B
  0
LAYER
  5
24
330
2
100
AcDbSymbolTableRecord
100
AcDbLayerTableRecord
  2
1
 70
     0
 62
     7
  6
CONTINUOUS
370
    -3
390
17B
  0
ENDTAB
  0
TABLE
  2
STYLE
  5
3
330
0
100
AcDbSymbolTable
 70
     5
  0
STYLE
  5
17
330
3
100
AcDbSymbolTableRecord
100
AcDbTextStyleTableRecord
  2
STANDARD
 70
     0
 40
0.0
 41
1.0
 50
0.0
 71
     0
 42
0.0
  3
txt
  4

  0
STYLE
  5
174
330
3
100
AcDbSymbolTableRecord
100
AcDbTextStyleTableRecord
  2
CONVERTER_1
 70
     0
 40
0.0
 41
0.95
 50
10.0
 71
     0
 42
0.0
  3
txt
  4

  0
STYLE
  5
25C
330
3
100
AcDbSymbolTableRecord
100
AcDbTextStyleTableRecord
  2

 70
     1
 40
0.0
 41
1.0
 50
0.0
 71
     0
 42
0.2
  3
genltshp.shx
  4

  0
STYLE
  5
25E
330
3
100
AcDbSymbolTableRecord
100
AcDbTextStyleTableRecord
  2
ACISOTS
 70
     0
 40
1.0
 41
1.0
 50
0.0
 71
     0
 42
0.2
  3
isocp.shx
  4
extfont.shx
  0
STYLE
  5
26B
330
3
100
AcDbSymbolTableRecord
100
AcDbTextStyleTableRecord
  2
ACISOGDT
 70
     0
 40
0.0
 41
1.0
 50
0.0
 71
     0
 42
0.2
  3
AMGDT
  4

  0
ENDTAB
  0
TABLE
  2
VIEW
  5
5
330
0
100
AcDbSymbolTable
 70
     0
  0
ENDTAB
  0
TABLE
  2
UCS
  5
6
330
0
100
AcDbSymbolTable
 70
     0
  0
ENDTAB
  0
TABLE
  2
APPID
  5
8
330
0
100
AcDbSymbolTable
 70
    16
  0
APPID
  5
16
330
8
100
AcDbSymbolTableRecord
100
AcDbRegAppTableRecord
  2
ACAD
 70
     0
  0
APPID
  5
188
330
8
100
AcDbSymbolTableRecord
100
AcDbRegAppTableRecord
  2
GENIUS_GENDIM_13
 70
     0
  0
APPID
  5
189
330
8
100
AcDbSymbolTableRecord
100
AcDbRegAppTableRecord
  2
GENIUS_GENDTOL_13
 70
     0
  0
APPID
  5
18A
330
8
100
AcDbSymbolTableRecord
100
AcDbRegAppTableRecord
  2
GENIUS_GE3DTOL_13
 70
     0
  0
APPID
  5
18D
330
8
100
AcDbSymbolTableRecord
100
AcDbRegAppTableRecord
  2
MCAD_NO_VIS
 70
     0
  0
APPID
  5
18E
330
8
100
AcDbSymbolTableRecord
100
AcDbRegAppTableRecord
  2
ACAD_TEMP_GRAPHIC
 70
     0
  0
APPID
  5
1C0
330
8
100
AcDbSymbolTableRecord
100
AcDbRegAppTableRecord
  2
AD_DRAW
 70
     0
  0
APPID
  5
1C3
330
8
100
AcDbSymbolTableRecord
100
AcDbRegAppTableRecord
  2
ACATTRIBSERVICES
 70
     0
  0
APPID
  5
20F
330
8
100
AcDbSymbolTableRecord
100
AcDbRegAppTableRecord
  2
ASURF_PCURVE_APPNAME
 70
     0
  0
APPID
  5
214
330
8
100
AcDbSymbolTableRecord
100
AcDbRegAppTableRecord
  2
AMG_3D2D_5.0
 70
     0
  0
APPID
  5
245
330
8
100
AcDbSymbolTableRecord
100
AcDbRegAppTableRecord
  2
DESIGNERASSEMBLIES
 70
     0
  0
APPID
  5
24C
330
8
100
AcDbSymbolTableRecord
100
AcDbRegAppTableRecord
  2
ACADM_DIM_EDIT
 70
     0
  0
APPID
  5
24D
330
8
100
AcDbSymbolTableRecord
100
AcDbRegAppTableRecord
  2
AMDT_DM_ADJ
 70
     0
  0
APPID
  5
27B
330
8
100
AcDbSymbolTableRecord
100
AcDbRegAppTableRecord
  2
ACAD_DSTYLE_DIMARC_LENGTH_SYMBOL
 70
     0
  0
APPID
  5
27C
330
8
100
AcDbSymbolTableRecord
100
AcDbRegAppTableRecord
  2
ACAD_DSTYLE_DIMJOGGED_JOGANGLE_SYMBOL
 70
     0
  0
APPID
  5
2A5
330
8
100
AcDbSymbolTableRecord
100
AcDbRegAppTableRecord
  2
DCO15
 70
     0
  0
ENDTAB
  0
TABLE
  2
DIMSTYLE
  5
9
330
0
100
AcDbSymbolTable
 70
     8
100
AcDbDimStyleTable
 71
     0
  0
DIMSTYLE
105
18
330
9
100
AcDbSymbolTableRecord
100
AcDbDimStyleTableRecord
  2
STANDARD
 70
     0
340
17
  0
DIMSTYLE
105
27A
330
9
100
AcDbSymbolTableRecord
100
AcDbDimStyleTableRecord
  2
AM_ISO
 70
     0
  4
"
 41
2.5
 42
1.0
 43
10.0
 44
1.0
 47
0.1
 48
0.1
 73
     0
 74
     0
 77
     1
 78
     8
 79
     2
140
3.5
141
0.0
143
0.0393701
146
0.71
147
1.5
172
     1
176
   256
177
   256
178
     2
271
     2
272
     3
274
     4
283
     0
284
     8
340
17
371
    -1
372
    -1
1001
ACAD_DSTYLE_DIMARC_LENGTH_SYMBOL
1070
   379
1070
     1
1001
ACAD_DSTYLE_DIMJOGGED_JOGANGLE_SYMBOL
1070
   384
1040
0.7853981633974483
  0
DIMSTYLE
105
283
330
9
100
AcDbSymbolTableRecord
100
AcDbDimStyleTableRecord
  2
AM_ISO$3
 70
     0
  4
"
 41
2.5
 42
1.0
 43
10.0
 44
1.0
 47
0.1
 48
0.1
 73
     0
 77
     1
 78
     8
 79
     2
140
3.5
141
0.0
143
0.0393701
146
0.71
147
1.5
176
   256
177
   256
178
     2
271
     2
272
     3
274
     4
283
     0
284
     8
288
     1
289
     0
340
17
371
    -1
372
    -1
1001
ACAD_DSTYLE_DIMARC_LENGTH_SYMBOL
1070
   379
1070
     1
1001
ACAD_DSTYLE_DIMJOGGED_JOGANGLE_SYMBOL
1070
   384
1040
0.7853981633974483
  0
DIMSTYLE
105
286
330
9
100
AcDbSymbolTableRecord
100
AcDbDimStyleTableRecord
  2
AM_ISO$4
 70
     0
  4
"
 41
2.5
 42
1.0
 43
10.0
 44
1.0
 47
0.1
 48
0.1
 73
     0
 77
     1
 78
     8
 79
     2
140
3.5
141
0.0
143
0.0393701
146
0.71
147
1.5
176
   256
177
   256
178
     2
271
     2
272
     3
274
     4
283
     0
284
     8
288
     1
289
     0
340
17
371
    -1
372
    -1
1001
ACAD_DSTYLE_DIMARC_LENGTH_SYMBOL
1070
   379
1070
     1
1001
ACAD_DSTYLE_DIMJOGGED_JOGANGLE_SYMBOL
1070
   384
1040
0.7853981633974483
  0
DIMSTYLE
105
289
330
9
100
AcDbSymbolTableRecord
100
AcDbDimStyleTableRecord
  2
AM_ISO$6
 70
     0
  4
"
 41
2.5
 42
1.0
 43
10.0
 44
1.0
 47
0.1
 48
0.1
 73
     0
 74
     0
 78
     8
 79
     2
140
3.5
141
0.0
143
0.0393701
146
0.71
147
1.5
172
     1
176
   256
177
   256
178
     2
271
     2
272
     3
274
     4
283
     0
284
     8
340
17
371
    -1
372
    -1
1001
ACAD_DSTYLE_DIMARC_LENGTH_SYMBOL
1070
   379
1070
     1
1001
ACAD_DSTYLE_DIMJOGGED_JOGANGLE_SYMBOL
1070
   384
1040
0.7853981633974483
  0
DIMSTYLE
105
28C
330
9
100
AcDbSymbolTableRecord
100
AcDbDimStyleTableRecord
  2
AM_ISO$7
 70
     0
  4
"
 41
2.5
 42
1.0
 43
10.0
 44
1.0
 47
0.1
 48
0.1
 73
     0
 74
     0
 77
     1
 78
     8
 79
     2
140
5.0
141
0.0
143
0.0393701
146
0.71
147
1.5
172
     1
176
   256
177
   256
178
     2
271
     2
272
     3
274
     4
283
     0
284
     8
340
17
371
    -1
372
    -1
1001
ACAD_DSTYLE_DIMARC_LENGTH_SYMBOL
1070
   379
1070
     1
1001
ACAD_DSTYLE_DIMJOGGED_JOGANGLE_SYMBOL
1070
   384
1040
0.7853981633974483
  0
DIMSTYLE
105
28F
330
9
100
AcDbSymbolTableRecord
100
AcDbDimStyleTableRecord
  2
AM_ISO$SF
 70
     0
  4
"
 41
2.5
 42
1.0
 43
10.0
 44
1.0
 47
0.1
 48
0.1
 73
     0
 74
     0
 75
     1
 76
     1
 77
     1
 78
     8
 79
     2
140
3.5
141
0.0
143
0.0393701
146
0.71
147
1.5
172
     1
176
   256
177
   256
178
     2
271
     2
272
     3
274
     4
283
     0
284
     8
340
17
371
    -1
372
    -1
1001
ACAD_DSTYLE_DIMARC_LENGTH_SYMBOL
1070
   379
1070
     1
1001
ACAD_DSTYLE_DIMJOGGED_JOGANGLE_SYMBOL
1070
   384
1040
0.7853981633974483
  0
DIMSTYLE
105
296
330
9
100
AcDbSymbolTableRecord
100
AcDbDimStyleTableRecord
  2
AM_ISO$SH
 70
     0
  4
"
 41
2.5
 42
1.0
 43
10.0
 44
1.0
 47
0.1
 48
0.1
 73
     0
 74
     0
 75
     1
 76
     1
 77
     1
 78
     8
 79
     2
140
3.5
141
0.0
143
0.0393701
144
2.0
146
0.71
147
1.5
172
     1
173
     1
176
   256
177
   256
178
     2
271
     2
272
     3
274
     4
283
     0
284
     8
340
17
343
290
371
    -1
372
    -1
1001
ACAD_DSTYLE_DIMARC_LENGTH_SYMBOL
1070
   379
1070
     1
1001
ACAD_DSTYLE_DIMJOGGED_JOGANGLE_SYMBOL
1070
   384
1040
0.7853981633974483
  0
ENDTAB
  0
TABLE
  2
BLOCK_RECORD
  5
1
330
0
100
AcDbSymbolTable
 70
     2
  0
BLOCK_RECORD
  5
A
102
{ACAD_XDICTIONARY
360
2A7
102
}
330
1
100
AcDbSymbolTableRecord
100
AcDbBlockTableRecord
  2
*MODEL_SPACE
340
182
  0
BLOCK_RECORD
  5
B
330
1
100
AcDbSymbolTableRecord
100
AcDbBlockTableRecord
  2
*PAPER_SPACE
340
183
  0
BLOCK_RECORD
  5
290
330
1
100
AcDbSymbolTableRecord
100
AcDbBlockTableRecord
  2
GENAXEH
340
0
  0
ENDTAB
  0
ENDSEC
  0
SECTION
  2
BLOCKS
  0
BLOCK
  5
D
330
A
100
AcDbEntity
  8
0
100
AcDbBlockBegin
  2
*MODEL_SPACE
 70
     0
 10
0.0
 20
0.0
 30
0.0
  3
*MODEL_SPACE
  1

  0
ENDBLK
  5
E
330
A
100
AcDbEntity
  8
0
100
AcDbBlockEnd
  0
BLOCK
  5
F
330
B
100
AcDbEntity
 67
     1
  8
0
100
AcDbBlockBegin
  2
*PAPER_SPACE
 70
     0
 10
0.0
 20
0.0
 30
0.0
  3
*PAPER_SPACE
  1

  0
ENDBLK
  5
10
330
B
100
AcDbEntity
 67
     1
  8
0
100
AcDbBlockEnd
  0
BLOCK
  5
292
330
290
100
AcDbEntity
  8
0
100
AcDbBlockBegin
  2
GENAXEH
 70
     0
 10
0.0
 20
0.0
 30
0.0
  3
GENAXEH
  1

  0
LINE
  5
291
330
290
100
AcDbEntity
  8
0
100
AcDbLine
 10
-1.0
 20
0.0
 30
0.0
 11
1.0
 21
0.0
 31
0.0
  0
ENDBLK
  5
293
330
290
100
AcDbEntity
  8
0
100
AcDbBlockEnd
  0
ENDSEC
  0
SECTION
  2
ENTITIES
  0
TEXT
  5
175
330
A
100
AcDbEntity
  8
1
 62
     6
100
AcDbText
 10
-216.422876989016
 20
4681.249909567088
 30
0.0
 40
4.32
  1
Rise Board Type B
 41
0.95
  7
CONVERTER_1
100
AcDbText
  0
ARC
  5
173
330
A
100
AcDbEntity
  8
1
  6
DOT_CENTER
 62
     1
100
AcDbCircle
 10
336.059260262599
 20
4542.779177629071
 30
0.0
 40
12.0
100
AcDbArc
 50
0.0
 51
90.0
  0
ARC
  5
172
330
A
100
AcDbEntity
  8
1
  6
Continuous
 62
     3
100
AcDbCircle
 10
336.059260262599
 20
4542.779177629071
 30
0.0
 40
15.5
100
AcDbArc
 50
0.0
 51
90.0
  0
ARC
  5
171
330
A
100
AcDbEntity
  8
1
  6
Continuous
 62
     3
100
AcDbCircle
 10
336.059260262599
 20
4542.779177629071
 30
0.0
 40
8.5
100
AcDbArc
 50
0.0
 51
90.0
  0
ARC
  5
170
330
A
100
AcDbEntity
  8
1
  6
Continuous
 62
     3
100
AcDbCircle
 10
50.05925847459899
 20
4542.779177629071
 30
0.0
 40
8.5
100
AcDbArc
 50
90.0
 51
180.0
  0
ARC
  5
16F
330
A
100
AcDbEntity
  8
1
  6
Continuous
 62
     3
100
AcDbCircle
 10
50.05925847459899
 20
4542.779177629071
 30
0.0
 40
15.5
100
AcDbArc
 50
90.0
 51
180.0
  0
ARC
  5
16E
330
A
100
AcDbEntity
  8
1
  6
DOT_CENTER
 62
     1
100
AcDbCircle
 10
50.05925847459899
 20
4542.779177629071
 30
0.0
 40
12.0
100
AcDbArc
 50
90.0
 51
180.0
  0
ARC
  5
16D
330
A
100
AcDbEntity
  8
1
  6
PHANTOM
 62
     1
100
AcDbCircle
 10
336.059260262599
 20
4653.545072609627
 30
0.0
 40
15.5
100
AcDbArc
 50
-90.0
 51
0.0
  0
ARC
  5
16C
330
A
100
AcDbEntity
  8
1
  6
DOT_CENTER
 62
     1
100
AcDbCircle
 10
336.059260262599
 20
4653.545072609627
 30
0.0
 40
12.0
100
AcDbArc
 50
-90.0
 51
0.0
  0
ARC
  5
16B
330
A
100
AcDbEntity
  8
1
  6
PHANTOM
 62
     1
100
AcDbCircle
 10
336.059260262599
 20
4653.545072609627
 30
0.0
 40
8.5
100
AcDbArc
 50
-90.0
 51
0.0
  0
ARC
  5
16A
330
A
100
AcDbEntity
  8
1
  6
PHANTOM
 62
     1
100
AcDbCircle
 10
50.05925847459899
 20
4653.545072609627
 30
0.0
 40
15.5
100
AcDbArc
 50
180.0
 51
-90.0
  0
ARC
  5
169
330
A
100
AcDbEntity
  8
1
  6
DOT_CENTER
 62
     1
100
AcDbCircle
 10
50.05925847459899
 20
4653.545072609627
 30
0.0
 40
12.0
100
AcDbArc
 50
180.0
 51
-90.0
  0
ARC
  5
168
330
A
100
AcDbEntity
  8
1
  6
PHANTOM
 62
     1
100
AcDbCircle
 10
50.05925847459899
 20
4653.545072609627
 30
0.0
 40
8.5
100
AcDbArc
 50
180.0
 51
-90.0
  0
SPLINE
  5
167
330
A
100
AcDbEntity
  8
0
  6
Continuous
 62
     3
100
AcDbSpline
210
0.0
220
0.0
230
1.0
 70
     8
 71
     3
 72
    25
 73
    21
 74
    19
 42
0.0000000001
 43
0.0000000001
 44
0.00000000001
 40
0.0
 40
0.0
 40
0.0
 40
0.0
 40
0.0166517890204776
 40
0.0324986138284147
 40
0.0530735047236035
 40
0.0756155203317541
 40
0.1045731922141814
 40
0.1326135928984711
 40
0.1619412786149189
 40
0.1911640336370451
 40
0.2221678282647923
 40
0.2532107979195218
 40
0.2863031429321654
 40
0.3193125901473341
 40
0.3556380592951998
 40
0.3936321111173435
 40
0.4278624028104789
 40
0.4595274757849106
 40
0.4858252324015586
 40
0.5129333562547297
 40
0.5129333562547297
 40
0.5129333562547297
 40
0.5129333562547297
 10
352.0592609186427
 20
4522.528842247034
 30
0.0
 10
352.0590174199846
 20
4522.534387642617
 30
0.0
 10
352.0585421936382
 20
4522.545210363794
 30
0.0
 10
352.0579946199982
 20
4522.562892072286
 30
0.0
 10
352.0562192581939
 20
4522.582499797269
 30
0.0
 10
352.0513437717367
 20
4522.606061726657
 30
0.0
 10
352.0441951704103
 20
4522.6316129904
 30
0.0
 10
352.0343916627763
 20
4522.65869724601
 30
0.0
 10
352.0223922394807
 20
4522.684987263612
 30
0.0
 10
352.007735926867
 20
4522.711028229307
 30
0.0
 10
351.9909045708146
 20
4522.73640046693
 30
0.0
 10
351.9716958123731
 20
4522.761658006854
 30
0.0
 10
351.950607538749
 20
4522.786254675657
 30
0.0
 10
351.927029143496
 20
4522.810966941931
 30
0.0
 10
351.9011506201974
 20
4522.835684717085
 30
0.0
 10
351.8741528490351
 20
4522.859782244764
 30
0.0
 10
351.847729475652
 20
4522.882172383815
 30
0.0
 10
351.8237436266862
 20
4522.901388370122
 30
0.0
 10
351.8013391029604
 20
4522.918771047728
 30
0.0
 10
351.7873126669678
 20
4522.929733229147
 30
0.0
 10
351.7801930321867
 20
4522.935297488532
 30
0.0
 11
352.0592609186427
 21
4522.528842247034
 31
0.0
 11
352.0585671594482
 21
4522.545479577822
 31
0.0
 11
352.0579069372693
 21
4522.561312643324
 31
0.0
 11
352.0559099584618
 21
4522.581790392492
 31
0.0
 11
352.0515584258449
 21
4522.603908408487
 31
0.0
 11
352.0437642090972
 21
4522.631797419694
 31
0.0
 11
352.0341950474187
 21
4522.658154491142
 31
0.0
 11
352.0220092353056
 21
4522.684830681511
 31
0.0
 11
352.0077331144027
 21
4522.710328951709
 31
0.0
 11
351.9906408685672
 21
4522.736195733759
 31
0.0
 11
351.9718815111769
 21
4522.760929364209
 31
0.0
 11
351.9503722585982
 21
4522.786078029223
 31
0.0
 11
351.927620906343
 21
4522.809994541845
 31
0.0
 11
351.9014180165775
 21
4522.835153005167
 31
0.0
 11
351.8731042625617
 21
4522.860488342296
 31
0.0
 11
351.8469733994841
 21
4522.8825992189
 31
0.0
 11
351.8222919765376
 21
4522.902436159386
 31
0.0
 11
351.8015619036954
 21
4522.918617509237
 31
0.0
 11
351.7801930321867
 21
4522.935297488532
 31
0.0
  0
SPLINE
  5
166
330
A
100
AcDbEntity
  8
0
  6
Continuous
 62
     3
100
AcDbSpline
210
0.0
220
0.0
230
1.0
 70
     8
 71
     3
 72
    15
 73
    11
 74
     9
 42
0.0000000001
 43
0.0000000001
 44
0.00000000001
 40
0.0
 40
0.0
 40
0.0
 40
0.0
 40
0.0277595762017168
 40
0.0535096326752099
 40
0.0886398709263725
 40
0.1299047308447527
 40
0.1751127933050465
 40
0.2165561800906204
 40
0.2413033743721303
 40
0.2626364351443529
 40
0.2626364351443529
 40
0.2626364351443529
 40
0.2626364351443529
 10
351.7801929800385
 20
4522.935297526918
 30
0.0
 10
351.7727355632779
 20
4522.940775552071
 30
0.0
 10
351.7583605732324
 20
4522.951335047348
 30
0.0
 10
351.7346449437953
 20
4522.968958360851
 30
0.0
 10
351.7067882108273
 20
4522.988551440597
 30
0.0
 10
351.6726910287336
 20
4523.010483249032
 30
0.0
 10
351.6364076834155
 20
4523.032883085943
 30
0.0
 10
351.6043565057142
 20
4523.051640342473
 30
0.0
 10
351.5789435863304
 20
4523.065971006871
 30
0.0
 10
351.5654890941399
 20
4523.073381201915
 30
0.0
 10
351.5592602766298
 20
4523.076811784951
 30
0.0
 11
351.7801929800385
 21
4522.935297526918
 31
0.0
 11
351.7578364653763
 21
4522.951752930985
 31
0.0
 11
351.7370983420388
 21
4522.967017125981
 31
0.0
 11
351.7083371590316
 21
4522.987189582241
 31
0.0
 11
351.6737326560184
 21
4523.009668840131
 31
0.0
 11
351.6352439129954
 21
4523.033383510105
 31
0.0
 11
351.59948426831
 21
4523.054331114269
 31
0.0
 11
351.5779306838467
 21
4523.066491156275
 31
0.0
 11
351.5592602766298
 21
4523.076811784951
 31
0.0
  0
SPLINE
  5
165
330
A
100
AcDbEntity
  8
0
  6
Continuous
 62
     3
100
AcDbSpline
210
0.0
220
0.0
230
1.0
 70
    24
 71
     3
 72
    23
 73
    19
 74
    17
 42
0.0000000001
 43
0.0000000001
 44
0.00000000001
 40
0.0
 40
0.0
 40
0.0
 40
0.0
 40
0.0827242836749065
 40
0.1465172668058585
 40
0.2561210141657284
 40
0.4096482118948189
 40
0.5930062514053134
 40
0.7250497507238834
 40
0.8940740617490519
 40
1.128819817651674
 40
1.385538081267441
 40
1.570874229788387
 40
1.778064331527275
 40
2.065055175839916
 40
2.36041270178066
 40
2.573433771055533
 40
2.788401649503612
 40
3.085353064076116
 40
3.085353064076116
 40
3.085353064076116
 40
3.085353064076116
 10
352.0592609182306
 20
4522.133270233393
 30
0.0
 10
352.0592609182306
 20
4522.105695472168
 30
0.0
 10
352.0592609182308
 20
4522.056856383232
 30
0.0
 10
352.0592609182305
 20
4521.971482711845
 30
0.0
 10
352.0592609182305
 20
4521.862508069102
 30
0.0
 10
352.0592609182307
 20
4521.713678407571
 30
0.0
 10
352.0592609182305
 20
4521.557368828718
 30
0.0
 10
352.0592609182305
 20
4521.395893545433
 30
0.0
 10
352.0592609182306
 20
4521.217289023351
 30
0.0
 10
352.0592609182306
 20
4520.997126246504
 30
0.0
 10
352.0592609182306
 20
4520.771526190491
 30
0.0
 10
352.0592609182305
 20
4520.555111352531
 30
0.0
 10
352.0592609182307
 20
4520.328605654341
 30
0.0
 10
352.0592609182305
 20
4520.065426163677
 30
0.0
 10
352.0592609182306
 20
4519.800303017168
 30
0.0
 10
352.0592609182306
 20
4519.559187525945
 30
0.0
 10
352.0592609182305
 20
4519.317540738514
 30
0.0
 10
352.0592609182306
 20
4519.146900974174
 30
0.0
 10
352.0592609182306
 20
4519.047917169316
 30
0.0
 11
352.0592609182306
 21
4522.133270233393
 31
0.0
 11
352.0592609182307
 21
4522.050545949718
 31
0.0
 11
352.0592609182306
 21
4521.986752966586
 31
0.0
 11
352.0592609182306
 21
4521.877149219228
 31
0.0
 11
352.0592609182306
 21
4521.723622021498
 31
0.0
 11
352.0592609182306
 21
4521.540263981988
 31
0.0
 11
352.0592609182306
 21
4521.408220482668
 31
0.0
 11
352.0592609182306
 21
4521.239196171644
 31
0.0
 11
352.0592609182306
 21
4521.004450415741
 31
0.0
 11
352.0592609182306
 21
4520.747732152125
 31
0.0
 11
352.0592609182306
 21
4520.562396003604
 31
0.0
 11
352.0592609182307
 21
4520.355205901865
 31
0.0
 11
352.0592609182306
 21
4520.068215057553
 31
0.0
 11
352.0592609182306
 21
4519.772857531612
 31
0.0
 11
352.0592609182306
 21
4519.559836462337
 31
0.0
 11
352.0592609182306
 21
4519.344868583889
 31
0.0
 11
352.0592609182306
 21
4519.047917169316
 31
0.0
  0
SPLINE
  5
164
330
A
100
AcDbEntity
  8
0
  6
Continuous
 62
     3
100
AcDbSpline
210
0.0
220
0.0
230
1.0
 70
    24
 71
     3
 72
    23
 73
    19
 74
    17
 42
0.0000000001
 43
0.0000000001
 44
0.00000000001
 40
0.0
 40
0.0
 40
0.0
 40
0.0
 40
0.3279651964949153
 40
0.5668592595202427
 40
0.8120248456571061
 40
1.15142502972867
 40
1.485389345739349
 40
1.72712804438197
 40
1.946432337258556
 40
2.249407214918392
 40
2.526782847339745
 40
2.726899945186232
 40
2.882057939971673
 40
3.097062453671242
 40
3.274742717055232
 40
3.401442484090694
 40
3.471784262692381
 40
3.562339871265066
 40
3.562339871265066
 40
3.562339871265066
 40
3.562339871265066
 10
344.0592596070285
 20
4518.537147388075
 30
0.0
 10
344.0592596070285
 20
4518.64646912024
 30
0.0
 10
344.0592596070285
 20
4518.835422206745
 30
0.0
 10
344.0592596070285
 20
4519.106097155298
 30
0.0
 10
344.0592596070286
 20
4519.380583766379
 30
0.0
 10
344.0592596070284
 20
4519.686760461782
 30
0.0
 10
344.0592596070285
 20
4519.991794861359
 30
0.0
 10
344.0592596070285
 20
4520.256797297202
 30
0.0
 10
344.0592596070284
 20
4520.511469920261
 30
0.0
 10
344.0592596070286
 20
4520.778021521247
 30
0.0
 10
344.0592596070284
 20
4521.038177390557
 30
0.0
 10
344.0592596070284
 20
4521.249060965574
 30
0.0
 10
344.0592596070284
 20
4521.439154167685
 30
0.0
 10
344.0592596070285
 20
4521.621768424973
 30
0.0
 10
344.0592596070284
 20
4521.794896606346
 30
0.0
 10
344.0592596070286
 20
4521.919803876023
 30
0.0
 10
344.0592596070283
 20
4522.01566959409
 30
0.0
 10
344.0592596070284
 20
4522.069302056482
 30
0.0
 10
344.0592596070285
 20
4522.09948725934
 30
0.0
 11
344.0592596070285
 21
4518.537147388075
 31
0.0
 11
344.0592596070285
 21
4518.86511258457
 31
0.0
 11
344.0592596070285
 21
4519.104006647595
 31
0.0
 11
344.0592596070285
 21
4519.349172233732
 31
0.0
 11
344.0592596070285
 21
4519.688572417804
 31
0.0
 11
344.0592596070285
 21
4520.022536733814
 31
0.0
 11
344.0592596070285
 21
4520.264275432457
 31
0.0
 11
344.0592596070285
 21
4520.483579725333
 31
0.0
 11
344.0592596070285
 21
4520.786554602993
 31
0.0
 11
344.0592596070284
 21
4521.063930235414
 31
0.0
 11
344.0592596070284
 21
4521.264047333261
 31
0.0
 11
344.0592596070284
 21
4521.419205328046
 31
0.0
 11
344.0592596070285
 21
4521.634209841746
 31
0.0
 11
344.0592596070285
 21
4521.81189010513
 31
0.0
 11
344.0592596070285
 21
4521.938589872166
 31
0.0
 11
344.0592596070284
 21
4522.008931650767
 31
0.0
 11
344.0592596070285
 21
4522.09948725934
 31
0.0
  0
SPLINE
  5
163
330
A
100
AcDbEntity
  8
0
  6
Continuous
 62
     3
100
AcDbSpline
210
0.0
220
0.0
230
1.0
 70
     8
 71
     3
 72
    15
 73
    11
 74
     9
 42
0.0000000001
 43
0.0000000001
 44
0.00000000001
 40
0.0
 40
0.0
 40
0.0
 40
0.0
 40
0.0071426138348499
 40
0.0130487230525945
 40
0.0351246059152237
 40
0.0672055311562688
 40
0.1120003269504405
 40
0.1457751651806804
 40
0.1867786385286317
 40
0.2406918919573837
 40
0.2406918919573837
 40
0.2406918919573837
 40
0.2406918919573837
 10
352.0592609182306
 20
4519.047917169316
 30
0.0
 10
352.0594029604665
 20
4519.050421182035
 30
0.0
 10
352.0596624550776
 20
4519.054995721447
 30
0.0
 10
352.0694735351478
 20
4519.062672179042
 30
0.0
 10
352.0894185423844
 20
4519.066194810066
 30
0.0
 10
352.121471876335
 20
4519.073514794878
 30
0.0
 10
352.1580300971978
 20
4519.078924710515
 30
0.0
 10
352.1975972150441
 20
4519.083730880603
 30
0.0
 10
352.240460856332
 20
4519.085988633653
 30
0.0
 10
352.2720741066837
 20
4519.08716589105
 30
0.0
 10
352.2900306169406
 20
4519.087834580107
 30
0.0
 11
352.0592609182306
 21
4519.047917169316
 31
0.0
 11
352.0607013668617
 21
4519.054913028101
 31
0.0
 11
352.0650227126588
 21
4519.058938956143
 31
0.0
 11
352.0860229397289
 21
4519.065745942786
 31
0.0
 11
352.117440018388
 21
4519.072238471789
 31
0.0
 11
352.1616840360008
 21
4519.079241373739
 31
0.0
 11
352.1952383326261
 21
4519.083094797601
 31
0.0
 11
352.2361607906788
 21
4519.08567108437
 31
0.0
 11
352.2900306169406
 21
4519.087834580107
 31
0.0
  0
SPLINE
  5
162
330
A
100
AcDbEntity
  8
0
  6
Continuous
 62
     3
100
AcDbSpline
210
0.0
220
0.0
230
1.0
 70
     8
 71
     3
 72
    23
 73
    19
 74
    17
 42
0.0000000001
 43
0.0000000001
 44
0.00000000001
 40
0.0
 40
0.0
 40
0.0
 40
0.0
 40
0.5304463903493853
 40
0.9104191303642249
 40
1.290391870378847
 40
1.820838260728301
 40
2.351284651077109
 40
2.731257391091397
 40
3.111230131105516
 40
3.641676521454478
 40
4.172122911804769
 40
4.552095651819016
 40
4.9320683918335
 40
5.462514782182644
 40
5.99296117253171
 40
6.372933912547129
 40
6.752906652561476
 40
7.283353042910288
 40
7.283353042910288
 40
7.283353042910288
 40
7.283353042910288
 10
244.0556368956427
 20
4527.779179238073
 30
0.0
 10
244.2324203099024
 20
4527.780547119722
 30
0.0
 10
244.5358383464868
 20
4527.782894851072
 30
0.0
 10
244.9659070173322
 20
4527.810405646008
 30
0.0
 10
245.3884718387032
 20
4527.894673736638
 30
0.0
 10
245.8542548625317
 20
4528.011699897425
 30
0.0
 10
246.3166528174678
 20
4528.141396647972
 30
0.0
 10
246.725367363054
 20
4528.277921863856
 30
0.0
 10
247.1120738896264
 20
4528.468036995088
 30
0.0
 10
247.5321839896734
 20
4528.700726580245
 30
0.0
 10
247.945751375881
 20
4528.944855554902
 30
0.0
 10
248.3056860996542
 20
4529.181778950622
 30
0.0
 10
248.6305883494702
 20
4529.464842975909
 30
0.0
 10
248.9768234793884
 20
4529.797640738284
 30
0.0
 10
249.3138536923398
 20
4530.139780451198
 30
0.0
 10
249.6007361057334
 20
4530.461277916576
 30
0.0
 10
249.8425020660144
 20
4530.818020296915
 30
0.0
 10
249.9983647021365
 20
4531.078356340191
 30
0.0
 10
250.0891764721926
 20
4531.230038471889
 30
0.0
 11
244.0556368956427
 21
4527.779179238073
 31
0.0
 11
244.5859909734084
 21
4527.789074955935
 31
0.0
 11
244.9648022140896
 21
4527.818762109519
 31
0.0
 11
245.3385295130537
 21
4527.88737106785
 31
0.0
 11
245.8536317656678
 21
4528.014032199957
 31
0.0
 11
246.3636504611532
 21
4528.159820756742
 31
0.0
 11
246.7221270887316
 21
4528.285811989111
 31
0.0
 11
247.0656930279503
 21
4528.448113340192
 31
0.0
 11
247.5309796583563
 21
4528.702832253113
 31
0.0
 11
247.9864402854916
 21
4528.974731113289
 31
0.0
 11
248.3005282148966
 21
4529.188572306131
 31
0.0
 11
248.5908792291059
 21
4529.433675491957
 31
0.0
 11
248.9751291106536
 21
4529.799360331081
 31
0.0
 11
249.3454698759216
 21
4530.179124851033
 31
0.0
 11
249.5940935412916
 21
4530.466467079349
 31
0.0
 11
249.8117468317273
 21
4530.77792546873
 31
0.0
 11
250.0891764721926
 21
4531.230038471889
 31
0.0
  0
SPLINE
  5
161
330
A
100
AcDbEntity
  8
0
  6
Continuous
 62
     3
100
AcDbSpline
210
0.0
220
0.0
230
1.0
 70
    24
 71
     3
 72
    11
 73
     7
 74
     5
 42
0.0000000001
 43
0.0000000001
 44
0.00000000001
 40
0.0
 40
0.0
 40
0.0
 40
0.0
 40
18.81144416413082
 40
32.24818999781928
 40
45.6849358331832
 40
64.496380000106
 40
64.496380000106
 40
64.496380000106
 40
64.496380000106
 10
326.5592618417485
 20
4544.779180013073
 30
0.0
 10
320.2887804537049
 20
4544.779180013074
 30
0.0
 10
309.5393837877651
 20
4544.779180013074
 30
0.0
 10
294.3110718433707
 20
4544.779180013073
 30
0.0
 10
279.0827598980456
 20
4544.779180013074
 30
0.0
 10
268.3333632306167
 20
4544.779180013073
 30
0.0
 10
262.0628818416425
 20
4544.779180013073
 30
0.0
 11
326.5592618417485
 21
4544.779180013073
 31
0.0
 11
307.7478176776176
 21
4544.779180013073
 31
0.0
 11
294.3110718439292
 21
4544.779180013073
 31
0.0
 11
280.8743260085653
 21
4544.779180013073
 31
0.0
 11
262.0628818416425
 21
4544.779180013073
 31
0.0
  0
SPLINE
  5
160
330
A
100
AcDbEntity
  8
0
  6
Continuous
 62
     3
100
AcDbSpline
210
0.0
220
0.0
230
1.0
 70
     8
 71
     3
 72
    11
 73
     7
 74
     5
 42
0.0000000001
 43
0.0000000001
 44
0.00000000001
 40
0.0
 40
0.0
 40
0.0
 40
0.0
 40
3.417119708976604
 40
5.857919500990606
 40
8.298719292507875
 40
11.71583900065798
 40
11.71583900065798
 40
11.71583900065798
 40
11.71583900065798
 10
256.0293422646427
 20
4541.328320779074
 30
0.0
 10
255.451826128516
 20
4540.346543302696
 30
0.0
 10
254.4617984666035
 20
4538.663496200368
 30
0.0
 10
253.0592592789746
 20
4536.279179472237
 30
0.0
 10
251.6567200912275
 20
4533.894862744499
 30
0.0
 10
250.6666924292045
 20
4532.211815642745
 30
0.0
 10
250.0891762930226
 20
4531.230038166721
 30
0.0
 11
256.0293422646427
 21
4541.328320779074
 31
0.0
 11
254.2967938562592
 21
4538.382988349943
 31
0.0
 11
253.0592592788528
 21
4536.279179472118
 31
0.0
 11
251.8217247015201
 21
4534.175370594825
 31
0.0
 11
250.0891762930226
 21
4531.230038166721
 31
0.0
  0
SPLINE
  5
15F
330
A
100
AcDbEntity
  8
0
  6
Continuous
 62
     3
100
AcDbSpline
210
0.0
220
0.0
230
1.0
 70
     8
 71
     3
 72
    23
 73
    19
 74
    17
 42
0.0000000001
 43
0.0000000001
 44
0.00000000001
 40
0.0
 40
0.0
 40
0.0
 40
0.0
 40
0.5304604066264868
 40
0.9104331671522464
 40
1.290394648471409
 40
1.820835011032316
 40
2.351283999476098
 40
2.731257604544528
 40
3.111230345628499
 40
3.64167673487594
 40
4.172123124356128
 40
4.552095865733105
 40
4.932069471020097
 40
5.462518459561969
 40
5.992958821889693
 40
6.372920303055787
 40
6.752893063315994
 40
7.283353469563429
 40
7.283353469563429
 40
7.283353469563429
 40
7.283353469563429
 10
262.0628818443366
 20
4544.779180013073
 30
0.0
 10
261.8860937665269
 20
4544.777812160066
 30
0.0
 10
261.582671065069
 20
4544.775464503707
 30
0.0
 10
261.152601379362
 20
4544.747953876686
 30
0.0
 10
260.7300426373685
 20
4544.663684672181
 30
0.0
 10
260.264264475445
 20
4544.546659433265
 30
0.0
 10
259.8018673136969
 20
4544.416962992356
 30
0.0
 10
259.3931516310871
 20
4544.280437523926
 30
0.0
 10
259.006444849149
 20
4544.090322251665
 30
0.0
 10
258.5863347468376
 20
4543.857632672923
 30
0.0
 10
258.1727673647445
 20
4543.613503693323
 30
0.0
 10
257.8128323895793
 20
4543.376580149081
 30
0.0
 10
257.4879293453901
 20
4543.093515271716
 30
0.0
 10
257.1416948845868
 20
4542.760718035914
 30
0.0
 10
256.8046679314791
 20
4542.418582046201
 30
0.0
 10
256.517787640629
 20
4542.097090385667
 30
0.0
 10
256.2760213106524
 20
4541.74034704569
 30
0.0
 10
256.1201563739639
 20
4541.480006943841
 30
0.0
 10
256.0293422640687
 20
4541.328320778101
 30
0.0
 11
262.0628818443366
 21
4544.779180013073
 31
0.0
 11
261.5325137499852
 21
4544.769284180997
 31
0.0
 11
261.1537025155833
 21
4544.739596684767
 31
0.0
 11
260.7799865597812
 21
4544.670988291219
 31
0.0
 11
260.2648903222043
 21
4544.544327941197
 31
0.0
 11
259.7548691153485
 21
4544.398538716978
 31
0.0
 11
259.3963916492404
 21
4544.272547261548
 31
0.0
 11
259.0528257089777
 21
4544.110245910172
 31
0.0
 11
258.5875390794097
 21
4543.855526998014
 31
0.0
 11
258.1320784529604
 21
4543.583628138386
 31
0.0
 11
257.8179905224108
 21
4543.369786944804
 31
0.0
 11
257.5276388905771
 21
4543.124683149227
 31
0.0
 11
257.1433871604281
 21
4542.758996483729
 31
0.0
 11
256.7730501192876
 21
4542.379236751865
 31
0.0
 11
256.5244326921168
 21
4542.091904014299
 31
0.0
 11
256.3067791096616
 21
4541.780445804287
 31
0.0
 11
256.0293422640687
 21
4541.328320778101
 31
0.0
  0
SPLINE
  5
15E
330
A
100
AcDbEntity
  8
0
  6
Continuous
 62
     3
100
AcDbSpline
210
0.0
220
0.0
230
1.0
 70
     8
 71
     3
 72
    23
 73
    19
 74
    17
 42
0.0000000001
 43
0.0000000001
 44
0.00000000001
 40
0.0
 40
0.0
 40
0.0
 40
0.0
 40
0.9740389824402361
 40
1.674212861997713
 40
2.374280500776543
 40
3.348129605030311
 40
4.322059341406387
 40
5.022240894785094
 40
5.722414359671995
 40
6.696319667863484
 40
7.670224975838615
 40
8.370398440438401
 40
9.070579993725344
 40
10.04450973009268
 40
11.01835883465358
 40
11.71842647374988
 40
12.41860035333379
 40
13.39263933548697
 40
13.39263933548697
 40
13.39263933548697
 40
13.39263933548697
 10
335.0592711706426
 20
4536.27917768717
 30
0.0
 10
335.0554876934544
 20
4536.603734472561
 30
0.0
 10
335.048984518237
 20
4537.161594223912
 30
0.0
 10
334.9714477385359
 20
4537.952620744797
 30
0.0
 10
334.7393422869704
 20
4538.712451225572
 30
0.0
 10
334.4184128817107
 20
4539.534551319756
 30
0.0
 10
334.0639518366621
 20
4540.342728550306
 30
0.0
 10
333.6910060623115
 20
4541.044453135446
 30
0.0
 10
333.1854223307614
 20
4541.657535858367
 30
0.0
 10
332.5744201534543
 20
4542.294334050207
 30
0.0
 10
331.93762144865
 20
4542.905335692789
 30
0.0
 10
331.324538300754
 20
4543.410918908719
 30
0.0
 10
330.6228134021174
 20
4543.783864092895
 30
0.0
 10
329.8146358738777
 20
4544.138324459328
 30
0.0
 10
328.9925355099959
 20
4544.459253174319
 30
0.0
 10
328.2327048339188
 20
4544.691357987336
 30
0.0
 10
327.4416782478408
 20
4544.768894102072
 30
0.0
 10
326.8838184911154
 20
4544.775396808577
 30
0.0
 10
326.5592617026426
 20
4544.779180013073
 30
0.0
 11
335.0592711706426
 21
4536.27917768717
 31
0.0
 11
335.0316157046192
 21
4537.252823985634
 31
0.0
 11
334.9486486986015
 21
4537.948064906126
 31
0.0
 11
334.7592465986623
 21
4538.622024506847
 31
0.0
 11
334.4122594279627
 21
4539.531959659056
 31
0.0
 11
334.014153824788
 21
4540.420807823884
 31
0.0
 11
333.67144630594
 21
4541.031386045095
 31
0.0
 11
333.2384995623589
 21
4541.581658703106
 31
0.0
 11
332.5696762851704
 21
4542.289590178048
 31
0.0
 11
331.8617442486613
 21
4542.958412860518
 31
0.0
 11
331.3114712269058
 21
4543.391359141317
 31
0.0
 11
330.7008927176456
 21
4543.73406614678
 31
0.0
 11
329.8120442184356
 21
4544.13217100336
 31
0.0
 11
328.9021087745148
 21
4544.479157409939
 31
0.0
 11
328.2281490143144
 21
4544.668558943566
 31
0.0
 11
327.5329080240575
 21
4544.751525365197
 31
0.0
 11
326.5592617026426
 21
4544.779180013073
 31
0.0
  0
SPLINE
  5
15D
330
A
100
AcDbEntity
  8
0
  6
Continuous
 62
     3
100
AcDbSpline
210
0.0
220
0.0
230
1.0
 70
     8
 71
     3
 72
    19
 73
    15
 74
    13
 42
0.0000000001
 43
0.0000000001
 44
0.00000000001
 40
0.0
 40
0.0
 40
0.0
 40
0.0
 40
0.2015457865536791
 40
0.345235603558501
 40
0.4918327590503022
 40
0.6974363640186087
 40
0.9026330173057116
 40
1.039876750278574
 40
1.226871780696243
 40
1.505892511102421
 40
1.870645395393657
 40
2.142632899579867
 40
2.479924559486407
 40
2.934517280946953
 40
2.934517280946953
 40
2.934517280946953
 40
2.934517280946953
 10
353.0592629446426
 20
4521.900181732075
 30
0.0
 10
353.058891495335
 20
4521.833000077295
 30
0.0
 10
353.058255225393
 20
4521.717922012243
 30
0.0
 10
353.0485783572469
 20
4521.554082017996
 30
0.0
 10
353.0233257309337
 20
4521.390596908248
 30
0.0
 10
352.9910491020958
 20
4521.207652900025
 30
0.0
 10
352.956874362746
 20
4521.028185027375
 30
0.0
 10
352.9189463884076
 20
4520.855760894233
 30
0.0
 10
352.8627328253623
 20
4520.66259609491
 30
0.0
 10
352.7836388268206
 20
4520.397256290748
 30
0.0
 10
352.6927104785477
 20
4520.105787501423
 30
0.0
 10
352.5828957033438
 20
4519.80013295753
 30
0.0
 10
352.4477696852046
 20
4519.472204133872
 30
0.0
 10
352.3475583741084
 20
4519.228014934057
 30
0.0
 10
352.2900306166425
 20
4519.087834580074
 30
0.0
 11
353.0592629446426
 21
4521.900181732075
 31
0.0
 11
353.0560504552095
 21
4521.698661549489
 31
0.0
 11
353.0464129869104
 21
4521.555295295735
 31
0.0
 11
353.0259045222162
 21
4521.410139762344
 31
0.0
 11
352.9905674406692
 21
4521.207595611492
 31
0.0
 11
352.9514958236396
 21
4521.006153125251
 31
0.0
 11
352.9212589226041
 21
4520.872281649365
 31
0.0
 11
352.8711562857475
 21
4520.692123754226
 31
0.0
 11
352.7913067971002
 21
4520.424772623391
 31
0.0
 11
352.6806892663185
 21
4520.077197554545
 31
0.0
 11
352.5885255088888
 21
4519.821301004647
 31
0.0
 11
352.4627353747042
 21
4519.508343330218
 31
0.0
 11
352.2900306166425
 21
4519.087834580074
 31
0.0
  0
SPLINE
  5
15C
330
A
100
AcDbEntity
  8
0
  6
Continuous
 62
     3
100
AcDbSpline
210
0.0
220
0.0
230
1.0
 70
     8
 71
     3
 72
    23
 73
    19
 74
    17
 42
0.0000000001
 43
0.0000000001
 44
0.00000000001
 40
0.0
 40
0.0
 40
0.0
 40
0.0
 40
0.4391449964728746
 40
0.7565736196892231
 40
1.055240859148372
 40
1.468044721080146
 40
1.855960095164755
 40
2.134254079660909
 40
2.37477740314953
 40
2.709984988610204
 40
3.01515699429273
 40
3.231081701329748
 40
3.416884538227693
 40
3.680470015136491
 40
3.924751926929752
 40
4.096282170634386
 40
4.244113422885737
 40
4.452194157206815
 40
4.452194157206815
 40
4.452194157206815
 40
4.452194157206815
 10
336.0592711706426
 20
4518.537147388075
 30
0.0
 10
336.0237314652818
 20
4518.679149176967
 30
0.0
 10
335.9625024777184
 20
4518.923794586313
 30
0.0
 10
335.8772939625834
 20
4519.265065415954
 30
0.0
 10
335.7925600107745
 20
4519.597401524171
 30
0.0
 10
335.7003894093852
 20
4519.952083433916
 30
0.0
 10
335.6095422540716
 20
4520.300093564798
 30
0.0
 10
335.5313236773036
 20
4520.592042824286
 30
0.0
 10
335.4567694140898
 20
4520.866781288112
 30
0.0
 10
335.380714091444
 20
4521.150397971014
 30
0.0
 10
335.30761009785
 20
4521.426305087785
 30
0.0
 10
335.2461300387651
 20
4521.653797178476
 30
0.0
 10
335.1954397920629
 20
4521.869728621771
 30
0.0
 10
335.1484990222152
 20
4522.096174047351
 30
0.0
 10
335.1055476687825
 20
4522.318467555267
 30
0.0
 10
335.0727986686343
 20
4522.503654547307
 30
0.0
 10
335.0603494263501
 20
4522.679263292493
 30
0.0
 10
335.0596689847119
 20
4522.797909166475
 30
0.0
 10
335.0592711706426
 20
4522.867274407077
 30
0.0
 11
336.0592711706426
 21
4518.537147388075
 31
0.0
 11
335.952698289957
 21
4518.963164464058
 31
0.0
 11
335.8755163599005
 21
4519.271066852016
 31
0.0
 11
335.8017735184869
 21
4519.560487157568
 31
0.0
 11
335.6982269447578
 21
4519.960093383114
 31
0.0
 11
335.5998452649964
 21
4520.335325821129
 31
0.0
 11
335.5279111699422
 21
4520.604162254254
 31
0.0
 11
335.4651315414688
 21
4520.836347928642
 31
0.0
 11
335.3782904519798
 21
4521.160111346165
 31
0.0
 11
335.2997049865793
 21
4521.454991453463
 31
0.0
 11
335.2447615530526
 21
4521.663808833539
 31
0.0
 11
335.2020205701397
 21
4521.844628916989
 31
0.0
 11
335.1478015702215
 21
4522.102577756267
 31
0.0
 11
335.1016827322732
 21
4522.342466699771
 31
0.0
 11
335.0746001055858
 21
4522.511845434673
 31
0.0
 11
335.0631034043784
 21
4522.659228964974
 31
0.0
 11
335.0592711706426
 21
4522.867274407077
 31
0.0
  0
SPLINE
  5
15B
330
A
100
AcDbEntity
  8
0
  6
Continuous
 62
     6
100
AcDbSpline
210
0.0
220
0.0
230
1.0
 70
     8
 71
     3
 72
    99
 73
    95
 74
    93
 42
0.0000000001
 43
0.0000000001
 44
0.00000000001
 40
0.0
 40
0.0
 40
0.0
 40
0.0
 40
0.4578308114957378
 40
0.7964891319744796
 40
1.074240457936707
 40
1.448477287943585
 40
1.738628145426739
 40
1.932909100598202
 40
2.077442928914673
 40
2.293337367365094
 40
2.506666847111126
 40
2.648960796780131
 40
2.835928356711382
 40
3.116353054648923
 40
3.478037456939354
 40
3.748435116332375
 40
4.064093858861607
 40
4.485574985477768
 40
4.893757460764131
 40
5.185566188112633
 40
5.473003412726757
 40
5.876006568772692
 40
6.274510332887996
 40
6.557920629029346
 40
6.837549685413082
 40
7.229945929137608
 40
7.631213091861951
 40
7.930687378857023
 40
8.184984186671739
 40
8.526315992146749
 40
8.791608353501231
 40
8.968324899192696
 40
9.103361842341398
 40
9.305887192151566
 40
9.516252967613867
 40
9.667148159106389
 40
9.821775239426264
 40
10.03747925824272
 40
10.254093386584
 40
10.40867357007875
 40
10.56600932009969
 40
10.7863544076158
 40
11.01067365020859
 40
11.17219379541651
 40
11.33465594772607
 40
11.56025903374127
 40
11.78336849282255
 40
11.94276031572966
 40
12.10142362336014
 40
12.32371967648661
 40
12.5462106686421
 40
12.7059045237808
 40
12.86188862965889
 40
13.07897643517243
 40
13.29183976038936
 40
13.44383208563214
 40
13.5928749995199
 40
13.80172837027621
 40
14.00560781133972
 40
14.14210374428797
 40
14.32078212305983
 40
14.58819342302587
 40
14.92703464186577
 40
15.17754042439357
 40
15.47267725122032
 40
15.87079824549022
 40
16.26651693752635
 40
16.55018157501397
 40
16.83509880861991
 40
17.2324056524864
 40
17.63493262357398
 40
17.93399019131008
 40
18.19040028195304
 40
18.53681611801984
 40
18.80955610279358
 40
18.99150092269712
 40
19.12905896335225
 40
19.33471398656677
 40
19.54488229176403
 40
19.6949924915698
 40
19.84690739855115
 40
20.0596897643125
 40
20.27412133130832
 40
20.42719856014311
 40
20.5834547326525
 40
20.80255683233641
 40
21.01899621648481
 40
21.16339129898549
 40
21.35575922411396
 40
21.64361559396005
 40
22.01577800481495
 40
22.29199762636062
 40
22.6303361418033
 40
23.08805141371331
 40
23.08805141371331
 40
23.08805141371331
 40
23.08805141371331
 10
383.0592592351086
 20
4558.356564637811
 30
0.0
 10
383.2103743614555
 20
4558.335349118139
 30
0.0
 10
383.4732696336611
 20
4558.298440438287
 30
0.0
 10
383.8303189376696
 20
4558.26571961241
 30
0.0
 10
384.1608333723645
 20
4558.269110509029
 30
0.0
 10
384.4744166521877
 20
4558.286529713313
 30
0.0
 10
384.7598644061726
 20
4558.307254768232
 30
0.0
 10
384.9688319743359
 20
4558.32528153618
 30
0.0
 10
385.1517587854779
 20
4558.352633595357
 30
0.0
 10
385.340332095616
 20
4558.384501154074
 30
0.0
 10
385.5278988293471
 20
4558.417805945977
 30
0.0
 10
385.7053893348483
 20
4558.452866010552
 30
0.0
 10
385.9020319335408
 20
4558.504508364881
 30
0.0
 10
386.1684267408483
 20
4558.577957520578
 30
0.0
 10
386.4602555824573
 20
4558.663807940388
 30
0.0
 10
386.7591050936829
 20
4558.767168663266
 30
0.0
 10
387.0646221972037
 20
4558.907487496463
 30
0.0
 10
387.4052494856755
 20
4559.079879521046
 30
0.0
 10
387.7347343668781
 20
4559.256422233512
 30
0.0
 10
388.0190646111826
 20
4559.422967592513
 30
0.0
 10
388.2828065135884
 20
4559.617590436224
 30
0.0
 10
388.5666564014159
 20
4559.843797269169
 30
0.0
 10
388.8446005913634
 20
4560.075121136166
 30
0.0
 10
389.0833324641199
 20
4560.28953611927
 30
0.0
 10
389.2964087864001
 20
4560.526719702079
 30
0.0
 10
389.5253690452635
 20
4560.801597461881
 30
0.0
 10
389.7519155792885
 20
4561.086970180073
 30
0.0
 10
389.9404399975578
 20
4561.343938170799
 30
0.0
 10
390.0917846182911
 20
4561.601435580385
 30
0.0
 10
390.2248328666646
 20
4561.855735992042
 30
0.0
 10
390.3417395067488
 20
4562.089185996078
 30
0.0
 10
390.4257442066347
 20
4562.262319821467
 30
0.0
 10
390.4902199325253
 20
4562.421225619424
 30
0.0
 10
390.5553470674113
 20
4562.591856301144
 30
0.0
 10
390.6205040785666
 20
4562.768123644631
 30
0.0
 10
390.6767661069001
 20
4562.930686561105
 30
0.0
 10
390.7235923477101
 20
4563.09806807325
 30
0.0
 10
390.7718957569985
 20
4563.287658065784
 30
0.0
 10
390.817800196371
 20
4563.477823176512
 30
0.0
 10
390.8554917801891
 20
4563.649990609145
 30
0.0
 10
390.8824265362607
 20
4563.825428152497
 30
0.0
 10
390.908204716861
 20
4564.024428578426
 30
0.0
 10
390.931526264695
 20
4564.22513577723
 30
0.0
 10
390.9484024195373
 20
4564.407197497671
 30
0.0
 10
390.953591124787
 20
4564.590395794534
 30
0.0
 10
390.9544755826605
 20
4564.794115694939
 30
0.0
 10
390.9526589199341
 20
4564.996804419996
 30
0.0
 10
390.9468347309945
 20
4565.177174517164
 30
0.0
 10
390.9294013807644
 20
4565.35652080268
 30
0.0
 10
390.905417732903
 20
4565.556230589471
 30
0.0
 10
390.8787783217471
 20
4565.755953129122
 30
0.0
 10
390.8507658090326
 20
4565.93321649052
 30
0.0
 10
390.8120957863021
 20
4566.106613069911
 30
0.0
 10
390.7654888160905
 20
4566.296277567793
 30
0.0
 10
390.7168312502689
 20
4566.484054341617
 30
0.0
 10
390.670088702889
 20
4566.648920164793
 30
0.0
 10
390.6139193786413
 20
4566.809397230112
 30
0.0
 10
390.5484238125369
 20
4566.984823341562
 30
0.0
 10
390.4825924204006
 20
4567.155648738393
 30
0.0
 10
390.4169596791903
 20
4567.315802186008
 30
0.0
 10
390.3315643329419
 20
4567.490313265227
 30
0.0
 10
390.2135558959279
 20
4567.723803563302
 30
0.0
 10
390.0802948970114
 20
4567.976419111025
 30
0.0
 10
389.9300991670936
 20
4568.230482187041
 30
0.0
 10
389.7429550381214
 20
4568.483798166029
 30
0.0
 10
389.5165832425936
 20
4568.767528567228
 30
0.0
 10
389.2860616978843
 20
4569.042940773357
 30
0.0
 10
389.0701527071701
 20
4569.281551709956
 30
0.0
 10
388.8298370015798
 20
4569.496355735677
 30
0.0
 10
388.5514479332994
 20
4569.727064871073
 30
0.0
 10
388.2641159672145
 20
4569.954232271766
 30
0.0
 10
388.0062481653805
 20
4570.143149938754
 30
0.0
 10
387.7473337987328
 20
4570.296489354462
 30
0.0
 10
387.4897220503063
 20
4570.433698038946
 30
0.0
 10
387.2520167502063
 20
4570.555319167624
 30
0.0
 10
387.0750992917198
 20
4570.643087154091
 30
0.0
 10
386.9138024895374
 20
4570.711241626847
 30
0.0
 10
386.742593581471
 20
4570.779880362141
 30
0.0
 10
386.5668417930129
 20
4570.848414762464
 30
0.0
 10
386.4065808677504
 20
4570.907423659835
 30
0.0
 10
386.2425623317055
 20
4570.958043464376
 30
0.0
 10
386.0570369194221
 20
4571.011380924384
 30
0.0
 10
385.8705704061685
 20
4571.062802577864
 30
0.0
 10
385.7013843052872
 20
4571.10609921244
 30
0.0
 10
385.5285659004755
 20
4571.140447811289
 30
0.0
 10
385.334343633699
 20
4571.17495149713
 30
0.0
 10
385.1436983865331
 20
4571.206915111234
 30
0.0
 10
384.9612390538314
 20
4571.233998846614
 30
0.0
 10
384.7536939919176
 20
4571.251644885663
 30
0.0
 10
384.4703200380469
 20
4571.272012872857
 30
0.0
 10
384.1586910199788
 20
4571.289129035347
 30
0.0
 10
383.8294905276608
 20
4571.292490623806
 30
0.0
 10
383.473087646302
 20
4571.259902525986
 30
0.0
 10
383.2103362525101
 20
4571.223009792352
 30
0.0
 10
383.0592593685545
 20
4571.201797196073
 30
0.0
 11
383.0592592351086
 21
4558.356564637811
 31
0.0
 11
383.5132115034746
 21
4558.297097083629
 31
0.0
 11
383.8507975138605
 21
4558.270168592748
 31
0.0
 11
384.1285485598988
 21
4558.270562925647
 31
0.0
 11
384.5023172982092
 21
4558.289274825482
 31
0.0
 11
384.7917013762227
 21
4558.3103550411
 31
0.0
 11
384.9850848617604
 21
4558.329007576145
 31
0.0
 11
385.128161991896
 21
4558.349476146196
 31
0.0
 11
385.3411237245904
 21
4558.384940338866
 31
0.0
 11
385.5510745842579
 21
4558.422757047522
 31
0.0
 11
385.690493861332
 21
4558.451214617561
 31
0.0
 11
385.8717981953532
 21
4558.496883063251
 31
0.0
 11
386.1421324616162
 21
4558.571431005526
 31
0.0
 11
386.4885224599945
 21
4558.675496253729
 31
0.0
 11
386.743323823353
 21
4558.766001278097
 31
0.0
 11
387.0317462603556
 21
4558.894270290601
 31
0.0
 11
387.4084314966441
 21
4559.083359086821
 31
0.0
 11
387.7675330037273
 21
4559.277418461089
 31
0.0
 11
388.0174652954642
 21
4559.4280377922
 31
0.0
 11
388.2508376104375
 21
4559.595839820488
 31
0.0
 11
388.5669222657724
 21
4559.845843889345
 31
0.0
 11
388.8722443622793
 21
4560.101936972809
 31
0.0
 11
389.0806670316752
 21
4560.293982245704
 31
0.0
 11
389.2701325988881
 21
4560.499640233671
 31
0.0
 11
389.5222969379923
 21
4560.800286135311
 31
0.0
 11
389.7707495342406
 21
4561.115383966625
 31
0.0
 11
389.9447716540727
 21
4561.359107478786
 31
0.0
 11
390.0754902018789
 21
4561.577234798772
 31
0.0
 11
390.2355661005296
 21
4561.878703052656
 31
0.0
 11
390.3543752584878
 21
4562.115904277312
 31
0.0
 11
390.4297877423928
 21
4562.275721969675
 31
0.0
 11
390.4814071444604
 21
4562.400503432022
 31
0.0
 11
390.5540882872682
 21
4562.589537737891
 31
0.0
 11
390.6265794349438
 21
4562.787018858495
 31
0.0
 11
390.6749267222938
 21
4562.929959050958
 31
0.0
 11
390.7176183292852
 21
4563.078575875916
 31
0.0
 11
390.7713816448656
 21
4563.287472332639
 31
0.0
 11
390.8217798218012
 21
4563.498141989588
 31
0.0
 11
390.8537087657505
 21
4563.649388727296
 31
0.0
 11
390.878727826352
 21
4563.80472251255
 31
0.0
 11
390.9075597690604
 21
4564.023173140088
 31
0.0
 11
390.9329389403441
 21
4564.246052076425
 31
0.0
 11
390.9466551905148
 21
4564.406988777613
 31
0.0
 11
390.9524512988132
 21
4564.569347504085
 31
0.0
 11
390.9539761858008
 21
4564.794945436565
 31
0.0
 11
390.9514567604824
 21
4565.018040670103
 31
0.0
 11
390.9451094496877
 21
4565.177306061371
 31
0.0
 11
390.9309600018128
 21
4565.335337192205
 31
0.0
 11
390.9049448979341
 21
4565.556105735267
 31
0.0
 11
390.8749770437547
 21
4565.776569268094
 31
0.0
 11
390.8489140267835
 21
4565.934121946635
 31
0.0
 11
390.8160770342482
 21
4566.08661054689
 31
0.0
 11
390.7647067491722
 21
4566.297532829056
 31
0.0
 11
390.7108295832816
 21
4566.503464968893
 31
0.0
 11
390.6683467637569
 21
4566.649399464397
 31
0.0
 11
390.6201092083597
 21
4566.79042048563
 31
0.0
 11
390.5474978165092
 21
4566.986245193595
 31
0.0
 11
390.4737115197288
 21
4567.176304155224
 31
0.0
 11
390.4211033813685
 21
4567.302254635532
 31
0.0
 11
390.3443015169208
 21
4567.46358484553
 31
0.0
 11
390.2236816713894
 21
4567.702247067537
 31
0.0
 11
390.0637749633821
 21
4568.000983098707
 31
0.0
 11
389.9344021803498
 21
4568.215496105517
 31
0.0
 11
389.7621726202011
 21
4568.455168225631
 31
0.0
 11
389.5148730040492
 21
4568.767166985131
 31
0.0
 11
389.2597926694853
 21
4569.069701786676
 31
0.0
 11
389.0669092490983
 21
4569.277696047897
 31
0.0
 11
388.8568674344398
 21
4569.470206479045
 31
0.0
 11
388.5518332552398
 21
4569.724778428997
 31
0.0
 11
388.2352830434431
 21
4569.973422604205
 31
0.0
 11
387.9918853153355
 21
4570.147183862178
 31
0.0
 11
387.7723939595924
 21
4570.279734529235
 31
0.0
 11
387.4675603139728
 21
4570.444295703198
 31
0.0
 11
387.2247483138328
 21
4570.568510967488
 31
0.0
 11
387.0609679759685
 21
4570.64775690378
 31
0.0
 11
386.9345938785818
 21
4570.702087392997
 31
0.0
 11
386.7438714205657
 21
4570.779021992376
 31
0.0
 11
386.5479038112921
 21
4570.854965475474
 31
0.0
 11
386.4067195206293
 21
4570.905956338928
 31
0.0
 11
386.2618440120515
 21
4570.951664390489
 31
0.0
 11
386.0574613729352
 21
4571.010859593054
 31
0.0
 11
385.8506442526533
 21
4571.067495056173
 31
0.0
 11
385.7021067388769
 21
4571.104498366685
 31
0.0
 11
385.5490439306871
 21
4571.135927146431
 31
0.0
 11
385.333409760006
 21
4571.174755416037
 31
0.0
 11
385.1198735234697
 21
4571.21008646041
 31
0.0
 11
384.9769099158192
 21
4571.2303681452
 31
0.0
 11
384.7854090166188
 21
4571.248611615913
 31
0.0
 11
384.4982965928462
 21
4571.269293631686
 31
0.0
 11
384.1265899033385
 21
4571.287705503631
 31
0.0
 11
383.8503705396469
 21
4571.288082927356
 31
0.0
 11
383.5130988060054
 21
4571.261236536193
 31
0.0
 11
383.0592593685545
 21
4571.201797196073
 31
0.0
  0
SPLINE
  5
15A
330
A
100
AcDbEntity
  8
0
  6
Continuous
 62
     3
100
AcDbSpline
210
0.0
220
0.0
230
1.0
 70
     8
 71
     3
 72
    17
 73
    13
 74
    11
 42
0.0000000001
 43
0.0000000001
 44
0.00000000001
 40
0.0
 40
0.0
 40
0.0
 40
0.0
 40
0.0368050236834428
 40
0.0715569802265759
 40
0.117589634264237
 40
0.1694145221821445
 40
0.2371232962118182
 40
0.3047865790358752
 40
0.3574326809206779
 40
0.4044603459411074
 40
0.4403384128692806
 40
0.4781106826989251
 40
0.4781106826989251
 40
0.4781106826989251
 40
0.4781106826989251
 10
375.7592628659406
 20
4523.279176190833
 30
0.0
 10
375.7714502918549
 20
4523.280599413737
 30
0.0
 10
375.7951453016084
 20
4523.283366468962
 30
0.0
 10
375.8341983026423
 20
4523.286589880313
 30
0.0
 10
375.8776367670001
 20
4523.297165222617
 30
0.0
 10
375.9256774865197
 20
4523.325399279083
 30
0.0
 10
375.9736624934737
 20
4523.36573233909
 30
0.0
 10
376.0135517852579
 20
4523.414450692256
 30
0.0
 10
376.0414267921223
 20
4523.463372469525
 30
0.0
 10
376.0518970938928
 20
4523.507829914055
 30
0.0
 10
376.0550905140163
 20
4523.547917385629
 30
0.0
 10
376.057848717152
 20
4523.572315834585
 30
0.0
 10
376.0592632876436
 20
4523.584828809242
 30
0.0
 11
375.7592628659406
 21
4523.279176190833
 31
0.0
 11
375.7958436533272
 21
4523.283232761123
 31
0.0
 11
375.8303838819793
 21
4523.287063046783
 31
0.0
 11
375.8749294180104
 21
4523.298669099404
 31
0.0
 11
375.9203085853473
 21
4523.323700083794
 31
0.0
 11
375.9721780409577
 21
4523.367220626705
 31
0.0
 11
376.0150033826129
 21
4523.419606788567
 31
0.0
 11
376.0398785055538
 21
4523.466005498704
 31
0.0
 11
376.0514037067673
 21
4523.51159904007
 31
0.0
 11
376.0552324274646
 21
4523.547272231465
 31
0.0
 11
376.0592632876436
 21
4523.584828809242
 31
0.0
  0
SPLINE
  5
159
330
A
100
AcDbEntity
  8
0
  6
Continuous
 62
     3
100
AcDbSpline
210
0.0
220
0.0
230
1.0
 70
     8
 71
     3
 72
    21
 73
    17
 74
    15
 42
0.0000000001
 43
0.0000000001
 44
0.00000000001
 40
0.0
 40
0.0
 40
0.0
 40
0.0
 40
0.0356714474763136
 40
0.0667838704590459
 40
0.0982269771231255
 40
0.134533509789154
 40
0.1727152706750558
 40
0.2072915380821414
 40
0.2359817090386255
 40
0.2646718912997825
 40
0.2992477435535444
 40
0.3374290027443288
 40
0.3737351950295962
 40
0.405178048890725
 40
0.4362904472868354
 40
0.4719620112092679
 40
0.4719620112092679
 40
0.4719620112092679
 40
0.4719620112092679
 10
359.5592624457276
 20
4530.279175475577
 30
0.0
 10
359.547444741086
 20
4530.277851743003
 30
0.0
 10
359.5253197051892
 20
4530.2753734588
 30
0.0
 10
359.4926800390109
 20
4530.272785277118
 30
0.0
 10
359.4602249438681
 20
4530.265902712748
 30
0.0
 10
359.4281147157806
 20
4530.25070975982
 30
0.0
 10
359.3967936183672
 20
4530.232259195962
 30
0.0
 10
359.3691594195827
 20
4530.212647195262
 30
0.0
 10
359.3462810477913
 20
4530.192157581262
 30
0.0
 10
359.3257904194658
 20
4530.169280288549
 30
0.0
 10
359.306177889666
 20
4530.141646775386
 30
0.0
 10
359.2877285398134
 20
4530.110325382211
 30
0.0
 10
359.2725370469897
 20
4530.07821494535
 30
0.0
 10
359.2656544430885
 20
4530.0457601512
 30
0.0
 10
359.2630655589557
 20
4530.013120590759
 30
0.0
 10
359.2605868938667
 20
4529.990995567863
 30
0.0
 10
359.2592629553476
 20
4529.979177847842
 30
0.0
 11
359.5592624457276
 21
4530.279175475577
 31
0.0
 11
359.5237903718516
 21
4530.275409291833
 31
0.0
 11
359.4928518413299
 21
4530.272124448912
 31
0.0
 11
359.4621887564215
 21
4530.265164263528
 31
0.0
 11
359.4289652794268
 21
4530.250523058297
 31
0.0
 11
359.3960543863343
 21
4530.231165372996
 31
0.0
 11
359.3680020580033
 21
4530.210951883861
 31
0.0
 11
359.3466535202542
 21
4530.191785093689
 31
0.0
 11
359.327485775732
 21
4530.170437397606
 31
0.0
 11
359.3072719813062
 21
4530.142385800966
 31
0.0
 11
359.2879153393599
 21
4530.109474876246
 31
0.0
 11
359.2732752986641
 21
4530.07625125804
 31
0.0
 11
359.2663151784312
 21
4530.045588417578
 31
0.0
 11
359.263029785254
 21
4530.014649970207
 31
0.0
 11
359.2592629553476
 21
4529.979177847842
 31
0.0
  0
SPLINE
  5
158
330
A
100
AcDbEntity
  8
0
  6
Continuous
 62
     3
100
AcDbSpline
210
0.0
220
0.0
230
1.0
 70
     8
 71
     3
 72
    19
 73
    15
 74
    13
 42
0.0000000001
 43
0.0000000001
 44
0.00000000001
 40
0.0
 40
0.0
 40
0.0
 40
0.0
 40
0.0292079305149049
 40
0.0569387071936256
 40
0.0935762749120527
 40
0.1341721821756426
 40
0.1869875436738513
 40
0.2378827182073215
 40
0.2917965340191214
 40
0.3483914406873444
 40
0.3951101145238729
 40
0.4371054163101844
 40
0.4694272858626995
 40
0.5030931383738605
 40
0.5030931383738605
 40
0.5030931383738605
 40
0.5030931383738605
 10
359.2592629553476
 20
4523.579177543858
 30
0.0
 10
359.2601513298712
 20
4523.569481197702
 30
0.0
 10
359.2618831505098
 20
4523.550578885727
 30
0.0
 10
359.2639257098689
 20
4523.519460368576
 30
0.0
 10
359.2704015248906
 20
4523.484832854572
 30
0.0
 10
359.2878939367319
 20
4523.444886792161
 30
0.0
 10
359.3129831278215
 20
4523.403689113813
 30
0.0
 10
359.3469902243091
 20
4523.363317969827
 30
0.0
 10
359.3886529027548
 20
4523.32879741262
 30
0.0
 10
359.4341820545515
 20
4523.302524401674
 30
0.0
 10
359.4795604848903
 20
4523.284502359779
 30
0.0
 10
359.5200186344474
 20
4523.279921130408
 30
0.0
 10
359.5559907982038
 20
4523.28083442832
 30
0.0
 10
359.5779894813859
 20
4523.280728036762
 30
0.0
 10
359.5892128484046
 20
4523.280673757533
 30
0.0
 11
359.2592629553476
 21
4523.579177543858
 31
0.0
 11
359.2617994096908
 21
4523.550079956255
 31
0.0
 11
359.2642075860903
 21
4523.522453942035
 31
0.0
 11
359.2714227634256
 21
4523.486533855951
 31
0.0
 11
359.2869446523611
 21
4523.449022542318
 31
0.0
 11
359.3144435971503
 21
4523.403930742114
 31
0.0
 11
359.3473863447091
 21
4523.36513519889
 31
0.0
 11
359.3887880236261
 21
4523.33060115021
 31
0.0
 11
359.4377461663722
 21
4523.302209536665
 31
0.0
 11
359.481576230703
 21
4523.286036721642
 31
0.0
 11
359.5232251293245
 21
4523.28065391422
 31
0.0
 11
359.5555469974156
 21
4523.2806636338
 31
0.0
 11
359.5892128484046
 21
4523.280673757533
 31
0.0
  0
SPLINE
  5
157
330
A
100
AcDbEntity
  8
0
  6
Continuous
 62
     3
100
AcDbSpline
210
0.0
220
0.0
230
1.0
 70
     8
 71
     3
 72
    19
 73
    15
 74
    13
 42
0.0000000001
 43
0.0000000001
 44
0.00000000001
 40
0.0
 40
0.0
 40
0.0
 40
0.0
 40
0.0887805992676446
 40
0.1551616721707764
 40
0.2099054875892094
 40
0.2832873843438753
 40
0.3403012068980789
 40
0.3786512945566657
 40
0.4074053763195391
 40
0.4502007035724678
 40
0.4943252212564982
 40
0.5262679810513911
 40
0.558164692471983
 40
0.6023621017010111
 40
0.6023621017010111
 40
0.6023621017010111
 40
0.6023621017010111
 10
376.0592628260936
 20
4528.776674835902
 30
0.0
 10
376.0587967421124
 20
4528.806239459501
 30
0.0
 10
376.0579821680896
 20
4528.857909491834
 30
0.0
 10
376.052352780329
 20
4528.928023239694
 30
0.0
 10
376.0324142639704
 20
4528.990149646856
 30
0.0
 10
376.004638958465
 20
4529.045427915149
 30
0.0
 10
375.9768908076253
 20
4529.094224844409
 30
0.0
 10
375.9553431693159
 20
4529.129843270019
 30
0.0
 10
375.9291168174824
 20
4529.155711624964
 30
0.0
 10
375.8988402278628
 20
4529.179626985873
 30
0.0
 10
375.866633462209
 20
4529.202616010734
 30
0.0
 10
375.8351020045115
 20
4529.220658050616
 30
0.0
 10
375.7993584989641
 20
4529.227902896896
 30
0.0
 10
375.7739947431142
 20
4529.228385710968
 30
0.0
 10
375.7592628257556
 20
4529.228666141716
 30
0.0
 11
376.0592628260936
 21
4528.776674835902
 31
0.0
 11
376.0567689075068
 21
4528.865420400165
 31
0.0
 11
376.0492871520328
 21
4528.931378494245
 31
0.0
 11
376.0332134197337
 21
4528.983709369039
 31
0.0
 11
376.0015881134851
 21
4529.049926759323
 31
0.0
 11
375.9735092703782
 21
4529.099546861418
 31
0.0
 11
375.9522519018025
 21
4529.131466346136
 31
0.0
 11
375.9322006611528
 21
4529.152075687863
 31
0.0
 11
375.8989939227972
 21
4529.179071105298
 31
0.0
 11
375.8627927219349
 21
4529.204298989017
 31
0.0
 11
375.8344685778205
 21
4529.219066614538
 31
0.0
 11
375.8033950311203
 21
4529.22626626001
 31
0.0
 11
375.7592628257556
 21
4529.228666141716
 31
0.0
  0
SPLINE
  5
156
330
A
100
AcDbEntity
  8
0
  6
Continuous
 62
     3
100
AcDbSpline
210
0.0
220
0.0
230
1.0
 70
    24
 71
     3
 72
    55
 73
    51
 74
    49
 42
0.0000000001
 43
0.0000000001
 44
0.00000000001
 40
0.0
 40
0.0
 40
0.0
 40
0.0
 40
0.0602005175578597
 40
0.1162896428641034
 40
0.1909350745163465
 40
0.2745520376111017
 40
0.3817218961803519
 40
0.4819601184099156
 40
0.5930252695225136
 40
0.7061949296567036
 40
0.8463102252908356
 40
0.9866548505278842
 40
1.159381438014861
 40
1.336819681520864
 40
1.529672212128389
 40
1.718711616480504
 40
1.899176929418899
 40
2.079083754832026
 40
2.247884456576684
 40
2.415125136114511
 40
2.57712975261893
 40
2.740525729313048
 40
2.904990004812134
 40
3.070052652369668
 40
3.232564632278808
 40
3.394697872563483
 40
3.550565847169309
 40
3.706662902114658
 40
3.85379528291105
 40
4.000858687660183
 40
4.135502459487724
 40
4.270018168536807
 40
4.389997319862231
 40
4.510147224735192
 40
4.613420858880999
 40
4.716328657003032
 40
4.801379822734816
 40
4.886711554761859
 40
4.953363436711697
 40
5.019539894808985
 40
5.067504038504921
 40
5.115839699774369
 40
5.145982049049052
 40
5.175291592006033
 40
5.187841449905135
 40
5.198590465911365
 40
5.200304129890355
 40
5.203828863555827
 40
5.208198279000498
 40
5.212221372468775
 40
5.212221372468775
 40
5.212221372468775
 40
5.212221372468775
 10
376.0592632876436
 20
4528.77667649124
 30
0.0
 10
376.0592632876437
 20
4528.756609652055
 30
0.0
 10
376.0592632876437
 20
4528.717846437767
 30
0.0
 10
376.0592632876437
 20
4528.654201412928
 30
0.0
 10
376.0592632876436
 20
4528.582750906242
 30
0.0
 10
376.0592632876438
 20
4528.494273488472
 30
0.0
 10
376.0592632876436
 20
4528.397265140506
 30
0.0
 10
376.0592632876437
 20
4528.291107396536
 30
0.0
 10
376.0592632876436
 20
4528.18294971871
 30
0.0
 10
376.0592632876437
 20
4528.061499683083
 30
0.0
 10
376.0592632876436
 20
4527.930289822747
 30
0.0
 10
376.0592632876437
 20
4527.779227653296
 30
0.0
 10
376.0592632876436
 20
4527.615724501219
 30
0.0
 10
376.0592632876436
 20
4527.434718714018
 30
0.0
 10
376.0592632876438
 20
4527.248275321198
 30
0.0
 10
376.0592632876436
 20
4527.060822905231
 30
0.0
 10
376.0592632876436
 20
4526.877685724328
 30
0.0
 10
376.0592632876436
 20
4526.701294777631
 30
0.0
 10
376.0592632876436
 20
4526.529312042065
 30
0.0
 10
376.0592632876436
 20
4526.36329670947
 30
0.0
 10
376.0592632876436
 20
4526.199082951892
 30
0.0
 10
376.0592632876436
 20
4526.035794662324
 30
0.0
 10
376.0592632876437
 20
4525.871487029077
 30
0.0
 10
376.0592632876436
 20
4525.707474061419
 30
0.0
 10
376.0592632876436
 20
4525.544238105504
 30
0.0
 10
376.0592632876436
 20
4525.384067040571
 30
0.0
 10
376.0592632876437
 20
4525.226034283958
 30
0.0
 10
376.0592632876436
 20
4525.073001813845
 30
0.0
 10
376.0592632876437
 20
4524.922904200329
 30
0.0
 10
376.0592632876436
 20
4524.779957681277
 30
0.0
 10
376.0592632876437
 20
4524.641216719158
 30
0.0
 10
376.0592632876436
 20
4524.511503842616
 30
0.0
 10
376.0592632876436
 20
4524.38662225132
 30
0.0
 10
376.0592632876437
 20
4524.272154697878
 30
0.0
 10
376.0592632876436
 20
4524.163377553141
 30
0.0
 10
376.0592632876436
 20
4524.066300130076
 30
0.0
 10
376.0592632876436
 20
4523.975202889199
 30
0.0
 10
376.0592632876436
 20
4523.896192433176
 30
0.0
 10
376.0592632876438
 20
4523.82346904056
 30
0.0
 10
376.0592632876436
 20
4523.763215579771
 30
0.0
 10
376.0592632876437
 20
4523.709027102275
 30
0.0
 10
376.0592632876436
 20
4523.666970081116
 30
0.0
 10
376.0592632876436
 20
4523.630821565858
 30
0.0
 10
376.0592632876436
 20
4523.607391425944
 30
0.0
 10
376.0592632876436
 20
4523.58885513052
 30
0.0
 10
376.0592632876437
 20
4523.58231554902
 30
0.0
 10
376.0592632876436
 20
4523.574915680439
 30
0.0
 10
376.0592632876438
 20
4523.581067353363
 30
0.0
 10
376.0592632876436
 20
4523.583931485654
 30
0.0
 10
376.0592632876436
 20
4523.586877419756
 30
0.0
 10
376.0592632876436
 20
4523.588289603928
 30
0.0
 11
376.0592632876436
 21
4528.77667649124
 31
0.0
 11
376.0592632876436
 21
4528.716475973682
 31
0.0
 11
376.0592632876436
 21
4528.660386848376
 31
0.0
 11
376.0592632876436
 21
4528.585741416724
 31
0.0
 11
376.0592632876436
 21
4528.50212445363
 31
0.0
 11
376.0592632876436
 21
4528.39495459506
 31
0.0
 11
376.0592632876436
 21
4528.29471637283
 31
0.0
 11
376.0592632876436
 21
4528.183651221717
 31
0.0
 11
376.0592632876436
 21
4528.070481561583
 31
0.0
 11
376.0592632876436
 21
4527.930366265949
 31
0.0
 11
376.0592632876436
 21
4527.790021640712
 31
0.0
 11
376.0592632876436
 21
4527.617295053225
 31
0.0
 11
376.0592632876436
 21
4527.43985680972
 31
0.0
 11
376.0592632876436
 21
4527.247004279112
 31
0.0
 11
376.0592632876436
 21
4527.057964874759
 31
0.0
 11
376.0592632876436
 21
4526.877499561821
 31
0.0
 11
376.0592632876436
 21
4526.697592736408
 31
0.0
 11
376.0592632876436
 21
4526.528792034663
 31
0.0
 11
376.0592632876436
 21
4526.361551355125
 31
0.0
 11
376.0592632876436
 21
4526.199546738621
 31
0.0
 11
376.0592632876436
 21
4526.036150761927
 31
0.0
 11
376.0592632876436
 21
4525.871686486428
 31
0.0
 11
376.0592632876436
 21
4525.70662383887
 31
0.0
 11
376.0592632876436
 21
4525.544111858962
 31
0.0
 11
376.0592632876436
 21
4525.381978618677
 31
0.0
 11
376.0592632876436
 21
4525.226110644071
 31
0.0
 11
376.0592632876436
 21
4525.070013589125
 31
0.0
 11
376.0592632876436
 21
4524.922881208329
 31
0.0
 11
376.0592632876436
 21
4524.77581780358
 31
0.0
 11
376.0592632876436
 21
4524.641174031752
 31
0.0
 11
376.0592632876436
 21
4524.506658322703
 31
0.0
 11
376.0592632876436
 21
4524.386679171378
 31
0.0
 11
376.0592632876436
 21
4524.266529266505
 31
0.0
 11
376.0592632876436
 21
4524.163255632359
 31
0.0
 11
376.0592632876436
 21
4524.060347834237
 31
0.0
 11
376.0592632876436
 21
4523.975296668505
 31
0.0
 11
376.0592632876436
 21
4523.889964936478
 31
0.0
 11
376.0592632876436
 21
4523.823313054529
 31
0.0
 11
376.0592632876436
 21
4523.757136596431
 31
0.0
 11
376.0592632876436
 21
4523.709172452735
 31
0.0
 11
376.0592632876436
 21
4523.660836791466
 31
0.0
 11
376.0592632876436
 21
4523.630694442191
 31
0.0
 11
376.0592632876436
 21
4523.601384899234
 31
0.0
 11
376.0592632876436
 21
4523.588835041335
 31
0.0
 11
376.0592632876436
 21
4523.578086025329
 31
0.0
 11
376.0592632876436
 21
4523.57637236135
 31
0.0
 11
376.0592632876436
 21
4523.579897095015
 31
0.0
 11
376.0592632876436
 21
4523.58426651046
 31
0.0
 11
376.0592632876436
 21
4523.588289603928
 31
0.0
  0
SPLINE
  5
155
330
A
100
AcDbEntity
  8
0
  6
Continuous
 62
     3
100
AcDbSpline
210
0.0
220
0.0
230
1.0
 70
    24
 71
     3
 72
    57
 73
    53
 74
    51
 42
0.0000000001
 43
0.0000000001
 44
0.00000000001
 40
0.0
 40
0.0
 40
0.0
 40
0.0
 40
0.0014529676818711
 40
0.0058118804208789
 40
0.0404224991643787
 40
0.0882173848494858
 40
0.1539918139260408
 40
0.2015644976963813
 40
0.2717947914106844
 40
0.3688903669772117
 40
0.4792302814366849
 40
0.5588727839713102
 40
0.6535601255391157
 40
0.7847353716269936
 40
0.9203841357248165
 40
1.011269217880908
 40
1.141015015111406
 40
1.334124215459269
 40
1.590515866485475
 40
1.785272615868052
 40
2.012698922088929
 40
2.312883096939913
 40
2.599296045308619
 40
2.820941095011221
 40
2.939627216623193
 40
3.070901109304941
 40
3.20000000019354
 40
3.32909889108123
 40
3.460372783761158
 40
3.579058905369493
 40
3.800703955065728
 40
4.087116903428068
 40
4.387301078271775
 40
4.614727384488105
 40
4.809484133867044
 40
5.065875784887793
 40
5.258984985231109
 40
5.388730782457969
 40
5.479615864612242
 40
5.615264628708246
 40
5.746439874795214
 40
5.841127216363929
 40
5.920769718897645
 40
6.031109633357118
 40
6.128205208923645
 40
6.198435502638858
 40
6.246008186410108
 40
6.311782615489391
 40
6.359577501179046
 40
6.394188119925274
 40
6.398547032665192
 40
6.40000000035161
 40
6.40000000035161
 40
6.40000000035161
 40
6.40000000035161
 10
359.2592628253216
 20
4523.579176399581
 30
0.0
 10
359.2592628253216
 20
4523.579660722141
 30
0.0
 10
359.2592628253216
 20
4523.581598015616
 30
0.0
 10
359.2592628253215
 20
4523.595072182001
 30
0.0
 10
359.2592628253218
 20
4523.623993654394
 30
0.0
 10
359.2592628253216
 20
4523.673386965561
 30
0.0
 10
359.2592628253217
 20
4523.727100965071
 30
0.0
 10
359.2592628253216
 20
4523.788293433925
 30
0.0
 10
359.2592628253218
 20
4523.859926284944
 30
0.0
 10
359.2592628253216
 20
4523.952481546189
 30
0.0
 10
359.2592628253217
 20
4524.048174210377
 30
0.0
 10
359.2592628253216
 20
4524.143064129897
 30
0.0
 10
359.2592628253216
 20
4524.244899159961
 30
0.0
 10
359.2592628253217
 20
4524.365402943877
 30
0.0
 10
359.2592628253216
 20
4524.484639307992
 30
0.0
 10
359.2592628253216
 20
4524.603399189154
 30
0.0
 10
359.2592628253216
 20
4524.741312549063
 30
0.0
 10
359.2592628253217
 20
4524.934394765266
 30
0.0
 10
359.2592628253216
 20
4525.149147298852
 30
0.0
 10
359.2592628253216
 20
4525.375338867728
 30
0.0
 10
359.2592628253218
 20
4525.616127944547
 30
0.0
 10
359.2592628253216
 20
4525.887469087692
 30
0.0
 10
359.2592628253217
 20
4526.156883145335
 30
0.0
 10
359.2592628253215
 20
4526.365797851894
 30
0.0
 10
359.2592628253218
 20
4526.522999539895
 30
0.0
 10
359.2592628253216
 20
4526.649352508288
 30
0.0
 10
359.2592628253217
 20
4526.779176399775
 30
0.0
 10
359.2592628253215
 20
4526.909000291259
 30
0.0
 10
359.2592628253218
 20
4527.035353259653
 30
0.0
 10
359.2592628253216
 20
4527.192554947646
 30
0.0
 10
359.2592628253216
 20
4527.401469654201
 30
0.0
 10
359.2592628253217
 20
4527.670883711837
 30
0.0
 10
359.2592628253216
 20
4527.942224854978
 30
0.0
 10
359.2592628253216
 20
4528.183013931789
 30
0.0
 10
359.2592628253216
 20
4528.409205500663
 30
0.0
 10
359.2592628253216
 20
4528.623958034242
 30
0.0
 10
359.2592628253217
 20
4528.81704025044
 30
0.0
 10
359.2592628253216
 20
4528.954953610348
 30
0.0
 10
359.2592628253217
 20
4529.073713491508
 30
0.0
 10
359.2592628253217
 20
4529.19294985562
 30
0.0
 10
359.2592628253216
 20
4529.313453639537
 30
0.0
 10
359.2592628253216
 20
4529.4152886696
 30
0.0
 10
359.2592628253216
 20
4529.510178589121
 30
0.0
 10
359.2592628253217
 20
4529.605871253306
 30
0.0
 10
359.2592628253216
 20
4529.698426514555
 30
0.0
 10
359.2592628253216
 20
4529.770059365571
 30
0.0
 10
359.2592628253218
 20
4529.831251834429
 30
0.0
 10
359.2592628253215
 20
4529.884965833939
 30
0.0
 10
359.2592628253218
 20
4529.934359145112
 30
0.0
 10
359.2592628253215
 20
4529.963280617504
 30
0.0
 10
359.2592628253218
 20
4529.976754783897
 30
0.0
 10
359.2592628253216
 20
4529.97869207737
 30
0.0
 10
359.2592628253216
 20
4529.979176399932
 30
0.0
 11
359.2592628253216
 21
4523.579176399581
 31
0.0
 11
359.2592628253216
 21
4523.580629367263
 31
0.0
 11
359.2592628253216
 21
4523.584988280002
 31
0.0
 11
359.2592628253216
 21
4523.619598898745
 31
0.0
 11
359.2592628253216
 21
4523.667393784431
 31
0.0
 11
359.2592628253216
 21
4523.733168213507
 31
0.0
 11
359.2592628253216
 21
4523.780740897278
 31
0.0
 11
359.2592628253216
 21
4523.850971190991
 31
0.0
 11
359.2592628253216
 21
4523.948066766558
 31
0.0
 11
359.2592628253216
 21
4524.058406681017
 31
0.0
 11
359.2592628253216
 21
4524.138049183553
 31
0.0
 11
359.2592628253216
 21
4524.23273652512
 31
0.0
 11
359.2592628253216
 21
4524.363911771208
 31
0.0
 11
359.2592628253216
 21
4524.499560535306
 31
0.0
 11
359.2592628253216
 21
4524.590445617461
 31
0.0
 11
359.2592628253216
 21
4524.720191414693
 31
0.0
 11
359.2592628253216
 21
4524.913300615041
 31
0.0
 11
359.2592628253216
 21
4525.169692266067
 31
0.0
 11
359.2592628253216
 21
4525.364449015449
 31
0.0
 11
359.2592628253216
 21
4525.59187532167
 31
0.0
 11
359.2592628253216
 21
4525.892059496521
 31
0.0
 11
359.2592628253216
 21
4526.17847244489
 31
0.0
 11
359.2592628253216
 21
4526.400117494592
 31
0.0
 11
359.2592628253216
 21
4526.518803616204
 31
0.0
 11
359.2592628253216
 21
4526.650077508886
 31
0.0
 11
359.2592628253216
 21
4526.779176399775
 31
0.0
 11
359.2592628253216
 21
4526.908275290662
 31
0.0
 11
359.2592628253216
 21
4527.039549183342
 31
0.0
 11
359.2592628253216
 21
4527.158235304951
 31
0.0
 11
359.2592628253216
 21
4527.379880354646
 31
0.0
 11
359.2592628253216
 21
4527.666293303009
 31
0.0
 11
359.2592628253216
 21
4527.966477477852
 31
0.0
 11
359.2592628253216
 21
4528.193903784069
 31
0.0
 11
359.2592628253216
 21
4528.388660533448
 31
0.0
 11
359.2592628253216
 21
4528.645052184469
 31
0.0
 11
359.2592628253216
 21
4528.838161384812
 31
0.0
 11
359.2592628253216
 21
4528.967907182039
 31
0.0
 11
359.2592628253216
 21
4529.058792264193
 31
0.0
 11
359.2592628253216
 21
4529.194441028289
 31
0.0
 11
359.2592628253216
 21
4529.325616274376
 31
0.0
 11
359.2592628253216
 21
4529.420303615945
 31
0.0
 11
359.2592628253216
 21
4529.499946118479
 31
0.0
 11
359.2592628253216
 21
4529.610286032938
 31
0.0
 11
359.2592628253216
 21
4529.707381608505
 31
0.0
 11
359.2592628253216
 21
4529.77761190222
 31
0.0
 11
359.2592628253216
 21
4529.825184585991
 31
0.0
 11
359.2592628253216
 21
4529.89095901507
 31
0.0
 11
359.2592628253216
 21
4529.93875390076
 31
0.0
 11
359.2592628253216
 21
4529.973364519507
 31
0.0
 11
359.2592628253216
 21
4529.977723432246
 31
0.0
 11
359.2592628253216
 21
4529.979176399932
 31
0.0
  0
SPLINE
  5
154
330
A
100
AcDbEntity
  8
0
  6
Continuous
 62
     3
100
AcDbSpline
210
0.0
220
0.0
230
1.0
 70
     8
 71
     3
 72
    23
 73
    19
 74
    17
 42
0.0000000001
 43
0.0000000001
 44
0.00000000001
 40
0.0
 40
0.0
 40
0.0
 40
0.0
 40
0.0000162372789889
 40
0.0000246649625101
 40
0.0004404556329621
 40
0.0020926624427975
 40
0.0113305546978531
 40
0.0218703561835758
 40
0.0413377457212564
 40
0.0601435929662616
 40
0.0849209493597867
 40
0.1101160914113626
 40
0.1410520557197161
 40
0.1738559131723415
 40
0.1990024065986412
 40
0.2201928060719941
 40
0.2343194628947848
 40
0.249893752683719
 40
0.249893752683719
 40
0.249893752683719
 40
0.249893752683719
 10
370.0592627698106
 20
4563.029022431571
 30
0.0
 10
370.0592627702199
 20
4563.029027806636
 30
0.0
 10
370.0592627708418
 20
4563.029035971537
 30
0.0
 10
370.0592627822617
 20
4563.029186395088
 30
0.0
 10
370.0592626851363
 20
4563.027703617529
 30
0.0
 10
370.0592625456363
 20
4563.025683706405
 30
0.0
 10
370.0592621347499
 20
4563.016736960036
 30
0.0
 10
370.0592622754844
 20
4563.004542886287
 30
0.0
 10
370.0592625433138
 20
4562.987853960073
 30
0.0
 10
370.0592627482757
 20
4562.966973729737
 30
0.0
 10
370.0592628580929
 20
4562.944000667456
 30
0.0
 10
370.0592627240206
 20
4562.91704574795
 30
0.0
 10
370.0592625307787
 20
4562.887395921194
 30
0.0
 10
370.0592624884071
 20
4562.857768540616
 30
0.0
 10
370.0592625010703
 20
4562.831388005714
 30
0.0
 10
370.0592625793152
 20
4562.81123354369
 30
0.0
 10
370.0592626837583
 20
4562.794269752585
 30
0.0
 10
370.0592627402094
 20
4562.78436943817
 30
0.0
 10
370.0592627698106
 20
4562.779178008829
 30
0.0
 11
370.0592627698106
 21
4563.029022431571
 31
0.0
 11
370.0592627710463
 21
4563.02903866885
 31
0.0
 11
370.0592627716877
 21
4563.029047096534
 31
0.0
 11
370.0592627458489
 21
4563.028631305864
 31
0.0
 11
370.0592626375205
 21
4563.026979099058
 31
0.0
 11
370.0592622579171
 21
4563.01774120681
 31
0.0
 11
370.0592622505066
 21
4563.007201405325
 31
0.0
 11
370.059262524802
 21
4562.987734015789
 31
0.0
 11
370.0592627154417
 21
4562.968928168545
 31
0.0
 11
370.0592628174529
 21
4562.944150812151
 31
0.0
 11
370.0592627277008
 21
4562.918955670101
 31
0.0
 11
370.0592625603046
 21
4562.888019705792
 31
0.0
 11
370.0592624965799
 21
4562.855215848339
 31
0.0
 11
370.0592625171798
 21
4562.830069354913
 31
0.0
 11
370.0592625980962
 21
4562.80887895544
 31
0.0
 11
370.0592626797686
 21
4562.794752298617
 31
0.0
 11
370.0592627698106
 21
4562.779178008829
 31
0.0
  0
SPLINE
  5
153
330
A
100
AcDbEntity
  8
0
  6
Continuous
 62
     3
100
AcDbSpline
210
0.0
220
0.0
230
1.0
 70
     8
 71
     3
 72
    37
 73
    33
 74
    31
 42
0.0000000001
 43
0.0000000001
 44
0.00000000001
 40
0.0
 40
0.0
 40
0.0
 40
0.0
 40
0.0155291735882304
 40
0.0292834987085565
 40
0.0420574808749943
 40
0.0568257898586129
 40
0.0681889865997478
 40
0.0778820035035523
 40
0.0817354702211003
 40
0.0855308216186203
 40
0.0867780853167576
 40
0.0878511828649727
 40
0.0880775770782868
 40
0.0882883560988495
 40
0.088364556835507
 40
0.0884368278247286
 40
0.0886561511114571
 40
0.0888606454817938
 40
0.0905500401303591
 40
0.092877196145231
 40
0.1020934860834787
 40
0.1122358519856754
 40
0.1338845483449834
 40
0.1570495345259173
 40
0.1865100028799713
 40
0.2167392601914471
 40
0.2339658732854018
 40
0.2474812944338423
 40
0.2494081253299244
 40
0.2498754911349041
 40
0.2498861254690071
 40
0.2499065595212103
 40
0.2499065595212103
 40
0.2499065595212103
 40
0.2499065595212103
 10
365.0592628815685
 20
4562.779178008829
 30
0.0
 10
365.0592628761014
 20
4562.784354400025
 30
0.0
 10
365.0592628657922
 20
4562.794115566261
 30
0.0
 10
365.0592628435384
 20
4562.808134726552
 30
0.0
 10
365.059262849895
 20
4562.82190026531
 30
0.0
 10
365.0592628852968
 20
4562.834868761274
 30
0.0
 10
365.0592629663486
 20
4562.846810268815
 30
0.0
 10
365.059263182911
 20
4562.855113495603
 30
0.0
 10
365.0592633447503
 20
4562.860894107272
 30
0.0
 10
365.0592633554333
 20
4562.863859467877
 30
0.0
 10
365.0592633474888
 20
4562.865898038759
 30
0.0
 10
365.0592633470159
 20
4562.866746957241
 30
0.0
 10
365.0592633472202
 20
4562.86725038084
 30
0.0
 10
365.0592633472322
 20
4562.867421505494
 30
0.0
 10
365.0592633472304
 20
4562.867541255744
 30
0.0
 10
365.0592633472314
 20
4562.86766385408
 30
0.0
 10
365.0592633472306
 20
4562.867829216963
 30
0.0
 10
365.0592633471803
 20
4562.868533621084
 30
0.0
 10
365.0592633475004
 20
4562.869940635317
 30
0.0
 10
365.0592633522947
 20
4562.874351591708
 30
0.0
 10
365.0592633305243
 20
4562.881580035377
 30
0.0
 10
365.0592631624811
 20
4562.895250201813
 30
0.0
 10
365.0592629533839
 20
4562.913560046263
 30
0.0
 10
365.0592628800567
 20
4562.938360815867
 30
0.0
 10
365.0592628706826
 20
4562.96577353744
 30
0.0
 10
365.0592628735383
 20
4562.99211460894
 30
0.0
 10
365.0592628857703
 20
4563.010936066876
 30
0.0
 10
365.0592628837448
 20
4563.024615506585
 30
0.0
 10
365.0592628822832
 20
4563.027499744121
 30
0.0
 10
365.0592628814938
 20
4563.029210172928
 30
0.0
 10
365.0592628815617
 20
4563.029039466702
 30
0.0
 10
365.0592628815658
 20
4563.029029190411
 30
0.0
 10
365.0592628815685
 20
4563.029022431571
 30
0.0
 11
365.0592628815685
 21
4562.779178008829
 31
0.0
 11
365.0592628637091
 21
4562.794707182417
 31
0.0
 11
365.0592628478908
 21
4562.808461507538
 31
0.0
 11
365.0592628540671
 21
4562.821235489704
 31
0.0
 11
365.0592628996839
 21
4562.836003798688
 31
0.0
 11
365.0592630095666
 21
4562.847366995428
 31
0.0
 11
365.0592632381072
 21
4562.857060012329
 31
0.0
 11
365.0592633295065
 21
4562.860913479045
 31
0.0
 11
365.059263351352
 21
4562.864708830443
 31
0.0
 11
365.059263348009
 21
4562.865956094142
 31
0.0
 11
365.0592633471431
 21
4562.867029191689
 31
0.0
 11
365.0592633472091
 21
4562.867255585903
 31
0.0
 11
365.0592633472309
 21
4562.867466364923
 31
0.0
 11
365.0592633472306
 21
4562.86754256566
 31
0.0
 11
365.0592633472309
 21
4562.867614836649
 31
0.0
 11
365.059263347228
 21
4562.867834159936
 31
0.0
 11
365.0592633472178
 21
4562.868038654307
 31
0.0
 11
365.0592633476557
 21
4562.869728048955
 31
0.0
 11
365.0592633491578
 21
4562.872055204969
 31
0.0
 11
365.0592633178785
 21
4562.881271494908
 31
0.0
 11
365.0592632105809
 21
4562.89141386081
 31
0.0
 11
365.0592629886194
 21
4562.913062557168
 31
0.0
 11
365.0592628951852
 21
4562.936227543349
 31
0.0
 11
365.0592628729544
 21
4562.965688011702
 31
0.0
 11
365.0592628771692
 21
4562.995917269014
 31
0.0
 11
365.0592628839798
 21
4563.013143882108
 31
0.0
 11
365.0592628826729
 21
4563.026659303257
 31
0.0
 11
365.0592628817826
 21
4563.028586134152
 31
0.0
 11
365.0592628815561
 21
4563.029053499957
 31
0.0
 11
365.0592628815604
 21
4563.029042865624
 31
0.0
 11
365.0592628815685
 21
4563.029022431571
 31
0.0
  0
SPLINE
  5
152
330
A
100
AcDbEntity
  8
0
  6
Continuous
 62
     3
100
AcDbSpline
210
0.0
220
0.0
230
1.0
 70
     8
 71
     3
 72
    21
 73
    17
 74
    15
 42
0.0000000001
 43
0.0000000001
 44
0.00000000001
 40
0.0
 40
0.0
 40
0.0
 40
0.0
 40
0.0191781687215709
 40
0.0543681012730405
 40
0.1490590894654926
 40
0.2495823537342742
 40
0.3384793589563651
 40
0.4116088151470869
 40
0.4616978980312264
 40
0.5166374105927658
 40
0.5766933817154508
 40
0.6397473902006716
 40
0.6899007301073747
 40
0.7342162419741014
 40
0.7695534782441536
 40
0.8080160778068652
 40
0.8080160778068652
 40
0.8080160778068652
 40
0.8080160778068652
 10
344.5592602625986
 20
4523.081098012546
 30
0.0
 10
344.5536620935214
 20
4523.078011276221
 30
0.0
 10
344.5377918700523
 20
4523.069260701773
 30
0.0
 10
344.4942570758917
 20
4523.045318733601
 30
0.0
 10
344.428653154081
 20
4523.005192678424
 30
0.0
 10
344.3527146827017
 20
4522.948429762066
 30
0.0
 10
344.2853376616737
 20
4522.892583113248
 30
0.0
 10
344.2325148448443
 20
4522.845484599907
 30
0.0
 10
344.1917795492634
 20
4522.802194730517
 30
0.0
 10
344.1570062560196
 20
4522.759485646391
 30
0.0
 10
344.1233625666558
 20
4522.710480256427
 30
0.0
 10
344.0952045607115
 20
4522.660016786667
 30
0.0
 10
344.0740491144027
 20
4522.611662724025
 30
0.0
 10
344.0657901687842
 20
4522.568902497655
 30
0.0
 10
344.0629469258492
 20
4522.529640171878
 30
0.0
 10
344.0605229311162
 20
4522.505157571163
 30
0.0
 10
344.0592596066426
 20
4522.492397861648
 30
0.0
 11
344.5592602625986
 21
4523.081098012546
 31
0.0
 11
344.5424646676282
 21
4523.071840035171
 31
0.0
 11
344.5117050784908
 21
4523.05474679004
 31
0.0
 11
344.4311152882178
 21
4523.005030907783
 31
0.0
 11
344.3501757623355
 21
4522.945417823572
 31
0.0
 11
344.2816618506626
 21
4522.888774011511
 31
0.0
 11
344.2276617329977
 21
4522.839459666186
 31
0.0
 11
344.1933187514773
 21
4522.80299768812
 31
0.0
 11
344.1586530910259
 21
4522.760375604337
 31
0.0
 11
344.1247037094738
 21
4522.710836133612
 31
0.0
 11
344.0940988978078
 21
4522.655707615684
 31
0.0
 11
344.0751469188114
 21
4522.609272930416
 31
0.0
 11
344.0661941283885
 21
4522.565871177737
 31
0.0
 11
344.0628737032061
 21
4522.530690287415
 31
0.0
 11
344.0592596066426
 21
4522.492397861648
 31
0.0
  0
SPLINE
  5
151
330
A
100
AcDbEntity
  8
0
  6
Continuous
 62
     3
100
AcDbSpline
210
0.0
220
0.0
230
1.0
 70
     8
 71
     3
 72
    21
 73
    17
 74
    15
 42
0.0000000001
 43
0.0000000001
 44
0.00000000001
 40
0.0
 40
0.0
 40
0.0
 40
0.0
 40
0.0191781687205994
 40
0.0543681012720318
 40
0.1490590894654934
 40
0.2495823537343436
 40
0.3384793589564291
 40
0.4116088151471036
 40
0.461697898030698
 40
0.5166374105928936
 40
0.5766933817155746
 40
0.6397473902008058
 40
0.689900730107482
 40
0.7342162419742103
 40
0.7695534782442631
 40
0.8080160778069767
 40
0.8080160778069767
 40
0.8080160778069767
 40
0.8080160778069767
 10
41.55925847459854
 20
4523.081098012546
 30
0.0
 10
41.56485664367585
 20
4523.078011276221
 30
0.0
 10
41.58072686714541
 20
4523.069260701776
 30
0.0
 10
41.62426166130527
 20
4523.045318733601
 30
0.0
 10
41.68986558311565
 20
4523.005192678423
 30
0.0
 10
41.76580405449538
 20
4522.948429762066
 30
0.0
 10
41.83318107552365
 20
4522.892583113248
 30
0.0
 10
41.88600389235232
 20
4522.845484599906
 30
0.0
 10
41.9267391879346
 20
4522.802194730517
 30
0.0
 10
41.96151248117714
 20
4522.759485646391
 30
0.0
 10
41.99515617054156
 20
4522.710480256424
 30
0.0
 10
42.02331417648559
 20
4522.660016786667
 30
0.0
 10
42.04446962279431
 20
4522.611662724028
 30
0.0
 10
42.05272856841302
 20
4522.568902497652
 30
0.0
 10
42.05557181134787
 20
4522.529640171881
 30
0.0
 10
42.0579958060809
 20
4522.505157571165
 30
0.0
 10
42.05925913055454
 20
4522.492397861648
 30
0.0
 11
41.55925847459854
 21
4523.081098012546
 31
0.0
 11
41.57605406956889
 21
4523.071840035172
 31
0.0
 11
41.6068136587062
 21
4523.054746790042
 31
0.0
 11
41.68740344897925
 21
4523.005030907783
 31
0.0
 11
41.76834297486169
 21
4522.945417823572
 31
0.0
 11
41.83685688653456
 21
4522.888774011511
 31
0.0
 11
41.89085700419943
 21
4522.839459666186
 31
0.0
 11
41.92519998571996
 21
4522.80299768812
 31
0.0
 11
41.95986564617125
 21
4522.760375604337
 31
0.0
 11
41.99381502772343
 21
4522.710836133612
 31
0.0
 11
42.02441983938936
 21
4522.655707615684
 31
0.0
 11
42.04337181838577
 21
4522.609272930416
 31
0.0
 11
42.05232460880861
 21
4522.565871177737
 31
0.0
 11
42.05564503399105
 21
4522.530690287415
 31
0.0
 11
42.05925913055454
 21
4522.492397861648
 31
0.0
  0
SPLINE
  5
150
330
A
100
AcDbEntity
  8
0
  6
Continuous
 62
     3
100
AcDbSpline
210
0.0
220
0.0
230
1.0
 70
     8
 71
     3
 72
    37
 73
    33
 74
    31
 42
0.0000000001
 43
0.0000000001
 44
0.00000000001
 40
0.0
 40
0.0
 40
0.0
 40
0.0
 40
0.0155291735882304
 40
0.0292834987085565
 40
0.0420574808749943
 40
0.0568257898586129
 40
0.0681889865997478
 40
0.0778820035035523
 40
0.0817354702211003
 40
0.0855308216186203
 40
0.0867780853167576
 40
0.0878511828649727
 40
0.0880775770782868
 40
0.0882883560988495
 40
0.088364556835507
 40
0.0884368278247286
 40
0.0886561511114571
 40
0.0888606454817938
 40
0.0905500401303591
 40
0.092877196145231
 40
0.1020934860834787
 40
0.1122358519856754
 40
0.1338845483449834
 40
0.1570495345259173
 40
0.1865100028799713
 40
0.2167392601914471
 40
0.2339658732854018
 40
0.2474812944338423
 40
0.2494081253299244
 40
0.2498754911349041
 40
0.2498861254690071
 40
0.2499065595212103
 40
0.2499065595212103
 40
0.2499065595212103
 40
0.2499065595212103
 10
21.05925585562855
 20
4562.779178008829
 30
0.0
 10
21.05925586109562
 20
4562.784354400025
 30
0.0
 10
21.05925587140492
 20
4562.794115566261
 30
0.0
 10
21.05925589365868
 20
4562.808134726552
 30
0.0
 10
21.05925588730231
 20
4562.82190026531
 30
0.0
 10
21.05925585190036
 20
4562.834868761274
 30
0.0
 10
21.05925577084846
 20
4562.846810268815
 30
0.0
 10
21.0592555542864
 20
4562.855113495603
 30
0.0
 10
21.05925539244653
 20
4562.860894107272
 30
0.0
 10
21.05925538176411
 20
4562.863859467877
 30
0.0
 10
21.05925538970803
 20
4562.865898038759
 30
0.0
 10
21.05925539018159
 20
4562.866746957241
 30
0.0
 10
21.0592553899767
 20
4562.86725038084
 30
0.0
 10
21.05925538996521
 20
4562.867421505494
 30
0.0
 10
21.05925538996663
 20
4562.867541255744
 30
0.0
 10
21.05925538996603
 20
4562.86766385408
 30
0.0
 10
21.0592553899666
 20
4562.867829216963
 30
0.0
 10
21.05925539001613
 20
4562.868533621084
 30
0.0
 10
21.05925538969686
 20
4562.869940635317
 30
0.0
 10
21.05925538490196
 20
4562.874351591708
 30
0.0
 10
21.05925540667309
 20
4562.881580035377
 30
0.0
 10
21.05925557471587
 20
4562.895250201813
 30
0.0
 10
21.05925578381341
 20
4562.913560046263
 30
0.0
 10
21.0592558571403
 20
4562.938360815867
 30
0.0
 10
21.05925586651464
 20
4562.96577353744
 30
0.0
 10
21.05925586365928
 20
4562.99211460894
 30
0.0
 10
21.05925585142587
 20
4563.010936066876
 30
0.0
 10
21.05925585345371
 20
4563.024615506585
 30
0.0
 10
21.05925585491339
 20
4563.027499744121
 30
0.0
 10
21.05925585570353
 20
4563.029210172928
 30
0.0
 10
21.05925585563526
 20
4563.029039466702
 30
0.0
 10
21.05925585563122
 20
4563.029029190411
 30
0.0
 10
21.05925585562855
 20
4563.029022431571
 30
0.0
 11
21.05925585562855
 21
4562.779178008829
 31
0.0
 11
21.05925587348801
 21
4562.794707182417
 31
0.0
 11
21.05925588930639
 21
4562.808461507538
 31
0.0
 11
21.05925588313018
 21
4562.821235489704
 31
0.0
 11
21.05925583751325
 21
4562.836003798688
 31
0.0
 11
21.05925572763056
 21
4562.847366995428
 31
0.0
 11
21.0592554990899
 21
4562.857060012329
 31
0.0
 11
21.05925540769052
 21
4562.860913479045
 31
0.0
 11
21.05925538584509
 21
4562.864708830443
 31
0.0
 11
21.05925538918807
 21
4562.865956094142
 31
0.0
 11
21.05925539005404
 21
4562.867029191689
 31
0.0
 11
21.05925538998786
 21
4562.867255585903
 31
0.0
 11
21.05925538996627
 21
4562.867466364923
 31
0.0
 11
21.05925538996643
 21
4562.86754256566
 31
0.0
 11
21.05925538996632
 21
4562.867614836649
 31
0.0
 11
21.05925538996915
 21
4562.867834159936
 31
0.0
 11
21.05925538997913
 21
4562.868038654307
 31
0.0
 11
21.05925538954137
 21
4562.869728048955
 31
0.0
 11
21.05925538803923
 21
4562.872055204969
 31
0.0
 11
21.05925541931863
 21
4562.881271494908
 31
0.0
 11
21.05925552661618
 21
4562.89141386081
 31
0.0
 11
21.0592557485778
 21
4562.913062557168
 31
0.0
 11
21.05925584201195
 21
4562.936227543349
 31
0.0
 11
21.05925586424273
 21
4562.965688011702
 31
0.0
 11
21.05925586002787
 21
4562.995917269014
 31
0.0
 11
21.05925585321727
 21
4563.013143882108
 31
0.0
 11
21.05925585452408
 21
4563.026659303257
 31
0.0
 11
21.05925585541452
 21
4563.028586134152
 31
0.0
 11
21.05925585564086
 21
4563.029053499957
 31
0.0
 11
21.05925585563662
 21
4563.029042865624
 31
0.0
 11
21.05925585562855
 21
4563.029022431571
 31
0.0
  0
SPLINE
  5
14F
330
A
100
AcDbEntity
  8
0
  6
Continuous
 62
     3
100
AcDbSpline
210
0.0
220
0.0
230
1.0
 70
     8
 71
     3
 72
    23
 73
    19
 74
    17
 42
0.0000000001
 43
0.0000000001
 44
0.00000000001
 40
0.0
 40
0.0
 40
0.0
 40
0.0
 40
0.0000162372789889
 40
0.0000246649625101
 40
0.0004404556338716
 40
0.0020926624427975
 40
0.0113305546978531
 40
0.0218703561835758
 40
0.041337745722166
 40
0.0601435929662616
 40
0.0849209493597868
 40
0.1101160914113626
 40
0.1410520557197161
 40
0.1738559131723415
 40
0.1990024065986412
 40
0.2201928060719941
 40
0.2343194628947848
 40
0.249893752683719
 40
0.249893752683719
 40
0.249893752683719
 40
0.249893752683719
 10
16.05925596738655
 20
4563.029022431571
 30
0.0
 10
16.05925596697718
 20
4563.029027806636
 30
0.0
 10
16.05925596635534
 20
4563.029035971537
 30
0.0
 10
16.05925595493281
 20
4563.029186395101
 30
0.0
 10
16.05925605206566
 20
4563.027703617502
 30
0.0
 10
16.05925619154902
 20
4563.025683706469
 30
0.0
 10
16.05925660245276
 20
4563.016736960006
 30
0.0
 10
16.05925646170944
 20
4563.004542886304
 30
0.0
 10
16.05925619388453
 20
4562.987853960065
 30
0.0
 10
16.05925598892095
 20
4562.966973729738
 30
0.0
 10
16.05925587910437
 20
4562.944000667454
 30
0.0
 10
16.05925601317639
 20
4562.917045747952
 30
0.0
 10
16.05925620641849
 20
4562.887395921194
 30
0.0
 10
16.0592562487902
 20
4562.857768540616
 30
0.0
 10
16.05925623612663
 20
4562.831388005714
 30
0.0
 10
16.05925615788192
 20
4562.81123354369
 30
0.0
 10
16.05925605343894
 20
4562.794269752585
 30
0.0
 10
16.05925599698783
 20
4562.78436943817
 30
0.0
 10
16.05925596738655
 20
4562.779178008829
 30
0.0
 11
16.05925596738655
 21
4563.029022431571
 31
0.0
 11
16.05925596615073
 21
4563.02903866885
 31
0.0
 11
16.05925596550931
 21
4563.029047096534
 31
0.0
 11
16.05925599134822
 21
4563.028631305863
 31
0.0
 11
16.05925609967651
 21
4563.026979099058
 31
0.0
 11
16.05925647928003
 21
4563.01774120681
 31
0.0
 11
16.05925648669051
 21
4563.007201405325
 31
0.0
 11
16.05925621239525
 21
4562.987734015788
 31
0.0
 11
16.0592560217554
 21
4562.968928168545
 31
0.0
 11
16.05925591974418
 21
4562.944150812151
 31
0.0
 11
16.05925600949623
 21
4562.918955670101
 31
0.0
 11
16.05925617689264
 21
4562.888019705792
 31
0.0
 11
16.05925624061725
 21
4562.855215848339
 31
0.0
 11
16.05925622001732
 21
4562.830069354913
 31
0.0
 11
16.05925613910094
 21
4562.80887895544
 31
0.0
 11
16.05925605742864
 21
4562.794752298617
 31
0.0
 11
16.05925596738655
 21
4562.779178008829
 31
0.0
  0
SPLINE
  5
14E
330
A
100
AcDbEntity
  8
0
  6
Continuous
 62
     3
100
AcDbSpline
210
0.0
220
0.0
230
1.0
 70
    24
 71
     3
 72
    57
 73
    53
 74
    51
 42
0.0000000001
 43
0.0000000001
 44
0.00000000001
 40
0.0
 40
0.0
 40
0.0
 40
0.0
 40
0.0014529676818711
 40
0.0058118804208789
 40
0.0404224991643787
 40
0.0882173848494858
 40
0.1539918139260408
 40
0.2015644976963813
 40
0.2717947914106844
 40
0.3688903669772117
 40
0.4792302814366849
 40
0.5588727839713102
 40
0.6535601255391157
 40
0.7847353716269936
 40
0.9203841357248165
 40
1.011269217880908
 40
1.141015015111406
 40
1.334124215459269
 40
1.590515866485475
 40
1.785272615868052
 40
2.012698922088929
 40
2.312883096939913
 40
2.599296045308619
 40
2.820941095011221
 40
2.939627216623193
 40
3.070901109304941
 40
3.20000000019354
 40
3.32909889108123
 40
3.460372783761158
 40
3.579058905369493
 40
3.800703955065728
 40
4.087116903428068
 40
4.387301078271775
 40
4.614727384488105
 40
4.809484133867044
 40
5.065875784887793
 40
5.258984985231109
 40
5.388730782457969
 40
5.479615864612242
 40
5.615264628708246
 40
5.746439874795214
 40
5.841127216363929
 40
5.920769718897645
 40
6.031109633357118
 40
6.128205208923645
 40
6.198435502638858
 40
6.246008186410108
 40
6.311782615489391
 40
6.359577501179046
 40
6.394188119925274
 40
6.398547032665192
 40
6.40000000035161
 40
6.40000000035161
 40
6.40000000035161
 40
6.40000000035161
 10
10.25925591112156
 20
4523.579176399581
 30
0.0
 10
10.25925591112156
 20
4523.579660722141
 30
0.0
 10
10.25925591112156
 20
4523.581598015616
 30
0.0
 10
10.25925591112155
 20
4523.595072182001
 30
0.0
 10
10.25925591112156
 20
4523.623993654394
 30
0.0
 10
10.25925591112156
 20
4523.673386965561
 30
0.0
 10
10.25925591112156
 20
4523.727100965071
 30
0.0
 10
10.25925591112156
 20
4523.788293433925
 30
0.0
 10
10.25925591112157
 20
4523.859926284944
 30
0.0
 10
10.25925591112155
 20
4523.952481546189
 30
0.0
 10
10.25925591112156
 20
4524.048174210377
 30
0.0
 10
10.25925591112156
 20
4524.143064129897
 30
0.0
 10
10.25925591112156
 20
4524.244899159961
 30
0.0
 10
10.25925591112156
 20
4524.365402943877
 30
0.0
 10
10.25925591112156
 20
4524.484639307992
 30
0.0
 10
10.25925591112156
 20
4524.603399189154
 30
0.0
 10
10.25925591112155
 20
4524.741312549063
 30
0.0
 10
10.25925591112156
 20
4524.934394765266
 30
0.0
 10
10.25925591112156
 20
4525.149147298852
 30
0.0
 10
10.25925591112156
 20
4525.375338867728
 30
0.0
 10
10.25925591112156
 20
4525.616127944547
 30
0.0
 10
10.25925591112155
 20
4525.887469087692
 30
0.0
 10
10.25925591112156
 20
4526.156883145335
 30
0.0
 10
10.25925591112155
 20
4526.365797851894
 30
0.0
 10
10.25925591112156
 20
4526.522999539895
 30
0.0
 10
10.25925591112156
 20
4526.649352508288
 30
0.0
 10
10.25925591112156
 20
4526.779176399775
 30
0.0
 10
10.25925591112156
 20
4526.909000291259
 30
0.0
 10
10.25925591112156
 20
4527.035353259653
 30
0.0
 10
10.25925591112156
 20
4527.192554947646
 30
0.0
 10
10.25925591112156
 20
4527.401469654201
 30
0.0
 10
10.25925591112156
 20
4527.670883711837
 30
0.0
 10
10.25925591112156
 20
4527.942224854978
 30
0.0
 10
10.25925591112156
 20
4528.183013931789
 30
0.0
 10
10.25925591112156
 20
4528.409205500663
 30
0.0
 10
10.25925591112155
 20
4528.623958034242
 30
0.0
 10
10.25925591112156
 20
4528.81704025044
 30
0.0
 10
10.25925591112156
 20
4528.954953610348
 30
0.0
 10
10.25925591112156
 20
4529.073713491508
 30
0.0
 10
10.25925591112156
 20
4529.19294985562
 30
0.0
 10
10.25925591112156
 20
4529.313453639537
 30
0.0
 10
10.25925591112156
 20
4529.4152886696
 30
0.0
 10
10.25925591112156
 20
4529.510178589121
 30
0.0
 10
10.25925591112156
 20
4529.605871253306
 30
0.0
 10
10.25925591112156
 20
4529.698426514555
 30
0.0
 10
10.25925591112156
 20
4529.770059365571
 30
0.0
 10
10.25925591112155
 20
4529.831251834429
 30
0.0
 10
10.25925591112156
 20
4529.884965833939
 30
0.0
 10
10.25925591112156
 20
4529.934359145112
 30
0.0
 10
10.25925591112156
 20
4529.963280617504
 30
0.0
 10
10.25925591112156
 20
4529.976754783897
 30
0.0
 10
10.25925591112156
 20
4529.97869207737
 30
0.0
 10
10.25925591112156
 20
4529.979176399932
 30
0.0
 11
10.25925591112156
 21
4523.579176399581
 31
0.0
 11
10.25925591112156
 21
4523.580629367263
 31
0.0
 11
10.25925591112156
 21
4523.584988280002
 31
0.0
 11
10.25925591112156
 21
4523.619598898745
 31
0.0
 11
10.25925591112156
 21
4523.667393784431
 31
0.0
 11
10.25925591112156
 21
4523.733168213507
 31
0.0
 11
10.25925591112156
 21
4523.780740897278
 31
0.0
 11
10.25925591112156
 21
4523.850971190991
 31
0.0
 11
10.25925591112156
 21
4523.948066766558
 31
0.0
 11
10.25925591112156
 21
4524.058406681017
 31
0.0
 11
10.25925591112156
 21
4524.138049183553
 31
0.0
 11
10.25925591112156
 21
4524.23273652512
 31
0.0
 11
10.25925591112156
 21
4524.363911771208
 31
0.0
 11
10.25925591112156
 21
4524.499560535306
 31
0.0
 11
10.25925591112156
 21
4524.590445617461
 31
0.0
 11
10.25925591112155
 21
4524.720191414693
 31
0.0
 11
10.25925591112156
 21
4524.913300615041
 31
0.0
 11
10.25925591112156
 21
4525.169692266067
 31
0.0
 11
10.25925591112156
 21
4525.364449015449
 31
0.0
 11
10.25925591112156
 21
4525.59187532167
 31
0.0
 11
10.25925591112156
 21
4525.892059496521
 31
0.0
 11
10.25925591112156
 21
4526.17847244489
 31
0.0
 11
10.25925591112156
 21
4526.400117494592
 31
0.0
 11
10.25925591112156
 21
4526.518803616204
 31
0.0
 11
10.25925591112156
 21
4526.650077508886
 31
0.0
 11
10.25925591112156
 21
4526.779176399775
 31
0.0
 11
10.25925591112156
 21
4526.908275290662
 31
0.0
 11
10.25925591112156
 21
4527.039549183342
 31
0.0
 11
10.25925591112156
 21
4527.158235304951
 31
0.0
 11
10.25925591112156
 21
4527.379880354646
 31
0.0
 11
10.25925591112156
 21
4527.666293303009
 31
0.0
 11
10.25925591112156
 21
4527.966477477852
 31
0.0
 11
10.25925591112156
 21
4528.193903784069
 31
0.0
 11
10.25925591112156
 21
4528.388660533448
 31
0.0
 11
10.25925591112156
 21
4528.645052184469
 31
0.0
 11
10.25925591112156
 21
4528.838161384812
 31
0.0
 11
10.25925591112156
 21
4528.967907182039
 31
0.0
 11
10.25925591112156
 21
4529.058792264193
 31
0.0
 11
10.25925591112156
 21
4529.194441028289
 31
0.0
 11
10.25925591112156
 21
4529.325616274376
 31
0.0
 11
10.25925591112156
 21
4529.420303615945
 31
0.0
 11
10.25925591112156
 21
4529.499946118479
 31
0.0
 11
10.25925591112156
 21
4529.610286032938
 31
0.0
 11
10.25925591112156
 21
4529.707381608505
 31
0.0
 11
10.25925591112156
 21
4529.77761190222
 31
0.0
 11
10.25925591112155
 21
4529.825184585991
 31
0.0
 11
10.25925591112156
 21
4529.89095901507
 31
0.0
 11
10.25925591112156
 21
4529.93875390076
 31
0.0
 11
10.25925591112156
 21
4529.973364519507
 31
0.0
 11
10.25925591112156
 21
4529.977723432246
 31
0.0
 11
10.25925591112156
 21
4529.979176399932
 31
0.0
  0
SPLINE
  5
14D
330
A
100
AcDbEntity
  8
0
  6
Continuous
 62
     3
100
AcDbSpline
210
0.0
220
0.0
230
1.0
 70
    24
 71
     3
 72
    55
 73
    51
 74
    49
 42
0.0000000001
 43
0.0000000001
 44
0.00000000001
 40
0.0
 40
0.0
 40
0.0
 40
0.0
 40
0.0602005175578597
 40
0.1162896428641034
 40
0.1909350745163465
 40
0.2745520376111017
 40
0.3817218961803519
 40
0.4819601184099156
 40
0.5930252695225136
 40
0.7061949296567036
 40
0.8463102252908356
 40
0.9866548505278842
 40
1.159381438014861
 40
1.336819681520864
 40
1.529672212128389
 40
1.718711616480504
 40
1.899176929418899
 40
2.079083754832026
 40
2.247884456576684
 40
2.415125136114511
 40
2.57712975261893
 40
2.740525729313048
 40
2.904990004812134
 40
3.070052652369668
 40
3.232564632278808
 40
3.394697872563483
 40
3.550565847169309
 40
3.706662902114658
 40
3.85379528291105
 40
4.000858687660183
 40
4.135502459487724
 40
4.270018168536807
 40
4.389997319862231
 40
4.510147224735192
 40
4.613420858880999
 40
4.716328657003032
 40
4.801379822734816
 40
4.886711554761859
 40
4.953363436711697
 40
5.019539894808985
 40
5.067504038504921
 40
5.115839699774369
 40
5.145982049049052
 40
5.175291592006033
 40
5.187841449905135
 40
5.198590465911365
 40
5.200304129890355
 40
5.203828863555827
 40
5.208198279000498
 40
5.212221372468775
 40
5.212221372468775
 40
5.212221372468775
 40
5.212221372468775
 10
27.05925637344356
 20
4528.77667649124
 30
0.0
 10
27.05925637344356
 20
4528.756609652055
 30
0.0
 10
27.05925637344357
 20
4528.717846437767
 30
0.0
 10
27.05925637344356
 20
4528.654201412928
 30
0.0
 10
27.05925637344356
 20
4528.582750906242
 30
0.0
 10
27.05925637344357
 20
4528.494273488472
 30
0.0
 10
27.05925637344356
 20
4528.397265140506
 30
0.0
 10
27.05925637344356
 20
4528.291107396536
 30
0.0
 10
27.05925637344356
 20
4528.18294971871
 30
0.0
 10
27.05925637344357
 20
4528.061499683083
 30
0.0
 10
27.05925637344356
 20
4527.930289822747
 30
0.0
 10
27.05925637344356
 20
4527.779227653296
 30
0.0
 10
27.05925637344356
 20
4527.615724501219
 30
0.0
 10
27.05925637344356
 20
4527.434718714018
 30
0.0
 10
27.05925637344356
 20
4527.248275321198
 30
0.0
 10
27.05925637344356
 20
4527.060822905231
 30
0.0
 10
27.05925637344356
 20
4526.877685724328
 30
0.0
 10
27.05925637344356
 20
4526.701294777631
 30
0.0
 10
27.05925637344356
 20
4526.529312042065
 30
0.0
 10
27.05925637344356
 20
4526.36329670947
 30
0.0
 10
27.05925637344356
 20
4526.199082951892
 30
0.0
 10
27.05925637344356
 20
4526.035794662324
 30
0.0
 10
27.05925637344356
 20
4525.871487029077
 30
0.0
 10
27.05925637344356
 20
4525.707474061419
 30
0.0
 10
27.05925637344356
 20
4525.544238105504
 30
0.0
 10
27.05925637344356
 20
4525.384067040571
 30
0.0
 10
27.05925637344356
 20
4525.226034283958
 30
0.0
 10
27.05925637344356
 20
4525.073001813845
 30
0.0
 10
27.05925637344357
 20
4524.922904200329
 30
0.0
 10
27.05925637344356
 20
4524.779957681277
 30
0.0
 10
27.05925637344357
 20
4524.641216719158
 30
0.0
 10
27.05925637344356
 20
4524.511503842616
 30
0.0
 10
27.05925637344356
 20
4524.38662225132
 30
0.0
 10
27.05925637344356
 20
4524.272154697878
 30
0.0
 10
27.05925637344357
 20
4524.163377553141
 30
0.0
 10
27.05925637344356
 20
4524.066300130076
 30
0.0
 10
27.05925637344356
 20
4523.975202889199
 30
0.0
 10
27.05925637344356
 20
4523.896192433176
 30
0.0
 10
27.05925637344357
 20
4523.82346904056
 30
0.0
 10
27.05925637344356
 20
4523.763215579771
 30
0.0
 10
27.05925637344356
 20
4523.709027102275
 30
0.0
 10
27.05925637344356
 20
4523.666970081116
 30
0.0
 10
27.05925637344356
 20
4523.630821565858
 30
0.0
 10
27.05925637344357
 20
4523.607391425944
 30
0.0
 10
27.05925637344356
 20
4523.58885513052
 30
0.0
 10
27.05925637344356
 20
4523.58231554902
 30
0.0
 10
27.05925637344356
 20
4523.574915680439
 30
0.0
 10
27.05925637344356
 20
4523.581067353363
 30
0.0
 10
27.05925637344356
 20
4523.583931485654
 30
0.0
 10
27.05925637344356
 20
4523.586877419756
 30
0.0
 10
27.05925637344356
 20
4523.588289603928
 30
0.0
 11
27.05925637344356
 21
4528.77667649124
 31
0.0
 11
27.05925637344356
 21
4528.716475973682
 31
0.0
 11
27.05925637344356
 21
4528.660386848376
 31
0.0
 11
27.05925637344356
 21
4528.585741416724
 31
0.0
 11
27.05925637344356
 21
4528.50212445363
 31
0.0
 11
27.05925637344356
 21
4528.39495459506
 31
0.0
 11
27.05925637344356
 21
4528.29471637283
 31
0.0
 11
27.05925637344356
 21
4528.183651221717
 31
0.0
 11
27.05925637344356
 21
4528.070481561583
 31
0.0
 11
27.05925637344356
 21
4527.930366265949
 31
0.0
 11
27.05925637344356
 21
4527.790021640712
 31
0.0
 11
27.05925637344356
 21
4527.617295053225
 31
0.0
 11
27.05925637344356
 21
4527.43985680972
 31
0.0
 11
27.05925637344356
 21
4527.247004279112
 31
0.0
 11
27.05925637344356
 21
4527.057964874759
 31
0.0
 11
27.05925637344356
 21
4526.877499561821
 31
0.0
 11
27.05925637344356
 21
4526.697592736408
 31
0.0
 11
27.05925637344356
 21
4526.528792034663
 31
0.0
 11
27.05925637344356
 21
4526.361551355125
 31
0.0
 11
27.05925637344356
 21
4526.199546738621
 31
0.0
 11
27.05925637344356
 21
4526.036150761927
 31
0.0
 11
27.05925637344356
 21
4525.871686486428
 31
0.0
 11
27.05925637344356
 21
4525.70662383887
 31
0.0
 11
27.05925637344356
 21
4525.544111858962
 31
0.0
 11
27.05925637344356
 21
4525.381978618677
 31
0.0
 11
27.05925637344356
 21
4525.226110644071
 31
0.0
 11
27.05925637344356
 21
4525.070013589125
 31
0.0
 11
27.05925637344356
 21
4524.922881208329
 31
0.0
 11
27.05925637344356
 21
4524.77581780358
 31
0.0
 11
27.05925637344356
 21
4524.641174031752
 31
0.0
 11
27.05925637344356
 21
4524.506658322703
 31
0.0
 11
27.05925637344356
 21
4524.386679171378
 31
0.0
 11
27.05925637344356
 21
4524.266529266505
 31
0.0
 11
27.05925637344356
 21
4524.163255632359
 31
0.0
 11
27.05925637344356
 21
4524.060347834237
 31
0.0
 11
27.05925637344356
 21
4523.975296668505
 31
0.0
 11
27.05925637344356
 21
4523.889964936478
 31
0.0
 11
27.05925637344356
 21
4523.823313054529
 31
0.0
 11
27.05925637344356
 21
4523.757136596431
 31
0.0
 11
27.05925637344356
 21
4523.709172452735
 31
0.0
 11
27.05925637344356
 21
4523.660836791466
 31
0.0
 11
27.05925637344356
 21
4523.630694442191
 31
0.0
 11
27.05925637344356
 21
4523.601384899234
 31
0.0
 11
27.05925637344356
 21
4523.588835041335
 31
0.0
 11
27.05925637344356
 21
4523.578086025329
 31
0.0
 11
27.05925637344356
 21
4523.57637236135
 31
0.0
 11
27.05925637344356
 21
4523.579897095015
 31
0.0
 11
27.05925637344356
 21
4523.58426651046
 31
0.0
 11
27.05925637344356
 21
4523.588289603928
 31
0.0
  0
SPLINE
  5
14C
330
A
100
AcDbEntity
  8
0
  6
Continuous
 62
     3
100
AcDbSpline
210
0.0
220
0.0
230
1.0
 70
     8
 71
     3
 72
    19
 73
    15
 74
    13
 42
0.0000000001
 43
0.0000000001
 44
0.00000000001
 40
0.0
 40
0.0
 40
0.0
 40
0.0
 40
0.0887805992667354
 40
0.1551616721707746
 40
0.2099054875891908
 40
0.2832873843438675
 40
0.3403012068980851
 40
0.3786512945567133
 40
0.4074053763195917
 40
0.4502007035723687
 40
0.4943252212566206
 40
0.5262679810514128
 40
0.5581646924719666
 40
0.6023621017010196
 40
0.6023621017010196
 40
0.6023621017010196
 40
0.6023621017010196
 10
27.05925591189356
 20
4528.776674835902
 30
0.0
 10
27.05878982791237
 20
4528.806239459501
 30
0.0
 10
27.05797525388955
 20
4528.857909491835
 30
0.0
 10
27.05234586612901
 20
4528.928023239692
 30
0.0
 10
27.03240734977056
 20
4528.990149646857
 30
0.0
 10
27.00463204426491
 20
4529.045427915149
 30
0.0
 10
26.97688389342545
 20
4529.094224844411
 30
0.0
 10
26.95533625511583
 20
4529.129843270019
 30
0.0
 10
26.92910990328235
 20
4529.155711624964
 30
0.0
 10
26.89883331366278
 20
4529.179626985873
 30
0.0
 10
26.86662654800877
 20
4529.202616010734
 30
0.0
 10
26.83509509031154
 20
4529.220658050618
 30
0.0
 10
26.79935158476388
 20
4529.227902896894
 30
0.0
 10
26.77398782891408
 20
4529.228385710967
 30
0.0
 10
26.75925591155556
 20
4529.228666141716
 30
0.0
 11
27.05925591189356
 21
4528.776674835902
 31
0.0
 11
27.05676199330685
 21
4528.865420400165
 31
0.0
 11
27.04928023783279
 21
4528.931378494245
 31
0.0
 11
27.03320650553374
 21
4528.983709369039
 31
0.0
 11
27.00158119928512
 21
4529.049926759323
 31
0.0
 11
26.97350235617816
 21
4529.099546861418
 31
0.0
 11
26.95224498760241
 21
4529.131466346136
 31
0.0
 11
26.93219374695269
 21
4529.152075687863
 31
0.0
 11
26.89898700859729
 21
4529.179071105298
 31
0.0
 11
26.86278580773471
 21
4529.204298989017
 31
0.0
 11
26.83446166362045
 21
4529.219066614538
 31
0.0
 11
26.80338811692027
 21
4529.22626626001
 31
0.0
 11
26.75925591155556
 21
4529.228666141716
 31
0.0
  0
SPLINE
  5
14B
330
A
100
AcDbEntity
  8
0
  6
Continuous
 62
     3
100
AcDbSpline
210
0.0
220
0.0
230
1.0
 70
     8
 71
     3
 72
    19
 73
    15
 74
    13
 42
0.0000000001
 43
0.0000000001
 44
0.00000000001
 40
0.0
 40
0.0
 40
0.0
 40
0.0
 40
0.029207930514908
 40
0.0569387071936281
 40
0.0935762749120545
 40
0.1341721821756451
 40
0.1869875436723202
 40
0.2378827182071413
 40
0.2917965340189549
 40
0.3483914406875926
 40
0.3951101145238214
 40
0.4371054163100782
 40
0.4694272858625986
 40
0.5030931383738199
 40
0.5030931383738199
 40
0.5030931383738199
 40
0.5030931383738199
 10
10.25925604114755
 20
4523.579177543858
 30
0.0
 10
10.26014441567115
 20
4523.569481197701
 30
0.0
 10
10.26187623630978
 20
4523.550578885727
 30
0.0
 10
10.26391879566886
 20
4523.519460368576
 30
0.0
 10
10.27039461069065
 20
4523.484832854571
 30
0.0
 10
10.28788702253136
 20
4523.444886792161
 30
0.0
 10
10.31297621362278
 20
4523.403689113814
 30
0.0
 10
10.34698331010826
 20
4523.363317969825
 30
0.0
 10
10.38864598855525
 20
4523.328797412623
 30
0.0
 10
10.43417514035094
 20
4523.302524401673
 30
0.0
 10
10.47955357069037
 20
4523.284502359778
 30
0.0
 10
10.52001172024732
 20
4523.279921130408
 30
0.0
 10
10.55598388400374
 20
4523.28083442832
 30
0.0
 10
10.57798256718585
 20
4523.280728036761
 30
0.0
 10
10.58920593420456
 20
4523.280673757533
 30
0.0
 11
10.25925604114755
 21
4523.579177543858
 31
0.0
 11
10.26179249549074
 21
4523.550079956255
 31
0.0
 11
10.2642006718903
 21
4523.522453942035
 31
0.0
 11
10.2714158492256
 21
4523.486533855951
 31
0.0
 11
10.28693773816104
 21
4523.449022542318
 31
0.0
 11
10.31443668295029
 21
4523.403930742116
 31
0.0
 11
10.34737943050906
 21
4523.36513519889
 31
0.0
 11
10.38878110942607
 21
4523.33060115021
 31
0.0
 11
10.43773925217215
 21
4523.302209536665
 31
0.0
 11
10.4815693165029
 21
4523.286036721642
 31
0.0
 11
10.52321821512438
 21
4523.28065391422
 31
0.0
 11
10.5555400832155
 21
4523.2806636338
 31
0.0
 11
10.58920593420456
 21
4523.280673757533
 31
0.0
  0
SPLINE
  5
14A
330
A
100
AcDbEntity
  8
0
  6
Continuous
 62
     3
100
AcDbSpline
210
0.0
220
0.0
230
1.0
 70
     8
 71
     3
 72
    21
 73
    17
 74
    15
 42
0.0000000001
 43
0.0000000001
 44
0.00000000001
 40
0.0
 40
0.0
 40
0.0
 40
0.0
 40
0.0356714474763778
 40
0.066783870459
 40
0.0982269771231211
 40
0.1345335097890927
 40
0.1727152706750175
 40
0.2072915380821218
 40
0.2359817090386707
 40
0.2646718912997612
 40
0.2992477435534899
 40
0.3374290027443104
 40
0.373735195029592
 40
0.4051780488907182
 40
0.4362904472868272
 40
0.4719620112092594
 40
0.4719620112092594
 40
0.4719620112092594
 40
0.4719620112092594
 10
10.55925553152754
 20
4530.279175475577
 30
0.0
 10
10.54743782688599
 20
4530.277851743001
 30
0.0
 10
10.52531279098924
 20
4530.275373458796
 30
0.0
 10
10.49267312481089
 20
4530.272785277118
 30
0.0
 10
10.4602180296681
 20
4530.265902712749
 30
0.0
 10
10.42810780158067
 20
4530.250709759819
 30
0.0
 10
10.39678670416724
 20
4530.232259195962
 30
0.0
 10
10.36915250538256
 20
4530.212647195262
 30
0.0
 10
10.34627413359136
 20
4530.192157581262
 30
0.0
 10
10.32578350526571
 20
4530.169280288552
 30
0.0
 10
10.30617097546601
 20
4530.141646775385
 30
0.0
 10
10.28772162561344
 20
4530.110325382213
 30
0.0
 10
10.27253013278951
 20
4530.07821494535
 30
0.0
 10
10.26564752888841
 20
4530.045760151199
 30
0.0
 10
10.26305864475563
 20
4530.013120590759
 30
0.0
 10
10.26057997966657
 20
4529.990995567863
 30
0.0
 10
10.25925604114755
 20
4529.979177847842
 30
0.0
 11
10.55925553152754
 21
4530.279175475577
 31
0.0
 11
10.52378345765162
 21
4530.275409291832
 31
0.0
 11
10.49284492712986
 21
4530.272124448912
 31
0.0
 11
10.46218184222143
 21
4530.265164263528
 31
0.0
 11
10.4289583652268
 21
4530.250523058297
 31
0.0
 11
10.39604747213428
 21
4530.231165372996
 31
0.0
 11
10.36799514380326
 21
4530.210951883861
 31
0.0
 11
10.3466466060541
 21
4530.191785093689
 31
0.0
 11
10.32747886153202
 21
4530.170437397606
 31
0.0
 11
10.30726506710623
 21
4530.142385800966
 31
0.0
 11
10.28790842515983
 21
4530.109474876246
 31
0.0
 11
10.27326838446401
 21
4530.07625125804
 31
0.0
 11
10.26630826423111
 21
4530.045588417578
 31
0.0
 11
10.26302287105394
 21
4530.014649970207
 31
0.0
 11
10.25925604114755
 21
4529.979177847842
 31
0.0
  0
SPLINE
  5
149
330
A
100
AcDbEntity
  8
0
  6
Continuous
 62
     3
100
AcDbSpline
210
0.0
220
0.0
230
1.0
 70
     8
 71
     3
 72
    17
 73
    13
 74
    11
 42
0.0000000001
 43
0.0000000001
 44
0.00000000001
 40
0.0
 40
0.0
 40
0.0
 40
0.0
 40
0.0368050236834887
 40
0.0715569802265428
 40
0.1175896342647003
 40
0.169414522182181
 40
0.2371232962118846
 40
0.3047865790358426
 40
0.3574326809206891
 40
0.4044603459411055
 40
0.4403384128692696
 40
0.4781106826989153
 40
0.4781106826989153
 40
0.4781106826989153
 40
0.4781106826989153
 10
26.75925595174056
 20
4523.279176190833
 30
0.0
 10
26.7714433776548
 20
4523.280599413737
 30
0.0
 10
26.7951383874083
 20
4523.283366468964
 30
0.0
 10
26.83419138844266
 20
4523.286589880311
 30
0.0
 10
26.87762985279958
 20
4523.297165222619
 30
0.0
 10
26.9256705723201
 20
4523.325399279082
 30
0.0
 10
26.97365557927382
 20
4523.36573233909
 30
0.0
 10
27.01354487105795
 20
4523.414450692256
 30
0.0
 10
27.04141987792228
 20
4523.463372469524
 30
0.0
 10
27.05189017969278
 20
4523.507829914054
 30
0.0
 10
27.0550835998162
 20
4523.547917385629
 30
0.0
 10
27.05784180295183
 20
4523.572315834585
 30
0.0
 10
27.05925637344356
 20
4523.584828809242
 30
0.0
 11
26.75925595174056
 21
4523.279176190833
 31
0.0
 11
26.79583673912725
 21
4523.283232761123
 31
0.0
 11
26.83037696777935
 21
4523.287063046782
 31
0.0
 11
26.87492250381046
 21
4523.298669099406
 31
0.0
 11
26.92030167114741
 21
4523.323700083794
 31
0.0
 11
26.97217112675781
 21
4523.367220626705
 31
0.0
 11
27.0149964684128
 21
4523.419606788567
 31
0.0
 11
27.03987159135379
 21
4523.466005498704
 31
0.0
 11
27.05139679256733
 21
4523.51159904007
 31
0.0
 11
27.0552255132645
 21
4523.547272231465
 31
0.0
 11
27.05925637344356
 21
4523.584828809242
 31
0.0
  0
SPLINE
  5
148
330
A
100
AcDbEntity
  8
0
  6
Continuous
 62
     6
100
AcDbSpline
210
0.0
220
0.0
230
1.0
 70
     8
 71
     3
 72
    99
 73
    95
 74
    93
 42
0.0000000001
 43
0.0000000001
 44
0.00000000001
 40
0.0
 40
0.0
 40
0.0
 40
0.0
 40
0.4578308114957298
 40
0.796489131974389
 40
1.074240457936565
 40
1.448477287943597
 40
1.738628145426777
 40
1.93290910059813
 40
2.077442928914226
 40
2.293337367364997
 40
2.506666847110762
 40
2.648960796780161
 40
2.835928356711442
 40
3.116353054648833
 40
3.478037456939271
 40
3.74843511633222
 40
4.064093858861509
 40
4.485574985477676
 40
4.893757460764065
 40
5.185566188112094
 40
5.473003412726695
 40
5.876006568772619
 40
6.274510332887904
 40
6.557920629029869
 40
6.83754968541297
 40
7.229945929137457
 40
7.63121309186112
 40
7.930687378856896
 40
8.184984186670066
 40
8.526315992146686
 40
8.791608353501258
 40
8.968324899192712
 40
9.103361842341442
 40
9.305887192150681
 40
9.516252967613841
 40
9.667148159106352
 40
9.821775239426226
 40
10.03747925824269
 40
10.25409338658401
 40
10.40867357007873
 40
10.56600932009967
 40
10.78635440761579
 40
11.01067365020858
 40
11.17219379541649
 40
11.33465594772605
 40
11.56025903374125
 40
11.78336849282253
 40
11.94276031572964
 40
12.10142362336014
 40
12.3237196764866
 40
12.54621066864118
 40
12.70590452378077
 40
12.86188862965885
 40
13.07897643517242
 40
13.29183976038934
 40
13.44383208563211
 40
13.59287499951983
 40
13.80172837027615
 40
14.0056078113397
 40
14.14210374428873
 40
14.32078212306146
 40
14.58819342302592
 40
14.92703464186576
 40
15.17754042439356
 40
15.47267725122035
 40
15.8707982454902
 40
16.26651693752572
 40
16.55018157501405
 40
16.83509880861995
 40
17.23240565248637
 40
17.63493262357456
 40
17.93399019131015
 40
18.1904002819531
 40
18.53681611801991
 40
18.8095561027933
 40
18.99150092269626
 40
19.12905896335175
 40
19.33471398656733
 40
19.54488229176397
 40
19.6949924915698
 40
19.8469073985512
 40
20.05968976431254
 40
20.27412133130834
 40
20.42719856014315
 40
20.58345473265211
 40
20.8025568323362
 40
21.01899621648479
 40
21.16339129898538
 40
21.35575922411396
 40
21.64361559395988
 40
22.01577800481469
 40
22.29199762636038
 40
22.63033614180299
 40
23.08805141371307
 40
23.08805141371307
 40
23.08805141371307
 40
23.08805141371307
 10
3.05925950208848
 20
4558.356564637811
 30
0.0
 10
2.908144375741571
 20
4558.335349118139
 30
0.0
 10
2.645249103536039
 20
4558.298440438287
 30
0.0
 10
2.288199799527352
 20
4558.26571961241
 30
0.0
 10
1.957685364832811
 20
4558.269110509029
 30
0.0
 10
1.64410208500954
 20
4558.286529713316
 30
0.0
 10
1.358654331024486
 20
4558.307254768231
 30
0.0
 10
1.149686762861561
 20
4558.325281536183
 30
0.0
 10
0.9667599517185456
 20
4558.352633595354
 30
0.0
 10
0.7781866415816936
 20
4558.384501154075
 30
0.0
 10
0.5906199078493274
 20
4558.417805945973
 30
0.0
 10
0.4131294023489739
 20
4558.452866010555
 30
0.0
 10
0.2164868036560744
 20
4558.504508364881
 30
0.0
 10
-0.0499080036512813
 20
4558.577957520578
 30
0.0
 10
-0.3417368452601747
 20
4558.663807940389
 30
0.0
 10
-0.6405863564858978
 20
4558.767168663267
 30
0.0
 10
-0.946103460006452
 20
4558.907487496464
 30
0.0
 10
-1.286730748478594
 20
4559.079879521047
 30
0.0
 10
-1.616215629680545
 20
4559.256422233511
 30
0.0
 10
-1.900545873986084
 20
4559.422967592513
 30
0.0
 10
-2.164287776390794
 20
4559.617590436223
 30
0.0
 10
-2.448137664218742
 20
4559.843797269169
 30
0.0
 10
-2.726081854166618
 20
4560.075121136166
 30
0.0
 10
-2.964813726921988
 20
4560.289536119271
 30
0.0
 10
-3.177890049203427
 20
4560.526719702078
 30
0.0
 10
-3.40685030806581
 20
4560.801597461881
 30
0.0
 10
-3.633396842092244
 20
4561.086970180072
 30
0.0
 10
-3.821921260359622
 20
4561.343938170798
 30
0.0
 10
-3.973265881095184
 20
4561.601435580388
 30
0.0
 10
-4.106314129466884
 20
4561.855735992042
 30
0.0
 10
-4.223220769551831
 20
4562.089185996078
 30
0.0
 10
-4.307225469437724
 20
4562.262319821467
 30
0.0
 10
-4.37170119532834
 20
4562.421225619426
 30
0.0
 10
-4.436828330214535
 20
4562.591856301144
 30
0.0
 10
-4.501985341369225
 20
4562.768123644629
 30
0.0
 10
-4.558247369703051
 20
4562.930686561104
 30
0.0
 10
-4.605073610512923
 20
4563.098068073251
 30
0.0
 10
-4.653377019801386
 20
4563.287658065784
 30
0.0
 10
-4.699281459173938
 20
4563.47782317651
 30
0.0
 10
-4.736973042991939
 20
4563.649990609146
 30
0.0
 10
-4.763907799063471
 20
4563.825428152497
 30
0.0
 10
-4.789685979664197
 20
4564.024428578427
 30
0.0
 10
-4.813007527497968
 20
4564.22513577723
 30
0.0
 10
-4.829883682340144
 20
4564.40719749767
 30
0.0
 10
-4.835072387589918
 20
4564.590395794535
 30
0.0
 10
-4.835956845463206
 20
4564.794115694939
 30
0.0
 10
-4.834140182736862
 20
4564.996804419994
 30
0.0
 10
-4.828315993797517
 20
4565.177174517164
 30
0.0
 10
-4.810882643567203
 20
4565.356520802681
 30
0.0
 10
-4.786898995705959
 20
4565.556230589471
 30
0.0
 10
-4.760259584549636
 20
4565.75595312912
 30
0.0
 10
-4.732247071835642
 20
4565.933216490519
 30
0.0
 10
-4.693577049104954
 20
4566.106613069912
 30
0.0
 10
-4.646970078893325
 20
4566.296277567792
 30
0.0
 10
-4.59831251307169
 20
4566.484054341617
 30
0.0
 10
-4.551569965691802
 20
4566.648920164793
 30
0.0
 10
-4.495400641444252
 20
4566.809397230112
 30
0.0
 10
-4.429905075339865
 20
4566.984823341561
 30
0.0
 10
-4.364073683203233
 20
4567.155648738393
 30
0.0
 10
-4.298440941993455
 20
4567.315802186008
 30
0.0
 10
-4.213045595745404
 20
4567.490313265229
 30
0.0
 10
-4.095037158730017
 20
4567.723803563301
 30
0.0
 10
-3.961776159814456
 20
4567.976419111025
 30
0.0
 10
-3.811580429896636
 20
4568.230482187042
 30
0.0
 10
-3.624436300924162
 20
4568.483798166027
 30
0.0
 10
-3.398064505396998
 20
4568.767528567228
 30
0.0
 10
-3.167542960686577
 20
4569.042940773358
 30
0.0
 10
-2.951633969973198
 20
4569.281551709956
 30
0.0
 10
-2.711318264382581
 20
4569.496355735675
 30
0.0
 10
-2.432929196101966
 20
4569.727064871073
 30
0.0
 10
-2.145597230017826
 20
4569.954232271767
 30
0.0
 10
-1.887729428182988
 20
4570.143149938754
 30
0.0
 10
-1.628815061535654
 20
4570.296489354463
 30
0.0
 10
-1.371203313109382
 20
4570.433698038946
 30
0.0
 10
-1.13349801300934
 20
4570.555319167624
 30
0.0
 10
-0.9565805545222836
 20
4570.643087154087
 30
0.0
 10
-0.7952837523400511
 20
4570.711241626846
 30
0.0
 10
-0.6240748442748899
 20
4570.779880362144
 30
0.0
 10
-0.4483230558153604
 20
4570.848414762462
 30
0.0
 10
-0.2880621305532833
 20
4570.907423659835
 30
0.0
 10
-0.1240435945082791
 20
4570.958043464376
 30
0.0
 10
0.0614818177751549
 20
4571.011380924384
 30
0.0
 10
0.2479483310287194
 20
4571.062802577864
 30
0.0
 10
0.417134431909672
 20
4571.106099212442
 30
0.0
 10
0.589952836722198
 20
4571.140447811284
 30
0.0
 10
0.7841751034977495
 20
4571.17495149713
 30
0.0
 10
0.9748203506641177
 20
4571.206915111234
 30
0.0
 10
1.157279683365753
 20
4571.233998846614
 30
0.0
 10
1.364824745279622
 20
4571.251644885664
 30
0.0
 10
1.648198699150142
 20
4571.272012872857
 30
0.0
 10
1.959827717218189
 20
4571.289129035347
 30
0.0
 10
2.289028209536196
 20
4571.292490623806
 30
0.0
 10
2.64543109089485
 20
4571.259902525984
 30
0.0
 10
2.908182484686932
 20
4571.223009792352
 30
0.0
 10
3.059259368642528
 20
4571.201797196073
 30
0.0
 11
3.05925950208848
 21
4558.356564637811
 31
0.0
 11
2.605307233722506
 21
4558.297097083629
 31
0.0
 11
2.267721223336627
 21
4558.270168592748
 31
0.0
 11
1.989970177298431
 21
4558.270562925647
 31
0.0
 11
1.616201438987979
 21
4558.289274825484
 31
0.0
 11
1.326817360974413
 21
4558.310355041101
 31
0.0
 11
1.133433875436727
 21
4558.329007576146
 31
0.0
 11
0.9903567453010923
 21
4558.349476146196
 31
0.0
 11
0.7773950126067016
 21
4558.384940338866
 31
0.0
 11
0.5674441529391869
 21
4558.42275704752
 31
0.0
 11
0.4280248758649742
 21
4558.451214617561
 31
0.0
 11
0.2467205418437369
 21
4558.496883063251
 31
0.0
 11
-0.0236137244190854
 21
4558.571431005526
 31
0.0
 11
-0.3700037227974491
 21
4558.675496253729
 31
0.0
 11
-0.6248050861558397
 21
4558.766001278097
 31
0.0
 11
-0.9132275231584696
 21
4558.894270290601
 31
0.0
 11
-1.28991275944697
 21
4559.083359086821
 31
0.0
 11
-1.649014266530268
 21
4559.277418461089
 31
0.0
 11
-1.898946558267061
 21
4559.428037792199
 31
0.0
 11
-2.132318873240332
 21
4559.595839820488
 31
0.0
 11
-2.448403528575235
 21
4559.845843889345
 31
0.0
 11
-2.75372562508208
 21
4560.101936972809
 31
0.0
 11
-2.96214829447801
 21
4560.293982245704
 31
0.0
 11
-3.151613861691008
 21
4560.499640233671
 31
0.0
 11
-3.403778200795132
 21
4560.800286135311
 31
0.0
 11
-3.652230797043413
 21
4561.115383966624
 31
0.0
 11
-3.826252916875454
 21
4561.359107478786
 31
0.0
 11
-3.956971464681705
 21
4561.577234798771
 31
0.0
 11
-4.117047363332462
 21
4561.878703052656
 31
0.0
 11
-4.2358565212908
 21
4562.115904277312
 31
0.0
 11
-4.311269005195817
 21
4562.275721969675
 31
0.0
 11
-4.362888407263447
 21
4562.400503432022
 31
0.0
 11
-4.435569550071045
 21
4562.589537737891
 31
0.0
 11
-4.508060697746635
 21
4562.787018858495
 31
0.0
 11
-4.556407985096601
 21
4562.929959050958
 31
0.0
 11
-4.599099592088012
 21
4563.078575875916
 31
0.0
 11
-4.652862907668469
 21
4563.287472332639
 31
0.0
 11
-4.703261084604221
 21
4563.498141989588
 31
0.0
 11
-4.735190028553397
 21
4563.649388727296
 31
0.0
 11
-4.760209089154907
 21
4563.80472251255
 31
0.0
 11
-4.789041031863334
 21
4564.023173140088
 31
0.0
 11
-4.814420203146999
 21
4564.246052076425
 31
0.0
 11
-4.828136453317632
 21
4564.406988777613
 31
0.0
 11
-4.833932561616014
 21
4564.569347504085
 31
0.0
 11
-4.835457448603545
 21
4564.794945436565
 31
0.0
 11
-4.832938023285289
 21
4565.018040670103
 31
0.0
 11
-4.826590712490597
 21
4565.177306061371
 31
0.0
 11
-4.812441264615587
 21
4565.335337192205
 31
0.0
 11
-4.786426160736883
 21
4565.556105735267
 31
0.0
 11
-4.756458306557538
 21
4565.776569268093
 31
0.0
 11
-4.730395289586417
 21
4565.934121946635
 31
0.0
 11
-4.697558297051123
 21
4566.08661054689
 31
0.0
 11
-4.646188011975028
 21
4566.297532829056
 31
0.0
 11
-4.592310846084458
 21
4566.503464968893
 31
0.0
 11
-4.549828026559736
 21
4566.649399464397
 31
0.0
 11
-4.501590471162725
 21
4566.79042048563
 31
0.0
 11
-4.428979079312217
 21
4566.986245193595
 31
0.0
 11
-4.355192782531664
 21
4567.176304155224
 31
0.0
 11
-4.302584644171506
 21
4567.302254635533
 31
0.0
 11
-4.225782779723695
 21
4567.463584845532
 31
0.0
 11
-4.105162934192211
 21
4567.702247067537
 31
0.0
 11
-3.945256226184996
 21
4568.000983098707
 31
0.0
 11
-3.81588344315276
 21
4568.215496105517
 31
0.0
 11
-3.643653883003986
 21
4568.455168225631
 31
0.0
 11
-3.396354266852172
 21
4568.767166985131
 31
0.0
 11
-3.141273932288067
 21
4569.069701786675
 31
0.0
 11
-2.948390511901046
 21
4569.277696047897
 31
0.0
 11
-2.738348697242651
 21
4569.470206479045
 31
0.0
 11
-2.43331451804269
 21
4569.724778428997
 31
0.0
 11
-2.11676430624597
 21
4569.973422604205
 31
0.0
 11
-1.873366578138285
 21
4570.147183862178
 31
0.0
 11
-1.653875222395195
 21
4570.279734529235
 31
0.0
 11
-1.349041576775622
 21
4570.444295703198
 31
0.0
 11
-1.106229576635521
 21
4570.568510967486
 31
0.0
 11
-0.9424492387714376
 21
4570.647756903778
 31
0.0
 11
-0.8160751413847258
 21
4570.702087392996
 31
0.0
 11
-0.6253526833686181
 21
4570.779021992378
 31
0.0
 11
-0.4293850740948985
 21
4570.854965475474
 31
0.0
 11
-0.288200783432087
 21
4570.905956338928
 31
0.0
 11
-0.1433252748542418
 21
4570.951664390489
 31
0.0
 11
0.0610573642620739
 21
4571.010859593054
 31
0.0
 11
0.267874484543871
 21
4571.067495056173
 31
0.0
 11
0.4164119983203811
 21
4571.104498366685
 31
0.0
 11
0.5694748065100816
 21
4571.135927146429
 31
0.0
 11
0.7851089771910199
 21
4571.174755416037
 31
0.0
 11
0.9986452137275122
 21
4571.21008646041
 31
0.0
 11
1.141608821377891
 21
4571.2303681452
 31
0.0
 11
1.333109720578442
 21
4571.248611615913
 31
0.0
 11
1.620222144350874
 21
4571.269293631686
 31
0.0
 11
1.991928833858526
 21
4571.287705503631
 31
0.0
 11
2.268148197550091
 21
4571.288082927356
 31
0.0
 11
2.605419931191391
 21
4571.261236536193
 31
0.0
 11
3.059259368642528
 21
4571.201797196073
 31
0.0
  0
SPLINE
  5
147
330
A
100
AcDbEntity
  8
0
  6
Continuous
 62
     3
100
AcDbSpline
210
0.0
220
0.0
230
1.0
 70
     8
 71
     3
 72
    23
 73
    19
 74
    17
 42
0.0000000001
 43
0.0000000001
 44
0.00000000001
 40
0.0
 40
0.0
 40
0.0
 40
0.0
 40
0.4391449964728539
 40
0.7565736196892214
 40
1.055240859150128
 40
1.468044721081018
 40
1.855960095164767
 40
2.134254079659141
 40
2.37477740314952
 40
2.709984988609325
 40
3.015156994292707
 40
3.231081701329728
 40
3.416884538227651
 40
3.680470015136461
 40
3.924751926930639
 40
4.096282170634378
 40
4.244113422887537
 40
4.452194157206797
 40
4.452194157206797
 40
4.452194157206797
 40
4.452194157206797
 10
50.05924756655457
 20
4518.537147388075
 30
0.0
 10
50.09478727191535
 20
4518.679149176967
 30
0.0
 10
50.15601625947859
 20
4518.923794586315
 30
0.0
 10
50.24122477461411
 20
4519.265065415953
 30
0.0
 10
50.32595872642214
 20
4519.597401524171
 30
0.0
 10
50.41812932781213
 20
4519.952083433917
 30
0.0
 10
50.50897648312518
 20
4520.300093564798
 30
0.0
 10
50.58719505989412
 20
4520.592042824286
 30
0.0
 10
50.66174932310673
 20
4520.866781288113
 30
0.0
 10
50.7378046457536
 20
4521.150397971012
 30
0.0
 10
50.81090863934692
 20
4521.426305087787
 30
0.0
 10
50.87238869843206
 20
4521.653797178474
 30
0.0
 10
50.92307894513396
 20
4521.869728621772
 30
0.0
 10
50.97001971498208
 20
4522.096174047351
 30
0.0
 10
51.0129710684145
 20
4522.318467555265
 30
0.0
 10
51.04572006856315
 20
4522.50365454731
 30
0.0
 10
51.05816931084696
 20
4522.679263292492
 30
0.0
 10
51.05884975248514
 20
4522.797909166475
 30
0.0
 10
51.05924756655458
 20
4522.867274407077
 30
0.0
 11
50.05924756655457
 21
4518.537147388075
 31
0.0
 11
50.16582044724007
 21
4518.963164464058
 31
0.0
 11
50.24300237729664
 21
4519.271066852016
 31
0.0
 11
50.31674521871028
 21
4519.56048715757
 31
0.0
 11
50.42029179243936
 21
4519.960093383115
 31
0.0
 11
50.51867347220085
 21
4520.335325821129
 31
0.0
 11
50.59060756725489
 21
4520.604162254253
 31
0.0
 11
50.65338719572834
 21
4520.836347928642
 31
0.0
 11
50.74022828521736
 21
4521.160111346165
 31
0.0
 11
50.81881375061774
 21
4521.454991453463
 31
0.0
 11
50.87375718414446
 21
4521.663808833539
 31
0.0
 11
50.91649816705728
 21
4521.844628916989
 31
0.0
 11
50.97071716697552
 21
4522.102577756267
 31
0.0
 11
51.01683600492402
 21
4522.342466699773
 31
0.0
 11
51.04391863161143
 21
4522.511845434673
 31
0.0
 11
51.05541533281878
 21
4522.659228964974
 31
0.0
 11
51.05924756655458
 21
4522.867274407077
 31
0.0
  0
SPLINE
  5
146
330
A
100
AcDbEntity
  8
0
  6
Continuous
 62
     3
100
AcDbSpline
210
0.0
220
0.0
230
1.0
 70
     8
 71
     3
 72
    19
 73
    15
 74
    13
 42
0.0000000001
 43
0.0000000001
 44
0.00000000001
 40
0.0
 40
0.0
 40
0.0
 40
0.0
 40
0.2015457865536784
 40
0.345235603558507
 40
0.4918327590503042
 40
0.6974363640177025
 40
0.9026330173074894
 40
1.039876750278577
 40
1.226871780696277
 40
1.505892511102431
 40
1.870645395393643
 40
2.142632899579866
 40
2.479924559486422
 40
2.934517280946916
 40
2.934517280946916
 40
2.934517280946916
 40
2.934517280946916
 10
33.05925579255455
 20
4521.900181732075
 30
0.0
 10
33.05962724186215
 20
4521.833000077295
 30
0.0
 10
33.06026351180403
 20
4521.717922012243
 30
0.0
 10
33.06994037995036
 20
4521.554082017996
 30
0.0
 10
33.09519300626344
 20
4521.390596908248
 30
0.0
 10
33.12746963510186
 20
4521.207652900025
 30
0.0
 10
33.1616443744505
 20
4521.028185027375
 30
0.0
 10
33.19957234878994
 20
4520.855760894233
 30
0.0
 10
33.25578591183493
 20
4520.66259609491
 30
0.0
 10
33.33487991037661
 20
4520.397256290749
 30
0.0
 10
33.42580825864937
 20
4520.105787501423
 30
0.0
 10
33.53562303385332
 20
4519.800132957531
 30
0.0
 10
33.67074905199266
 20
4519.472204133871
 30
0.0
 10
33.77096036308869
 20
4519.228014934057
 30
0.0
 10
33.82848812055453
 20
4519.087834580074
 30
0.0
 11
33.05925579255455
 21
4521.900181732075
 31
0.0
 11
33.06246828198762
 21
4521.698661549489
 31
0.0
 11
33.07210575028682
 21
4521.555295295735
 31
0.0
 11
33.09261421498096
 21
4521.410139762344
 31
0.0
 11
33.12795129652797
 21
4521.207595611494
 31
0.0
 11
33.16702291355755
 21
4521.006153125251
 31
0.0
 11
33.1972598145931
 21
4520.872281649365
 31
0.0
 11
33.2473624514498
 21
4520.692123754226
 31
0.0
 11
33.32721194009697
 21
4520.424772623391
 31
0.0
 11
33.43782947087862
 21
4520.077197554545
 31
0.0
 11
33.52999322830837
 21
4519.821301004647
 31
0.0
 11
33.65578336249298
 21
4519.508343330218
 31
0.0
 11
33.82848812055453
 21
4519.087834580074
 31
0.0
  0
SPLINE
  5
145
330
A
100
AcDbEntity
  8
0
  6
Continuous
 62
     3
100
AcDbSpline
210
0.0
220
0.0
230
1.0
 70
     8
 71
     3
 72
    23
 73
    19
 74
    17
 42
0.0000000001
 43
0.0000000001
 44
0.00000000001
 40
0.0
 40
0.0
 40
0.0
 40
0.0
 40
0.9740389824402329
 40
1.674212861997716
 40
2.374280500776547
 40
3.348129605030351
 40
4.322059341406421
 40
5.022240894785066
 40
5.72241435967195
 40
6.696319667863444
 40
7.67022497583857
 40
8.370398440438396
 40
9.070579993725351
 40
10.0445097300924
 40
11.0183588346536
 40
11.7184264737499
 40
12.41860035333389
 40
13.39263933548699
 40
13.39263933548699
 40
13.39263933548699
 40
13.39263933548699
 10
51.05924756655458
 20
4536.27917768717
 30
0.0
 10
51.06303104374265
 20
4536.603734472561
 30
0.0
 10
51.06953421896001
 20
4537.161594223912
 30
0.0
 10
51.14707099866121
 20
4537.952620744798
 30
0.0
 10
51.37917645022664
 20
4538.712451225572
 30
0.0
 10
51.70010585548657
 20
4539.534551319755
 30
0.0
 10
52.05456690053518
 20
4540.342728550305
 30
0.0
 10
52.42751267488539
 20
4541.044453135446
 30
0.0
 10
52.93309640643578
 20
4541.657535858365
 30
0.0
 10
53.54409858374269
 20
4542.294334050207
 30
0.0
 10
54.18089728854717
 20
4542.905335692787
 30
0.0
 10
54.79398043644308
 20
4543.41091890872
 30
0.0
 10
55.49570533507949
 20
4543.783864092895
 30
0.0
 10
56.30388286331999
 20
4544.138324459324
 30
0.0
 10
57.12598322720101
 20
4544.45925317432
 30
0.0
 10
57.88581390327843
 20
4544.691357987336
 30
0.0
 10
58.67684048935629
 20
4544.768894102073
 30
0.0
 10
59.23470024608181
 20
4544.775396808578
 30
0.0
 10
59.55925703455452
 20
4544.779180013073
 30
0.0
 11
51.05924756655458
 21
4536.27917768717
 31
0.0
 11
51.08690303257782
 21
4537.252823985634
 31
0.0
 11
51.16987003859565
 21
4537.948064906126
 31
0.0
 11
51.35927213853483
 21
4538.622024506847
 31
0.0
 11
51.70625930923454
 21
4539.531959659056
 31
0.0
 11
52.10436491240918
 21
4540.420807823884
 31
0.0
 11
52.44707243125704
 21
4541.031386045095
 31
0.0
 11
52.88001917483818
 21
4541.581658703106
 31
0.0
 11
53.54884245202669
 21
4542.289590178048
 31
0.0
 11
54.25677448853575
 21
4542.958412860518
 31
0.0
 11
54.80704751029126
 21
4543.391359141317
 31
0.0
 11
55.4176260195515
 21
4543.73406614678
 31
0.0
 11
56.30647451876157
 21
4544.132171003359
 31
0.0
 11
57.21640996268234
 21
4544.479157409939
 31
0.0
 11
57.89036972288279
 21
4544.668558943566
 31
0.0
 11
58.58561071313964
 21
4544.751525365199
 31
0.0
 11
59.55925703455452
 21
4544.779180013073
 31
0.0
  0
SPLINE
  5
144
330
A
100
AcDbEntity
  8
0
  6
Continuous
 62
     3
100
AcDbSpline
210
0.0
220
0.0
230
1.0
 70
     8
 71
     3
 72
    23
 73
    19
 74
    17
 42
0.0000000001
 43
0.0000000001
 44
0.00000000001
 40
0.0
 40
0.0
 40
0.0
 40
0.0
 40
0.5304604066264726
 40
0.9104331671522322
 40
1.2903946484716
 40
1.820835011032346
 40
2.351283999476073
 40
2.731257604543954
 40
3.111230345628535
 40
3.641676734875989
 40
4.172123124356165
 40
4.552095865733188
 40
4.932069471020811
 40
5.462518459562013
 40
5.992958821889857
 40
6.372920303055913
 40
6.752893063316038
 40
7.283353469563578
 40
7.283353469563578
 40
7.283353469563578
 40
7.283353469563578
 10
124.0556368928606
 20
4544.779180013073
 30
0.0
 10
124.2324249706702
 20
4544.777812160066
 30
0.0
 10
124.535847672128
 20
4544.775464503708
 30
0.0
 10
124.9659173578353
 20
4544.747953876686
 30
0.0
 10
125.3884760998285
 20
4544.663684672179
 30
0.0
 10
125.8542542617525
 20
4544.546659433266
 30
0.0
 10
126.3166514234997
 20
4544.416962992356
 30
0.0
 10
126.7253671061109
 20
4544.28043752393
 30
0.0
 10
127.1120738880474
 20
4544.090322251665
 30
0.0
 10
127.5321839903597
 20
4543.857632672923
 30
0.0
 10
127.9457513724525
 20
4543.613503693323
 30
0.0
 10
128.3056863476181
 20
4543.376580149082
 30
0.0
 10
128.6305893918064
 20
4543.093515271714
 30
0.0
 10
128.9768238526107
 20
4542.760718035914
 30
0.0
 10
129.3138508057181
 20
4542.418582046202
 30
0.0
 10
129.6007310965682
 20
4542.097090385665
 30
0.0
 10
129.8424974265446
 20
4541.74034704569
 30
0.0
 10
129.9983623632332
 20
4541.480006943841
 30
0.0
 10
130.0891764731286
 20
4541.328320778101
 30
0.0
 11
124.0556368928606
 21
4544.779180013073
 31
0.0
 11
124.5860049872119
 21
4544.769284180997
 31
0.0
 11
124.9648162216138
 21
4544.739596684767
 31
0.0
 11
125.3385321774159
 21
4544.670988291218
 31
0.0
 11
125.8536284149929
 21
4544.544327941197
 31
0.0
 11
126.3636496218487
 21
4544.398538716978
 31
0.0
 11
126.7221270879568
 21
4544.272547261549
 31
0.0
 11
127.0656930282193
 21
4544.110245910172
 31
0.0
 11
127.5309796577874
 21
4543.855526998014
 31
0.0
 11
127.9864402842366
 21
4543.583628138386
 31
0.0
 11
128.3005282147863
 21
4543.369786944804
 31
0.0
 11
128.5908798466201
 21
4543.124683149226
 31
0.0
 11
128.975131576769
 21
4542.758996483729
 31
0.0
 11
129.3454686179096
 21
4542.379236751865
 31
0.0
 11
129.5940860450804
 21
4542.091904014299
 31
0.0
 11
129.8117396275355
 21
4541.780445804287
 31
0.0
 11
130.0891764731286
 21
4541.328320778101
 31
0.0
  0
SPLINE
  5
143
330
A
100
AcDbEntity
  8
0
  6
Continuous
 62
     3
100
AcDbSpline
 70
     0
 71
     3
 72
    11
 73
     7
 74
     5
 42
0.0000000001
 43
0.0000000001
 44
0.00000000001
 40
0.0
 40
0.0
 40
0.0
 40
0.0
 40
3.417119708977345
 40
5.857919500990563
 40
8.29871929250779
 40
11.71583900065793
 40
11.71583900065793
 40
11.71583900065793
 40
11.71583900065793
 10
130.0891764725546
 20
4541.328320779074
 30
0.0
 10
130.6666926086811
 20
4540.346543302695
 30
0.0
 10
131.6567202705931
 20
4538.663496200366
 30
0.0
 10
133.0592594582229
 20
4536.279179472239
 30
0.0
 10
134.4617986459694
 20
4533.894862744497
 30
0.0
 10
135.4518263079926
 20
4532.211815642745
 30
0.0
 10
136.0293424441746
 20
4531.230038166721
 30
0.0
 11
130.0891764725546
 21
4541.328320779074
 31
0.0
 11
131.821724880938
 21
4538.382988349943
 31
0.0
 11
133.0592594583444
 21
4536.279179472118
 31
0.0
 11
134.296794035677
 21
4534.175370594825
 31
0.0
 11
136.0293424441746
 21
4531.230038166721
 31
0.0
  0
SPLINE
  5
142
330
A
100
AcDbEntity
  8
0
  6
Continuous
 62
     3
100
AcDbSpline
210
0.0
220
0.0
230
1.0
 70
    24
 71
     3
 72
    11
 73
     7
 74
     5
 42
0.0000000001
 43
0.0000000001
 44
0.00000000001
 40
0.0
 40
0.0
 40
0.0
 40
0.0
 40
18.81144416413091
 40
32.24818999781966
 40
45.68493583318345
 40
64.49638000010608
 40
64.49638000010608
 40
64.49638000010608
 40
64.49638000010608
 10
59.55925689544851
 20
4544.779180013073
 30
0.0
 10
65.82973828349214
 20
4544.779180013073
 30
0.0
 10
76.57913494943205
 20
4544.779180013074
 30
0.0
 10
91.80744689382651
 20
4544.779180013073
 30
0.0
 10
107.0357588391516
 20
4544.779180013074
 30
0.0
 10
117.7851555065803
 20
4544.779180013073
 30
0.0
 10
124.0556368955546
 20
4544.779180013073
 30
0.0
 11
59.55925689544851
 21
4544.779180013073
 31
0.0
 11
78.37070105957941
 21
4544.779180013073
 31
0.0
 11
91.80744689326816
 21
4544.779180013073
 31
0.0
 11
105.2441927286319
 21
4544.779180013073
 31
0.0
 11
124.0556368955546
 21
4544.779180013073
 31
0.0
  0
SPLINE
  5
141
330
A
100
AcDbEntity
  8
0
  6
Continuous
 62
     3
100
AcDbSpline
210
0.0
220
0.0
230
1.0
 70
     8
 71
     3
 72
    23
 73
    19
 74
    17
 42
0.0000000001
 43
0.0000000001
 44
0.00000000001
 40
0.0
 40
0.0
 40
0.0
 40
0.0
 40
0.5304463903494191
 40
0.9104191303641734
 40
1.290391870378712
 40
1.820838260728221
 40
2.351284651077055
 40
2.731257391091344
 40
3.111230131105489
 40
3.6416765214544
 40
4.172122911804619
 40
4.552095651818984
 40
4.932068391834076
 40
5.462514782182633
 40
5.992961172531679
 40
6.372933912547043
 40
6.752906652561389
 40
7.283353042910231
 40
7.283353042910231
 40
7.283353042910231
 40
7.283353042910231
 10
142.0628818415545
 20
4527.779179238073
 30
0.0
 10
141.8860984272948
 20
4527.780547119723
 30
0.0
 10
141.5826803907104
 20
4527.782894851075
 30
0.0
 10
141.1526117198649
 20
4527.810405646007
 30
0.0
 10
140.7300468984939
 20
4527.894673736638
 30
0.0
 10
140.2642638746655
 20
4528.011699897426
 30
0.0
 10
139.8018659197294
 20
4528.141396647971
 30
0.0
 10
139.3931513741432
 20
4528.277921863858
 30
0.0
 10
139.0064448475706
 20
4528.468036995087
 30
0.0
 10
138.5863347475239
 20
4528.700726580246
 30
0.0
 10
138.1727673613163
 20
4528.944855554902
 30
0.0
 10
137.8128326375426
 20
4529.181778950623
 30
0.0
 10
137.4879303877275
 20
4529.46484297591
 30
0.0
 10
137.1416952578083
 20
4529.797640738281
 30
0.0
 10
136.8046650448573
 20
4530.139780451199
 30
0.0
 10
136.5177826314637
 20
4530.461277916574
 30
0.0
 10
136.2760166711828
 20
4530.818020296916
 30
0.0
 10
136.1201540350606
 20
4531.078356340191
 30
0.0
 10
136.0293422650045
 20
4531.230038471889
 30
0.0
 11
142.0628818415545
 21
4527.779179238073
 31
0.0
 11
141.5325277637888
 21
4527.789074955936
 31
0.0
 11
141.1537165231075
 21
4527.818762109519
 31
0.0
 11
140.7799892241435
 21
4527.88737106785
 31
0.0
 11
140.2648869715293
 21
4528.014032199957
 31
0.0
 11
139.754868276044
 21
4528.159820756742
 31
0.0
 11
139.3963916484656
 21
4528.285811989111
 31
0.0
 11
139.0528257092468
 21
4528.448113340192
 31
0.0
 11
138.5875390788408
 21
4528.702832253113
 31
0.0
 11
138.1320784517057
 21
4528.974731113289
 31
0.0
 11
137.8179905223005
 21
4529.188572306131
 31
0.0
 11
137.5276395080912
 21
4529.433675491957
 31
0.0
 11
137.1433896265434
 21
4529.799360331081
 31
0.0
 11
136.7730488612755
 21
4530.179124851033
 31
0.0
 11
136.5244251959055
 21
4530.466467079349
 31
0.0
 11
136.3067719054698
 21
4530.77792546873
 31
0.0
 11
136.0293422650045
 21
4531.230038471889
 31
0.0
  0
SPLINE
  5
140
330
A
100
AcDbEntity
  8
0
  6
Continuous
 62
     3
100
AcDbSpline
210
0.0
220
0.0
230
1.0
 70
     8
 71
     3
 72
    15
 73
    11
 74
     9
 42
0.0000000001
 43
0.0000000001
 44
0.00000000001
 40
0.0
 40
0.0
 40
0.0
 40
0.0
 40
0.0071426138348299
 40
0.0130487230525849
 40
0.0351246059153222
 40
0.0672055311559017
 40
0.1120003269503719
 40
0.1457751651805644
 40
0.1867786385286226
 40
0.2406918919572609
 40
0.2406918919572609
 40
0.2406918919572609
 40
0.2406918919572609
 10
34.05925781896656
 20
4519.047917169316
 30
0.0
 10
34.05911577673062
 20
4519.050421182035
 30
0.0
 10
34.05885628211962
 20
4519.054995721446
 30
0.0
 10
34.04904520204946
 20
4519.062672179042
 30
0.0
 10
34.02910019481292
 20
4519.066194810066
 30
0.0
 10
33.99704686086166
 20
4519.073514794874
 30
0.0
 10
33.96048863999983
 20
4519.078924710519
 30
0.0
 10
33.92092152215277
 20
4519.083730880601
 30
0.0
 10
33.87805788086526
 20
4519.085988633653
 30
0.0
 10
33.84644463051349
 20
4519.08716589105
 30
0.0
 10
33.82848812025657
 20
4519.087834580107
 30
0.0
 11
34.05925781896656
 21
4519.047917169316
 31
0.0
 11
34.05781737033549
 21
4519.054913028101
 31
0.0
 11
34.05349602453836
 21
4519.058938956143
 31
0.0
 11
34.03249579746816
 21
4519.065745942786
 31
0.0
 11
34.00107871880916
 21
4519.072238471787
 31
0.0
 11
33.95683470119633
 21
4519.079241373739
 31
0.0
 11
33.92328040457107
 21
4519.083094797601
 31
0.0
 11
33.88235794651821
 21
4519.08567108437
 31
0.0
 11
33.82848812025657
 21
4519.087834580107
 31
0.0
  0
SPLINE
  5
13F
330
A
100
AcDbEntity
  8
0
  6
Continuous
 62
     3
100
AcDbSpline
210
0.0
220
0.0
230
1.0
 70
    24
 71
     3
 72
    23
 73
    19
 74
    17
 42
0.0000000001
 43
0.0000000001
 44
0.00000000001
 40
0.0
 40
0.0
 40
0.0
 40
0.0
 40
0.3279651964949153
 40
0.5668592595202427
 40
0.8120248456571061
 40
1.15142502972867
 40
1.485389345739349
 40
1.72712804438197
 40
1.946432337258556
 40
2.249407214918392
 40
2.526782847339745
 40
2.726899945186232
 40
2.882057939971673
 40
3.097062453671242
 40
3.274742717055232
 40
3.401442484090694
 40
3.471784262692381
 40
3.562339871265066
 40
3.562339871265066
 40
3.562339871265066
 40
3.562339871265066
 10
42.05925913016853
 20
4518.537147388075
 30
0.0
 10
42.05925913016853
 20
4518.64646912024
 30
0.0
 10
42.05925913016853
 20
4518.835422206745
 30
0.0
 10
42.05925913016852
 20
4519.106097155298
 30
0.0
 10
42.05925913016854
 20
4519.380583766379
 30
0.0
 10
42.05925913016852
 20
4519.686760461782
 30
0.0
 10
42.05925913016854
 20
4519.991794861359
 30
0.0
 10
42.05925913016854
 20
4520.256797297202
 30
0.0
 10
42.05925913016852
 20
4520.511469920261
 30
0.0
 10
42.05925913016854
 20
4520.778021521247
 30
0.0
 10
42.05925913016851
 20
4521.038177390557
 30
0.0
 10
42.05925913016854
 20
4521.249060965574
 30
0.0
 10
42.05925913016853
 20
4521.439154167685
 30
0.0
 10
42.05925913016854
 20
4521.621768424973
 30
0.0
 10
42.05925913016852
 20
4521.794896606346
 30
0.0
 10
42.05925913016854
 20
4521.919803876023
 30
0.0
 10
42.05925913016852
 20
4522.01566959409
 30
0.0
 10
42.05925913016852
 20
4522.069302056482
 30
0.0
 10
42.05925913016853
 20
4522.09948725934
 30
0.0
 11
42.05925913016853
 21
4518.537147388075
 31
0.0
 11
42.05925913016853
 21
4518.86511258457
 31
0.0
 11
42.05925913016853
 21
4519.104006647595
 31
0.0
 11
42.05925913016853
 21
4519.349172233732
 31
0.0
 11
42.05925913016853
 21
4519.688572417804
 31
0.0
 11
42.05925913016853
 21
4520.022536733814
 31
0.0
 11
42.05925913016853
 21
4520.264275432457
 31
0.0
 11
42.05925913016853
 21
4520.483579725333
 31
0.0
 11
42.05925913016853
 21
4520.786554602993
 31
0.0
 11
42.05925913016852
 21
4521.063930235414
 31
0.0
 11
42.05925913016853
 21
4521.264047333261
 31
0.0
 11
42.05925913016853
 21
4521.419205328046
 31
0.0
 11
42.05925913016853
 21
4521.634209841746
 31
0.0
 11
42.05925913016853
 21
4521.81189010513
 31
0.0
 11
42.05925913016853
 21
4521.938589872166
 31
0.0
 11
42.05925913016853
 21
4522.008931650767
 31
0.0
 11
42.05925913016853
 21
4522.09948725934
 31
0.0
  0
SPLINE
  5
13E
330
A
100
AcDbEntity
  8
0
  6
Continuous
 62
     3
100
AcDbSpline
210
0.0
220
0.0
230
1.0
 70
    24
 71
     3
 72
    23
 73
    19
 74
    17
 42
0.0000000001
 43
0.0000000001
 44
0.00000000001
 40
0.0
 40
0.0
 40
0.0
 40
0.0
 40
0.0827242836749065
 40
0.1465172668058585
 40
0.2561210141657284
 40
0.4096482118948189
 40
0.5930062514053134
 40
0.7250497507238834
 40
0.8940740617490519
 40
1.128819817651674
 40
1.385538081267441
 40
1.570874229788387
 40
1.778064331527275
 40
2.065055175839916
 40
2.36041270178066
 40
2.573433771055533
 40
2.788401649503612
 40
3.085353064076116
 40
3.085353064076116
 40
3.085353064076116
 40
3.085353064076116
 10
34.05925781896656
 20
4522.133270233393
 30
0.0
 10
34.05925781896656
 20
4522.105695472168
 30
0.0
 10
34.05925781896656
 20
4522.056856383232
 30
0.0
 10
34.05925781896656
 20
4521.971482711845
 30
0.0
 10
34.05925781896655
 20
4521.862508069102
 30
0.0
 10
34.05925781896657
 20
4521.713678407571
 30
0.0
 10
34.05925781896656
 20
4521.557368828718
 30
0.0
 10
34.05925781896656
 20
4521.395893545433
 30
0.0
 10
34.05925781896656
 20
4521.217289023351
 30
0.0
 10
34.05925781896657
 20
4520.997126246504
 30
0.0
 10
34.05925781896656
 20
4520.771526190491
 30
0.0
 10
34.05925781896656
 20
4520.555111352531
 30
0.0
 10
34.05925781896656
 20
4520.328605654341
 30
0.0
 10
34.05925781896656
 20
4520.065426163677
 30
0.0
 10
34.05925781896657
 20
4519.800303017168
 30
0.0
 10
34.05925781896656
 20
4519.559187525945
 30
0.0
 10
34.05925781896655
 20
4519.317540738514
 30
0.0
 10
34.05925781896656
 20
4519.146900974174
 30
0.0
 10
34.05925781896656
 20
4519.047917169316
 30
0.0
 11
34.05925781896656
 21
4522.133270233393
 31
0.0
 11
34.05925781896656
 21
4522.050545949718
 31
0.0
 11
34.05925781896656
 21
4521.986752966586
 31
0.0
 11
34.05925781896656
 21
4521.877149219228
 31
0.0
 11
34.05925781896656
 21
4521.723622021498
 31
0.0
 11
34.05925781896656
 21
4521.540263981988
 31
0.0
 11
34.05925781896656
 21
4521.408220482668
 31
0.0
 11
34.05925781896656
 21
4521.239196171644
 31
0.0
 11
34.05925781896656
 21
4521.004450415741
 31
0.0
 11
34.05925781896656
 21
4520.747732152125
 31
0.0
 11
34.05925781896656
 21
4520.562396003604
 31
0.0
 11
34.05925781896656
 21
4520.355205901865
 31
0.0
 11
34.05925781896656
 21
4520.068215057553
 31
0.0
 11
34.05925781896656
 21
4519.772857531612
 31
0.0
 11
34.05925781896656
 21
4519.559836462337
 31
0.0
 11
34.05925781896656
 21
4519.344868583889
 31
0.0
 11
34.05925781896656
 21
4519.047917169316
 31
0.0
  0
SPLINE
  5
13D
330
A
100
AcDbEntity
  8
0
  6
Continuous
 62
     3
100
AcDbSpline
210
0.0
220
0.0
230
1.0
 70
     8
 71
     3
 72
    15
 73
    11
 74
     9
 42
0.0000000001
 43
0.0000000001
 44
0.00000000001
 40
0.0
 40
0.0
 40
0.0
 40
0.0
 40
0.027759576201734
 40
0.0535096326750726
 40
0.0886398709262992
 40
0.1299047308446913
 40
0.1751127933059392
 40
0.216556180091176
 40
0.2413033743721709
 40
0.2626364351443002
 40
0.2626364351443002
 40
0.2626364351443002
 40
0.2626364351443002
 10
34.33832575715869
 20
4522.935297526918
 30
0.0
 10
34.34578317391935
 20
4522.940775552071
 30
0.0
 10
34.36015816396485
 20
4522.951335047348
 30
0.0
 10
34.38387379340175
 20
4522.96895836085
 30
0.0
 10
34.41173052636982
 20
4522.988551440596
 30
0.0
 10
34.44582770846409
 20
4523.010483249032
 30
0.0
 10
34.48211105378079
 20
4523.032883085948
 30
0.0
 10
34.51416223148275
 20
4523.051640342473
 30
0.0
 10
34.53957515086707
 20
4523.065971006871
 30
0.0
 10
34.55302964305715
 20
4523.073381201916
 30
0.0
 10
34.55925846056735
 20
4523.076811784951
 30
0.0
 11
34.33832575715869
 21
4522.935297526918
 31
0.0
 11
34.36068227182096
 21
4522.951752930985
 31
0.0
 11
34.38142039515825
 21
4522.967017125981
 31
0.0
 11
34.41018157816552
 21
4522.987189582241
 31
0.0
 11
34.44478608117875
 21
4523.009668840131
 31
0.0
 11
34.48327482420179
 21
4523.033383510106
 31
0.0
 11
34.51903446888728
 21
4523.05433111427
 31
0.0
 11
34.54058805335048
 21
4523.066491156275
 31
0.0
 11
34.55925846056735
 21
4523.076811784951
 31
0.0
  0
SPLINE
  5
13C
330
A
100
AcDbEntity
  8
0
  6
Continuous
 62
     3
100
AcDbSpline
210
0.0
220
0.0
230
1.0
 70
     8
 71
     3
 72
    25
 73
    21
 74
    19
 42
0.0000000001
 43
0.0000000001
 44
0.00000000001
 40
0.0
 40
0.0
 40
0.0
 40
0.0
 40
0.0166517890195615
 40
0.0324986138284082
 40
0.0530735047254102
 40
0.0756155203317815
 40
0.1045731922142126
 40
0.1326135928984732
 40
0.161941278614924
 40
0.1911640336370536
 40
0.2221678282647969
 40
0.2532107979209542
 40
0.2863031429315382
 40
0.3193125901460871
 40
0.355638059295233
 40
0.3936321111174191
 40
0.427862402810511
 40
0.4595274757849262
 40
0.4858252324015798
 40
0.5129333562548181
 40
0.5129333562548181
 40
0.5129333562548181
 40
0.5129333562548181
 10
34.05925781855457
 20
4522.528842247034
 30
0.0
 10
34.05950131721258
 20
4522.534387642618
 30
0.0
 10
34.05997654355884
 20
4522.545210363794
 30
0.0
 10
34.0605241171989
 20
4522.562892072286
 30
0.0
 10
34.06229947900277
 20
4522.582499797271
 30
0.0
 10
34.06717496546083
 20
4522.606061726658
 30
0.0
 10
34.07432356678692
 20
4522.6316129904
 30
0.0
 10
34.0841270744207
 20
4522.658697246011
 30
0.0
 10
34.09612649771645
 20
4522.68498726361
 30
0.0
 10
34.11078281032992
 20
4522.711028229307
 30
0.0
 10
34.12761416638324
 20
4522.736400466931
 30
0.0
 10
34.14682292482241
 20
4522.761658006857
 30
0.0
 10
34.16791119844881
 20
4522.786254675657
 30
0.0
 10
34.19148959370192
 20
4522.81096694193
 30
0.0
 10
34.21736811699898
 20
4522.835684717087
 30
0.0
 10
34.24436588816218
 20
4522.859782244764
 30
0.0
 10
34.27078926154518
 20
4522.882172383816
 30
0.0
 10
34.29477511051095
 20
4522.901388370122
 30
0.0
 10
34.31717963423682
 20
4522.918771047726
 30
0.0
 10
34.33120607022947
 20
4522.929733229148
 30
0.0
 10
34.33832570501055
 20
4522.935297488532
 30
0.0
 11
34.05925781855457
 21
4522.528842247034
 31
0.0
 11
34.05995157774885
 21
4522.545479577821
 31
0.0
 11
34.06061179992779
 21
4522.561312643324
 31
0.0
 11
34.0626087787353
 21
4522.581790392493
 31
0.0
 11
34.06696031135229
 21
4522.603908408487
 31
0.0
 11
34.07475452809995
 21
4522.631797419694
 31
0.0
 11
34.0843236897784
 21
4522.658154491142
 31
0.0
 11
34.09650950189146
 21
4522.684830681511
 31
0.0
 11
34.11078562279434
 21
4522.710328951709
 31
0.0
 11
34.12787786862989
 21
4522.736195733759
 31
0.0
 11
34.14663722602016
 21
4522.760929364212
 31
0.0
 11
34.16814647859883
 21
4522.786078029223
 31
0.0
 11
34.19089783085412
 21
4522.809994541844
 31
0.0
 11
34.21710072061971
 21
4522.835153005167
 31
0.0
 11
34.24541447463557
 21
4522.860488342296
 31
0.0
 11
34.27154533771304
 21
4522.8825992189
 31
0.0
 11
34.29622676065948
 21
4522.902436159386
 31
0.0
 11
34.31695683350179
 21
4522.918617509237
 31
0.0
 11
34.33832570501055
 21
4522.935297488532
 31
0.0
  0
SPLINE
  5
13B
330
A
100
AcDbEntity
  8
0
  6
Continuous
 62
     6
100
AcDbSpline
210
0.0
220
0.0
230
1.0
 70
     8
 71
     3
 72
    39
 73
    35
 74
    33
 42
0.0000000001
 43
0.0000000001
 44
0.00000000001
 40
0.0
 40
0.0
 40
0.0
 40
0.0
 40
0.4069477453650173
 40
0.6999237937513846
 40
1.00748973984614
 40
1.437149730153219
 40
1.875561589210307
 40
2.189575222029774
 40
2.514138718186698
 40
2.967300212792697
 40
3.426935977473663
 40
3.756287447633825
 40
4.092504276564898
 40
4.561735913055731
 40
5.034422786877805
 40
5.373201463325427
 40
5.714366423947813
 40
6.190388188738722
 40
6.666409953530178
 40
7.00757491415136
 40
7.346353590599257
 40
7.819040464420752
 40
8.288272100912548
 40
8.624488929843469
 40
8.953840400004164
 40
9.413476164685434
 40
9.866637659290372
 40
10.19120115544826
 40
10.50521478826758
 40
10.94362664732508
 40
11.37328663763102
 40
11.68085258372608
 40
11.97382863211192
 40
12.38077637747805
 40
12.38077637747805
 40
12.38077637747805
 40
12.38077637747805
 10
383.0592593685545
 20
4676.769336678409
 30
0.0
 10
383.1948952874565
 20
4676.770067406274
 30
0.0
 10
383.4281802927378
 20
4676.771324210924
 30
0.0
 10
383.7640143991189
 20
4676.785274233302
 30
0.0
 10
384.1046076991979
 20
4676.831528848151
 30
0.0
 10
384.4906274742742
 20
4676.899035164627
 30
0.0
 10
384.8773069177694
 20
4676.97462173593
 30
0.0
 10
385.2274617741657
 20
4677.055366396737
 30
0.0
 10
385.5724255125746
 20
4677.172478827301
 30
0.0
 10
385.9574803966557
 20
4677.320266107377
 30
0.0
 10
386.3407962516514
 20
4677.476733235073
 30
0.0
 10
386.6830704945444
 20
4677.631086862655
 30
0.0
 10
387.0101165443327
 20
4677.822010351344
 30
0.0
 10
387.3692093739903
 20
4678.051253114797
 30
0.0
 10
387.7239301969817
 20
4678.288725308734
 30
0.0
 10
388.0351726792878
 20
4678.514736891854
 30
0.0
 10
388.3213492546492
 20
4678.773427085859
 30
0.0
 10
388.6294797516439
 20
4679.074852226449
 30
0.0
 10
388.9309048922328
 20
4679.382982723446
 30
0.0
 10
389.1895950862375
 20
4679.669159298804
 30
0.0
 10
389.4156066693583
 20
4679.980401781111
 30
0.0
 10
389.6530788632957
 20
4680.335122604101
 30
0.0
 10
389.8823216267467
 20
4680.694215433761
 30
0.0
 10
390.07324511544
 20
4681.021261483547
 30
0.0
 10
390.2275987430194
 20
4681.363535726441
 30
0.0
 10
390.3840658707188
 20
4681.746851581436
 30
0.0
 10
390.5318531507889
 20
4682.131906465519
 30
0.0
 10
390.6489655813588
 20
4682.476870203926
 30
0.0
 10
390.7297102421602
 20
4682.827025060325
 30
0.0
 10
390.8052968134668
 20
4683.21370450382
 30
0.0
 10
390.8728031299427
 20
4683.599724278893
 30
0.0
 10
390.9190577447895
 20
4683.940317578975
 30
0.0
 10
390.9330077671675
 20
4684.276151685354
 30
0.0
 10
390.9342645718171
 20
4684.509436690635
 30
0.0
 10
390.9349952996806
 20
4684.645072609539
 30
0.0
 11
383.0592593685545
 21
4676.769336678409
 31
0.0
 11
383.4661758600306
 21
4676.774380131837
 31
0.0
 11
383.7587609538512
 21
4676.789510492114
 31
0.0
 11
384.0639525308771
 21
4676.827653807513
 31
0.0
 11
384.4874916056283
 21
4676.899919701471
 31
0.0
 11
384.917490649884
 21
4676.985393557713
 31
0.0
 11
385.2226192837069
 21
4677.05956281292
 31
0.0
 11
385.531143311487
 21
4677.160331792869
 31
0.0
 11
385.9548808400242
 21
4677.320961326588
 31
0.0
 11
386.3798219989291
 21
4677.496147078413
 31
0.0
 11
386.6783758831832
 21
4677.635208104921
 31
0.0
 11
386.9707650361779
 21
4677.801191053646
 31
0.0
 11
387.3673092660228
 21
4678.052051577564
 31
0.0
 11
387.7591066230615
 21
4678.316490061339
 31
0.0
 11
388.0307366812298
 21
4678.518945249257
 31
0.0
 11
388.2866392722219
 21
4678.744571919401
 31
0.0
 11
388.6282456522646
 21
4679.076086325828
 31
0.0
 11
388.9597600586911
 21
4679.417692705873
 31
0.0
 11
389.1853867288345
 21
4679.673595296863
 31
0.0
 11
389.3878419167529
 21
4679.945225355032
 31
0.0
 11
389.652280400528
 21
4680.337022712069
 31
0.0
 11
389.9031409244466
 21
4680.733566941915
 31
0.0
 11
390.0691238731735
 21
4681.025956094909
 31
0.0
 11
390.2081848996809
 21
4681.324509979163
 31
0.0
 11
390.3833706515055
 21
4681.749451138069
 31
0.0
 11
390.5440001852231
 21
4682.173188666605
 31
0.0
 11
390.6447691651737
 21
4682.481712694386
 31
0.0
 11
390.7189384203782
 21
4682.786841328209
 31
0.0
 11
390.8044122766222
 21
4683.216840372465
 31
0.0
 11
390.8766781705812
 21
4683.640379447215
 31
0.0
 11
390.9148214859771
 21
4683.945571024241
 31
0.0
 11
390.9299518462548
 21
4684.238156118062
 31
0.0
 11
390.9349952996806
 21
4684.645072609539
 31
0.0
  0
SPLINE
  5
13A
330
A
100
AcDbEntity
  8
0
  6
Continuous
 62
     6
100
AcDbSpline
210
0.0
220
0.0
230
1.0
 70
     8
 71
     3
 72
    39
 73
    35
 74
    33
 42
0.0000000001
 43
0.0000000001
 44
0.00000000001
 40
0.0
 40
0.0
 40
0.0
 40
0.0
 40
0.4069477453661303
 40
0.6999237937519613
 40
1.007489739847034
 40
1.437149730152948
 40
1.87556158921045
 40
2.189575222029803
 40
2.514138718186807
 40
2.967300212791774
 40
3.426935977473828
 40
3.756287447632956
 40
4.092504276565369
 40
4.561735913057086
 40
5.034422786878761
 40
5.373201463326447
 40
5.714366423948678
 40
6.190388188739879
 40
6.66640995353017
 40
7.00757491415223
 40
7.346353590600012
 40
7.819040464422072
 40
8.288272100912413
 40
8.6244889298443
 40
8.953840400004002
 40
9.413476164684738
 40
9.866637659291143
 40
10.19120115544893
 40
10.50521478826925
 40
10.94362664732728
 40
11.37328663763343
 40
11.68085258372705
 40
11.97382863211337
 40
12.38077637747976
 40
12.38077637747976
 40
12.38077637747976
 40
12.38077637747976
 10
-4.816476562573456
 20
4684.645072609539
 30
0.0
 10
-4.815745834709812
 20
4684.509436690635
 30
0.0
 10
-4.814489030060209
 20
4684.276151685354
 30
0.0
 10
-4.800539007682421
 20
4683.940317578974
 30
0.0
 10
-4.754284392835433
 20
4683.599724278894
 30
0.0
 10
-4.686778076359788
 20
4683.213704503818
 30
0.0
 10
-4.611191505053022
 20
4682.827025060325
 30
0.0
 10
-4.530446844251776
 20
4682.476870203926
 30
0.0
 10
-4.413334413681713
 20
4682.13190646552
 30
0.0
 10
-4.265547133611211
 20
4681.746851581438
 30
0.0
 10
-4.109080005913442
 20
4681.363535726442
 30
0.0
 10
-3.954726378331696
 20
4681.021261483549
 30
0.0
 10
-3.763802889640483
 20
4680.69421543376
 30
0.0
 10
-3.534560126188563
 20
4680.335122604102
 30
0.0
 10
-3.297087932251725
 20
4679.980401781113
 30
0.0
 10
-3.071076349128794
 20
4679.669159298805
 30
0.0
 10
-2.81238615512455
 20
4679.382982723446
 30
0.0
 10
-2.51096101453554
 20
4679.074852226449
 30
0.0
 10
-2.202830517541551
 20
4678.773427085858
 30
0.0
 10
-1.916653942180833
 20
4678.514736891854
 30
0.0
 10
-1.605411459874459
 20
4678.288725308734
 30
0.0
 10
-1.250690636883648
 20
4678.051253114797
 30
0.0
 10
-0.8915978072245598
 20
4677.822010351347
 30
0.0
 10
-0.5645517574380738
 20
4677.631086862652
 30
0.0
 10
-0.2222775145440305
 20
4677.476733235074
 30
0.0
 10
0.16103834045125
 20
4677.320266107374
 30
0.0
 10
0.5460932245326442
 20
4677.172478827303
 30
0.0
 10
0.8910569629423591
 20
4677.055366396737
 30
0.0
 10
1.241211819339678
 20
4676.97462173593
 30
0.0
 10
1.627891262834861
 20
4676.899035164625
 30
0.0
 10
2.013911037911057
 20
4676.831528848152
 30
0.0
 10
2.354504337989343
 20
4676.785274233302
 30
0.0
 10
2.690338444370209
 20
4676.771324210923
 30
0.0
 10
2.923623449652169
 20
4676.770067406274
 30
0.0
 10
3.059259368554536
 20
4676.769336678409
 30
0.0
 11
-4.816476562573456
 21
4684.645072609539
 31
0.0
 11
-4.811433109147585
 21
4684.238156118062
 31
0.0
 11
-4.796302748869974
 21
4683.945571024241
 31
0.0
 11
-4.75815943347399
 21
4683.640379447215
 31
0.0
 11
-4.685893539515089
 21
4683.216840372465
 31
0.0
 11
-4.600419683271138
 21
4682.786841328209
 31
0.0
 11
-4.526250428066552
 21
4682.481712694386
 31
0.0
 11
-4.425481448115949
 21
4682.173188666606
 31
0.0
 11
-4.264851914398313
 21
4681.749451138069
 31
0.0
 11
-4.089666162573876
 21
4681.324509979163
 31
0.0
 11
-3.950605136066261
 21
4681.02595609491
 31
0.0
 11
-3.784622187339563
 21
4680.733566941915
 31
0.0
 11
-3.533761663421092
 21
4680.337022712069
 31
0.0
 11
-3.269323179645605
 21
4679.945225355032
 31
0.0
 11
-3.066867991726432
 21
4679.673595296864
 31
0.0
 11
-2.841241321582408
 21
4679.417692705873
 31
0.0
 11
-2.509726915156282
 21
4679.076086325828
 31
0.0
 11
-2.168120535114482
 21
4678.744571919401
 31
0.0
 11
-1.912217944122767
 21
4678.518945249257
 31
0.0
 11
-1.64058788595434
 21
4678.316490061339
 31
0.0
 11
-1.248790528915674
 21
4678.052051577564
 31
0.0
 11
-0.8522462990706735
 21
4677.801191053647
 31
0.0
 11
-0.5598571460761263
 21
4677.635208104919
 31
0.0
 11
-0.2613032618221205
 21
4677.496147078413
 31
0.0
 11
0.1636378970825435
 21
4677.320961326588
 31
0.0
 11
0.5873754256202083
 21
4677.160331792869
 31
0.0
 11
0.8958994534012154
 21
4677.05956281292
 31
0.0
 11
1.201028087224937
 21
4676.985393557713
 31
0.0
 11
1.631027131481459
 21
4676.89991970147
 31
0.0
 11
2.054566206231811
 21
4676.827653807513
 31
0.0
 11
2.359757783256666
 21
4676.789510492114
 31
0.0
 11
2.652342877077074
 21
4676.774380131836
 31
0.0
 11
3.059259368554536
 21
4676.769336678409
 31
0.0
  0
SPLINE
  5
139
330
A
100
AcDbEntity
  8
0
  6
Continuous
 62
     3
100
AcDbSpline
210
0.0
220
0.0
230
1.0
 70
     8
 71
     3
 72
    99
 73
    95
 74
    93
 42
0.0000000001
 43
0.0000000001
 44
0.00000000001
 40
0.0
 40
0.0
 40
0.0
 40
0.0
 40
0.0596167646799562
 40
0.0905448180842741
 40
0.1183478024434939
 40
0.1677488030183971
 40
0.224387537903144
 40
0.2616983792375853
 40
0.3010784015930128
 40
0.3589547667758248
 40
0.4243911256919079
 40
0.4676459871292441
 40
0.5387086219711735
 40
0.644009009569038
 40
0.801968451619922
 40
0.9223963075535314
 40
1.10963345282781
 40
1.360595219172302
 40
1.632334635247245
 40
1.827370355767621
 40
2.054707713393418
 40
2.372137613771291
 40
2.707079951675344
 40
2.946237538599435
 40
3.206509612584373
 40
3.570224752783174
 40
3.955665461710736
 40
4.244767503255902
 40
4.501418749884842
 40
4.844651780918299
 40
5.11371082675928
 40
5.292875907024895
 40
5.430431370898697
 40
5.636489322795632
 40
5.850617865685872
 40
6.004316794618326
 40
6.161379356503617
 40
6.380325407540881
 40
6.599577295123626
 40
6.756074744414402
 40
6.914375802196683
 40
7.136019298419457
 40
7.360994093768369
 40
7.522940603777718
 40
7.685326511363019
 40
7.910880118153616
 40
8.133954337094175
 40
8.293283161304092
 40
8.452406907855776
 40
8.675404305405438
 40
8.899270511020722
 40
9.059997500907387
 40
9.217970341527887
 40
9.437773698275963
 40
9.653891065792382
 40
9.808314746932603
 40
9.960130205842018
 40
10.17272399618137
 40
10.38013727344842
 40
10.51916622986481
 40
10.70023599011916
 40
10.97130730120436
 40
11.31181119441406
 40
11.56447779714542
 40
11.84908025677862
 40
12.23117090819202
 40
12.59743526017266
 40
12.86091540389637
 40
13.10067222990382
 40
13.43370918928674
 40
13.74952452874653
 40
13.98409785051295
 40
14.15398071894876
 40
14.38072315485922
 40
14.54465546836626
 40
14.65474846259379
 40
14.72853352984659
 40
14.83934257215332
 40
14.9449567957827
 40
15.02050216033762
 40
15.08530747610275
 40
15.17594924163274
 40
15.25892350102995
 40
15.31829953381887
 40
15.3663178022984
 40
15.43348606148247
 40
15.49120923810477
 40
15.53029806579828
 40
15.5669844043661
 40
15.62286645712742
 40
15.67187083555194
 40
15.69950558977385
 40
15.73040732007139
 40
15.79000334475093
 40
15.79000334475093
 40
15.79000334475093
 40
15.79000334475093
 10
-53.29637860436143
 20
4571.201797196073
 30
0.0
 10
-53.29619981373261
 20
4571.221047242416
 30
0.0
 10
-53.29592826989678
 20
4571.250283849827
 30
0.0
 10
-53.31289186055576
 20
4571.293438716764
 30
0.0
 10
-53.35408365341447
 20
4571.288383909616
 30
0.0
 10
-53.39364416780853
 20
4571.272415768754
 30
0.0
 10
-53.43792336590905
 20
4571.252813844332
 30
0.0
 10
-53.47748332324117
 20
4571.232632792795
 30
0.0
 10
-53.51434442409176
 20
4571.206886923242
 30
0.0
 10
-53.55822479241127
 20
4571.175086003309
 30
0.0
 10
-53.60269860956941
 20
4571.141824160423
 30
0.0
 10
-53.64990358360257
 20
4571.104902168388
 30
0.0
 10
-53.70495004360607
 20
4571.056600518502
 30
0.0
 10
-53.78826873049703
 20
4570.982612693142
 30
0.0
 10
-53.88295488720218
 20
4570.896617537512
 30
0.0
 10
-53.99517448608956
 20
4570.789358158349
 30
0.0
 10
-54.12409024511562
 20
4570.654932275536
 30
0.0
 10
-54.28569010217553
 20
4570.482065537095
 30
0.0
 10
-54.44746614088159
 20
4570.305804962025
 30
0.0
 10
-54.60220587087133
 20
4570.133763091961
 30
0.0
 10
-54.76075404604194
 20
4569.944842338489
 30
0.0
 10
-54.94615299233233
 20
4569.717653861789
 30
0.0
 10
-55.13229147117545
 20
4569.486001579318
 30
0.0
 10
-55.30456348872803
 20
4569.267607473885
 30
0.0
 10
-55.473576505678
 20
4569.034700573603
 30
0.0
 10
-55.66599125236137
 20
4568.758661068446
 30
0.0
 10
-55.86078280087822
 20
4568.472620342211
 30
0.0
 10
-56.03253506796585
 20
4568.213967961583
 30
0.0
 10
-56.18260331683378
 20
4567.958316224872
 30
0.0
 10
-56.32006408230743
 20
4567.703327503786
 30
0.0
 10
-56.4424969066885
 20
4567.469662638039
 30
0.0
 10
-56.53198608283819
 20
4567.296060168782
 30
0.0
 10
-56.60393183334495
 20
4567.137303955333
 30
0.0
 10
-56.67745568066003
 20
4566.966545078575
 30
0.0
 10
-56.75150726022168
 20
4566.790173417114
 30
0.0
 10
-56.81663385794258
 20
4566.627726033535
 30
0.0
 10
-56.87286720719933
 20
4566.460283513814
 30
0.0
 10
-56.93118141398627
 20
4566.270620814457
 30
0.0
 10
-56.98692844014743
 20
4566.080402575218
 30
0.0
 10
-57.03338269874044
 20
4565.908464640427
 30
0.0
 10
-57.06753271980945
 20
4565.732841648571
 30
0.0
 10
-57.10007231266158
 20
4565.533843357833
 30
0.0
 10
-57.12963863036148
 20
4565.333165128784
 30
0.0
 10
-57.15122343867377
 20
4565.151219936634
 30
0.0
 10
-57.1580325975038
 20
4564.967926828239
 30
0.0
 10
-57.15913947473997
 20
4564.764262105146
 30
0.0
 10
-57.15683543173521
 20
4564.561628755862
 30
0.0
 10
-57.14920508079877
 20
4564.381158453468
 30
0.0
 10
-57.12692401275628
 20
4564.201937456648
 30
0.0
 10
-57.0965483713766
 20
4564.002251448473
 30
0.0
 10
-57.06295465692787
 20
4563.802523397414
 30
0.0
 10
-57.02750022453703
 20
4563.625076857082
 30
0.0
 10
-56.97992273539693
 20
4563.45190832002
 30
0.0
 10
-56.92343151435885
 20
4563.262187437223
 30
0.0
 10
-56.8648070069953
 20
4563.074337397178
 30
0.0
 10
-56.80877911881853
 20
4562.90941432127
 30
0.0
 10
-56.74390339182004
 20
4562.749043786782
 30
0.0
 10
-56.66962794308742
 20
4562.573512954329
 30
0.0
 10
-56.59547145372631
 20
4562.40255720573
 30
0.0
 10
-56.52242676681211
 20
4562.242567688858
 30
0.0
 10
-56.4317071997382
 20
4562.067579022222
 30
0.0
 10
-56.30850121427133
 20
4561.833872467178
 30
0.0
 10
-56.17121960701497
 20
4561.580571093545
 30
0.0
 10
-56.02264209025866
 20
4561.328381703452
 30
0.0
 10
-55.85264198687337
 20
4561.073303037801
 30
0.0
 10
-55.65854638599395
 20
4560.788927421636
 30
0.0
 10
-55.46539981407939
 20
4560.512418845273
 30
0.0
 10
-55.29483393411833
 20
4560.278021181193
 30
0.0
 10
-55.12199300701944
 20
4560.059269999341
 30
0.0
 10
-54.93629564121373
 20
4559.828511719655
 30
0.0
 10
-54.74983044303648
 20
4559.600593473129
 30
0.0
 10
-54.59524990507609
 20
4559.416846644897
 30
0.0
 10
-54.45480181102242
 20
4559.260163669455
 30
0.0
 10
-54.32829938820027
 20
4559.122644301007
 30
0.0
 10
-54.21460192823037
 20
4559.000434379
 30
0.0
 10
-54.13525607830155
 20
4558.915893201199
 30
0.0
 10
-54.06639314575886
 20
4558.845838973035
 30
0.0
 10
-53.99807282972994
 20
4558.777353552513
 30
0.0
 10
-53.92903491503232
 20
4558.70875881343
 30
0.0
 10
-53.87040565768177
 20
4558.651436719628
 30
0.0
 10
-53.81384829219239
 20
4558.599180344591
 30
0.0
 10
-53.75484832026753
 20
4558.545931945432
 30
0.0
 10
-53.69677654826341
 20
4558.494370049561
 30
0.0
 10
-53.64885886917765
 20
4558.452743808818
 30
0.0
 10
-53.60307352084809
 20
4558.416816334641
 30
0.0
 10
-53.55690978354729
 20
4558.382281102523
 30
0.0
 10
-53.51262848392379
 20
4558.350303958954
 30
0.0
 10
-53.47601649762782
 20
4558.324821171406
 30
0.0
 10
-53.43688307899468
 20
4558.305026179495
 30
0.0
 10
-53.39311116684704
 20
4558.285774008659
 30
0.0
 10
-53.35388258811995
 20
4558.270090799884
 30
0.0
 10
-53.31296064421776
 20
4558.265053268692
 30
0.0
 10
-53.29590599627874
 20
4558.308086833618
 30
0.0
 10
-53.29619095126198
 20
4558.337316109109
 30
0.0
 10
-53.29637860436143
 20
4558.356564637693
 30
0.0
 11
-53.29637860436143
 21
4571.201797196073
 31
0.0
 11
-53.30158635473003
 21
4571.261186066807
 31
0.0
 11
-53.31720960583572
 21
4571.28787798529
 31
0.0
 11
-53.34500139089985
 21
4571.288667049437
 31
0.0
 11
-53.391811266174
 21
4571.272877988837
 31
0.0
 11
-53.44347763669496
 21
4571.249671686966
 31
0.0
 11
-53.47645579130304
 21
4571.232220606778
 31
0.0
 11
-53.50921071171221
 21
4571.210359651865
 31
0.0
 11
-53.55611210788618
 21
4571.176448994489
 31
0.0
 11
-53.6084480554495
 21
4571.137169665818
 31
0.0
 11
-53.64240522913814
 21
4571.110376133145
 31
0.0
 11
-53.6963275240697
 21
4571.064091317277
 31
0.0
 11
-53.7750425675566
 21
4570.994147671696
 31
0.0
 11
-53.89169971467618
 21
4570.887647458744
 31
0.0
 11
-53.97859033830486
 21
4570.804263479407
 31
0.0
 11
-54.10913254189029
 21
4570.670037991314
 31
0.0
 11
-54.28069215181832
 21
4570.486873834318
 31
0.0
 11
-54.46436489969102
 21
4570.286607431899
 31
0.0
 11
-54.59422845392122
 21
4570.141093207297
 31
0.0
 11
-54.74110834100525
 21
4569.967574986518
 31
0.0
 11
-54.9421587876797
 21
4569.721932035172
 31
0.0
 11
-55.15183728267039
 21
4569.460739963203
 31
0.0
 11
-55.29898337087582
 21
4569.272207790594
 31
0.0
 11
-55.45275746586679
 21
4569.062219504715
 31
0.0
 11
-55.6613195577009
 21
4568.764242060838
 31
0.0
 11
-55.87815891976262
 21
4568.445580435977
 31
0.0
 11
-56.03612598618077
 21
4568.203451552212
 31
0.0
 11
-56.16682199391629
 21
4567.982570552671
 31
0.0
 11
-56.33112444919556
 21
4567.681217575613
 31
0.0
 11
-56.45609219248181
 21
4567.442940775889
 31
0.0
 11
-56.53680753430045
 21
4567.28298715892
 31
0.0
 11
-56.5941851337504
 21
4567.157969893221
 31
0.0
 11
-56.67610998866553
 21
4566.968897955358
 31
0.0
 11
-56.75868668860513
 21
4566.771332468728
 31
0.0
 11
-56.81485446986183
 21
4566.628264159506
 31
0.0
 11
-56.86576005315358
 21
4566.479679941179
 31
0.0
 11
-56.93068939355129
 21
4566.2705829445
 31
0.0
 11
-56.99194678379834
 21
4566.060062346105
 31
0.0
 11
-57.03141115238606
 21
4565.908622538767
 31
0.0
 11
-57.06284944208512
 21
4565.753474677564
 31
0.0
 11
-57.09932026843912
 21
4565.534852358843
 31
0.0
 11
-57.13148566051587
 21
4565.312188832205
 31
0.0
 11
-57.14902999319068
 21
4565.151195451922
 31
0.0
 11
-57.15653184348267
 21
4564.988982920888
 31
0.0
 11
-57.15850877195239
 21
4564.763437977938
 31
0.0
 11
-57.15525342810146
 21
4564.540387513037
 31
0.0
 11
-57.14704505987054
 21
4564.381270270366
 31
0.0
 11
-57.12895774516862
 21
4564.223177842453
 31
0.0
 11
-57.09601724092228
 21
4564.002626799623
 31
0.0
 11
-57.05815332362901
 21
4563.781985910883
 31
0.0
 11
-57.02545547113165
 21
4563.62462004508
 31
0.0
 11
-56.98493841057533
 21
4563.471931518406
 31
0.0
 11
-56.92261702034714
 21
4563.261148312345
 31
0.0
 11
-56.85767784326726
 21
4563.055018208229
 31
0.0
 11
-56.80711470320188
 21
4562.90910713201
 31
0.0
 11
-56.75119641235436
 21
4562.767965081888
 31
0.0
 11
-56.66865823321874
 21
4562.572047832326
 31
0.0
 11
-56.58567757377565
 21
4562.381957123071
 31
0.0
 11
-56.52734315207625
 21
4562.255758288024
 31
0.0
 11
-56.44537513185118
 21
4562.094303954732
 31
0.0
 11
-56.31888389768403
 21
4561.854554870537
 31
0.0
 11
-56.15523022255187
 21
4561.555957523082
 31
0.0
 11
-56.02618876451218
 21
4561.338727888265
 31
0.0
 11
-55.87030523328866
 21
4561.100612612143
 31
0.0
 11
-55.65499032948354
 21
4560.784966040648
 31
0.0
 11
-55.44465531923264
 21
4560.485118147552
 31
0.0
 11
-55.28872974803653
 21
4560.272729347508
 31
0.0
 11
-55.14104175782564
 21
4560.083860098649
 31
0.0
 11
-54.93233857824518
 21
4559.824328599312
 31
0.0
 11
-54.73204047648391
 21
4559.580156530744
 31
0.0
 11
-54.58029220828166
 21
4559.401279180634
 31
0.0
 11
-54.46722353619624
 21
4559.274489337268
 31
0.0
 11
-54.31394408001209
 21
4559.107403908357
 31
0.0
 11
-54.20227166759009
 21
4558.987391093559
 31
0.0
 11
-54.12660720646581
 21
4558.907420119445
 31
0.0
 11
-54.0749937458525
 21
4558.85469169416
 31
0.0
 11
-53.99679095957814
 21
4558.776187120562
 31
0.0
 11
-53.92180747312285
 21
4558.70181077357
 31
0.0
 11
-53.86758208482837
 21
4558.649211254845
 31
0.0
 11
-53.8201035469028
 21
4558.605103235304
 31
0.0
 11
-53.75286655415685
 21
4558.544315765668
 31
0.0
 11
-53.6907755516649
 21
4558.489275461052
 31
0.0
 11
-53.64565281488829
 21
4558.450682043278
 31
0.0
 11
-53.608002304916
 21
4558.420879472808
 31
0.0
 11
-53.55427762775845
 21
4558.380565280442
 31
0.0
 11
-53.50745155907525
 21
4558.346811993032
 31
0.0
 11
-53.47489410870452
 21
4558.325179867019
 31
0.0
 11
-53.44241507170085
 21
4558.308121156843
 31
0.0
 11
-53.39137669133881
 21
4558.285364013991
 31
0.0
 11
-53.34490883863078
 21
4558.269802273424
 31
0.0
 11
-53.31728474871866
 21
4558.27056993053
 31
0.0
 11
-53.30160513705364
 21
4558.297198237148
 31
0.0
 11
-53.29637860436143
 21
4558.356564637693
 31
0.0
  0
SPLINE
  5
138
330
A
100
AcDbEntity
  8
0
  6
Continuous
 62
     3
100
AcDbSpline
210
0.0
220
0.0
230
1.0
 70
     8
 71
     3
 72
    99
 73
    95
 74
    93
 42
0.0000000001
 43
0.0000000001
 44
0.00000000001
 40
0.0
 40
0.0
 40
0.0
 40
0.0
 40
0.0596167644705728
 40
0.0905448178080722
 40
0.1183478018779136
 40
0.1677488019550113
 40
0.2243875362385458
 40
0.261698377181786
 40
0.3010783991580742
 40
0.3589547637919352
 40
0.4243911221072247
 40
0.4676459831462616
 40
0.5387086173557596
 40
0.6440090040088186
 40
0.8019684446876011
 40
0.922396299572801
 40
1.10963344338663
 40
1.360595207816767
 40
1.632334621794538
 40
1.827370340723188
 40
2.054707696670108
 40
2.372137594848687
 40
2.707079930654011
 40
2.946237516062494
 40
3.206509588362582
 40
3.570224726188661
 40
3.955665432594836
 40
4.244767472233673
 40
4.50141871732727
 40
4.844651746353011
 40
5.11371079068646
 40
5.292875869936688
 40
5.430431332967724
 40
5.636489283594882
 40
5.85061782509014
 40
6.004316752963793
 40
6.161379313971038
 40
6.380325363906717
 40
6.599577250533465
 40
6.756074699119517
 40
6.914375756001851
 40
7.136019250905553
 40
7.360994044996469
 40
7.522940554148183
 40
7.685326461230163
 40
7.910880067333039
 40
8.133954285603378
 40
8.293283109308733
 40
8.452406855111645
 40
8.675404251528654
 40
8.899270456320007
 40
9.059997445801704
 40
9.217970286397406
 40
9.437773642927645
 40
9.653891010054318
 40
9.808314690913205
 40
9.960130149448211
 40
10.17272393924417
 40
10.38013721605877
 40
10.51916617218592
 40
10.70023593242688
 40
10.97130724352248
 40
11.31181113678621
 40
11.56447773950202
 40
11.8490801991
 40
12.23117085044359
 40
12.59743520277086
 40
12.8609153468339
 40
13.10067217391506
 40
13.43370913473845
 40
13.74952447589731
 40
13.984097798895
 40
14.15398066872695
 40
14.38072310652861
 40
14.54465542197062
 40
14.65474841762915
 40
14.72853348629779
 40
14.8393425305842
 40
14.944956756233
 40
15.02050212223226
 40
15.08530743959358
 40
15.17594920736525
 40
15.25892346911129
 40
15.31829950357229
 40
15.36631777388091
 40
15.43348603559568
 40
15.4912092150146
 40
15.53029804470243
 40
15.56698438614027
 40
15.62286644319462
 40
15.67187082619183
 40
15.69950558413974
 40
15.7304073128384
 40
15.79000333432264
 40
15.79000333432264
 40
15.79000333432264
 40
15.79000333432264
 10
-53.29637860436143
 20
4521.201797196074
 30
0.0
 10
-53.29619981375211
 20
4521.221047242339
 30
0.0
 10
-53.29592826994576
 20
4521.250283849649
 30
0.0
 10
-53.31289186032531
 20
4521.293438716449
 30
0.0
 10
-53.35408365285583
 20
4521.288383909627
 30
0.0
 10
-53.39364416691414
 20
4521.272415769035
 30
0.0
 10
-53.4379233646201
 20
4521.252813844993
 30
0.0
 10
-53.47748332160763
 20
4521.232632793778
 30
0.0
 10
-53.51434442215222
 20
4521.206886924557
 30
0.0
 10
-53.55822479011576
 20
4521.175086004999
 30
0.0
 10
-53.60269860691989
 20
4521.1418241625
 30
0.0
 10
-53.64990358058399
 20
4521.10490217088
 30
0.0
 10
-53.70495004014898
 20
4521.056600521492
 30
0.0
 10
-53.78826872639539
 20
4520.982612696883
 30
0.0
 10
-53.88295488236767
 20
4520.89661754212
 30
0.0
 10
-53.99517448042852
 20
4520.78935816396
 30
0.0
 10
-54.12409023854947
 20
4520.654932282325
 30
0.0
 10
-54.28569009451728
 20
4520.482065545359
 30
0.0
 10
-54.44746613211842
 20
4520.30580497181
 30
0.0
 10
-54.60220586106556
 20
4520.133763103213
 30
0.0
 10
-54.76075403525074
 20
4519.944842351295
 30
0.0
 10
-54.94615298053164
 20
4519.717653876345
 30
0.0
 10
-55.13229145842814
 20
4519.486001595597
 30
0.0
 10
-55.3045634751413
 20
4519.267607491753
 30
0.0
 10
-55.47357649136818
 20
4519.034700593245
 30
0.0
 10
-55.66599123730374
 20
4518.75866109024
 30
0.0
 10
-55.86078278510971
 20
4518.472620366263
 30
0.0
 10
-56.03253505164142
 20
4518.213967987656
 30
0.0
 10
-56.18260330033697
 20
4517.958316252954
 30
0.0
 10
-56.32006406592047
 20
4517.703327533843
 30
0.0
 10
-56.44249689047825
 20
4517.469662669889
 30
0.0
 10
-56.53198606678365
 20
4517.296060201979
 30
0.0
 10
-56.60393181761394
 20
4517.137303989824
 30
0.0
 10
-56.67745566534368
 20
4516.966545114518
 30
0.0
 10
-56.75150724535761
 20
4516.790173454592
 30
0.0
 10
-56.81663384358905
 20
4516.627726072417
 30
0.0
 10
-56.87286719363939
 20
4516.460283554033
 30
0.0
 10
-56.93118140148103
 20
4516.270620856022
 30
0.0
 10
-56.98692842877021
 20
4516.080402618075
 30
0.0
 10
-57.03338268845932
 20
4515.908464684466
 30
0.0
 10
-57.06753271088025
 20
4515.73284169387
 30
0.0
 10
-57.10007230536851
 20
4515.533843404575
 30
0.0
 10
-57.12963862477616
 20
4515.333165176933
 30
0.0
 10
-57.15122343478251
 20
4515.151219985867
 30
0.0
 10
-57.15803259552146
 20
4514.967926878227
 30
0.0
 10
-57.15913947489351
 20
4514.764262155767
 30
0.0
 10
-57.15683543403508
 20
4514.56162880708
 30
0.0
 10
-57.14920508505215
 20
4514.381158505246
 30
0.0
 10
-57.12692401901399
 20
4514.201937508977
 30
0.0
 10
-57.09654837985937
 20
4514.002251501374
 30
0.0
 10
-57.06295466761348
 20
4513.802523450745
 30
0.0
 10
-57.02750023712606
 20
4513.625076910456
 30
0.0
 10
-56.97992274972617
 20
4513.451908373141
 30
0.0
 10
-56.923431530492
 20
4513.262187490025
 30
0.0
 10
-56.86480702491015
 20
4513.074337449735
 30
0.0
 10
-56.8087791382729
 20
4512.909414373669
 30
0.0
 10
-56.74390341268067
 20
4512.749043839042
 30
0.0
 10
-56.66962796545497
 20
4512.573513006447
 30
0.0
 10
-56.59547147753436
 20
4512.402557257693
 30
0.0
 10
-56.52242679186858
 20
4512.242567740524
 30
0.0
 10
-56.43170722593932
 20
4512.067579073405
 30
0.0
 10
-56.30850124189304
 20
4511.833872517592
 30
0.0
 10
-56.17121963612673
 20
4511.580571143132
 30
0.0
 10
-56.0226421206843
 20
4511.328381752258
 30
0.0
 10
-55.85264201841251
 20
4511.07330308591
 30
0.0
 10
-55.65854641867024
 20
4510.788927468872
 30
0.0
 10
-55.46539984774816
 20
4510.512418891565
 30
0.0
 10
-55.29483396831793
 20
4510.278021226373
 30
0.0
 10
-55.12199304136344
 20
4510.059270043194
 30
0.0
 10
-54.93629567543355
 20
4509.828511761803
 30
0.0
 10
-54.74983047708076
 20
4509.600593513537
 30
0.0
 10
-54.5952499387664
 20
4509.416846683721
 30
0.0
 10
-54.45480184423245
 20
4509.260163706687
 30
0.0
 10
-54.32829942073723
 20
4509.122644336492
 30
0.0
 10
-54.21460196003595
 20
4509.000434412771
 30
0.0
 10
-54.13525610934176
 20
4508.915893233505
 30
0.0
 10
-54.06639317599061
 20
4508.845839003879
 30
0.0
 10
-53.99807285901452
 20
4508.777353581753
 30
0.0
 10
-53.92903494337421
 20
4508.708758841043
 30
0.0
 10
-53.87040568511808
 20
4508.651436745757
 30
0.0
 10
-53.81384831868853
 20
4508.599180369144
 30
0.0
 10
-53.75484834563366
 20
4508.545931968156
 30
0.0
 10
-53.69677657248688
 20
4508.49437007043
 30
0.0
 10
-53.64885889228962
 20
4508.452743827994
 30
0.0
 10
-53.60307354284969
 20
4508.416816351981
 30
0.0
 10
-53.55690980417033
 20
4508.382281117724
 30
0.0
 10
-53.51262850312119
 20
4508.350303971957
 30
0.0
 10
-53.47601651521711
 20
4508.324821182261
 30
0.0
 10
-53.43688309463344
 20
4508.305026187557
 30
0.0
 10
-53.39311117979672
 20
4508.28577401269
 30
0.0
 10
-53.35388259805957
 20
4508.270090801588
 30
0.0
 10
-53.31296065216124
 20
4508.265053264834
 30
0.0
 10
-53.29590599742807
 20
4508.308086825899
 30
0.0
 10
-53.29619095171842
 20
4508.337316100399
 30
0.0
 10
-53.29637860436143
 20
4508.35656462832
 30
0.0
 11
-53.29637860436143
 21
4521.201797196074
 31
0.0
 11
-53.30158635468747
 21
4521.261186066601
 31
0.0
 11
-53.31720960566555
 21
4521.287877985081
 31
0.0
 11
-53.3450013904361
 21
4521.288667049371
 31
0.0
 11
-53.39181126530085
 21
4521.272877989115
 31
0.0
 11
-53.44347763535474
 21
4521.249671687672
 31
0.0
 11
-53.47645578966846
 21
4521.232220607764
 31
0.0
 11
-53.50921070981119
 21
4521.210359653134
 31
0.0
 11
-53.55611210560301
 21
4521.176448996167
 31
0.0
 11
-53.60844805275439
 21
4521.137169667947
 31
0.0
 11
-53.64240522617249
 21
4521.110376135577
 31
0.0
 11
-53.69632752068279
 21
4521.064091320187
 31
0.0
 11
-53.77504256354746
 21
4520.994147675329
 31
0.0
 11
-53.89169970977396
 21
4520.887647463434
 31
0.0
 11
-53.97859033273072
 21
4520.80426348491
 31
0.0
 11
-54.10913253541843
 21
4520.670037997982
 31
0.0
 11
-54.28069214419973
 21
4520.486873842535
 31
0.0
 11
-54.46436489083403
 21
4520.286607441826
 31
0.0
 11
-54.59422844413714
 21
4520.141093218529
 31
0.0
 11
-54.74110833030843
 21
4519.967574999177
 31
0.0
 11
-54.94215877585741
 21
4519.721932049752
 31
0.0
 11
-55.15183726983396
 21
4519.460739979662
 31
0.0
 11
-55.29898335733915
 21
4519.272207808427
 31
0.0
 11
-55.45275745165931
 21
4519.062219524146
 31
0.0
 11
-55.6613195426717
 21
4518.764242082589
 31
0.0
 11
-55.87815890394449
 21
4518.445580460241
 31
0.0
 11
-56.03612596986265
 21
4518.203451578427
 31
0.0
 11
-56.16682197745598
 21
4517.982570580586
 31
0.0
 11
-56.33112443282318
 21
4517.681217605863
 31
0.0
 11
-56.45609217630246
 21
4517.442940807942
 31
0.0
 11
-56.5368075183058
 21
4517.282987192203
 31
0.0
 11
-56.59418511798847
 21
4517.157969927538
 31
0.0
 11
-56.67610997336001
 21
4516.968897991257
 31
0.0
 11
-56.75868667381665
 21
4516.771332506355
 31
0.0
 11
-56.8148544555166
 21
4516.628264198444
 31
0.0
 11
-56.86576003949985
 21
4516.479679981283
 31
0.0
 11
-56.93068938104202
 21
4516.270582986112
 31
0.0
 11
-56.99194677256518
 21
4516.060062389084
 31
0.0
 11
-57.03141114215551
 21
4515.908622582736
 31
0.0
 11
-57.06284943301429
 21
4515.753474722686
 31
0.0
 11
-57.09932026114356
 21
4515.534852405599
 31
0.0
 11
-57.13148565513717
 21
4515.312188880509
 31
0.0
 11
-57.1490299893179
 21
4515.151195501252
 31
0.0
 11
-57.15653184128153
 21
4514.988982970799
 31
0.0
 11
-57.15850877211853
 21
4514.763438028558
 31
0.0
 11
-57.15525343063521
 21
4514.540387564293
 31
0.0
 11
-57.14704506412343
 21
4514.381270322039
 31
0.0
 11
-57.12895775118354
 21
4514.223177894677
 31
0.0
 11
-57.0960172494167
 21
4514.002626852621
 31
0.0
 11
-57.05815333455161
 21
4513.781985964302
 31
0.0
 11
-57.02545548374286
 21
4513.624620098561
 31
0.0
 11
-56.98493842468161
 21
4513.471931571516
 31
0.0
 11
-56.92261703646753
 21
4513.261148365086
 31
0.0
 11
-56.8576778613545
 21
4513.05501826076
 31
0.0
 11
-56.80711472263126
 21
4512.909107184372
 31
0.0
 11
-56.75119643304128
 21
4512.767965134155
 31
0.0
 11
-56.66865825560535
 21
4512.572047884467
 31
0.0
 11
-56.58567759774946
 21
4512.381957175014
 31
0.0
 11
-56.52734317706407
 21
4512.255758339817
 31
0.0
 11
-56.44537515788432
 21
4512.094304006008
 31
0.0
 11
-56.31888392517909
 21
4511.85455492103
 31
0.0
 11
-56.15523025175824
 21
4511.555957572577
 31
0.0
 11
-56.02618879484982
 21
4511.338727937105
 31
0.0
 11
-55.87030526470061
 21
4511.100612660322
 31
0.0
 11
-55.65499036224732
 21
4510.784966087989
 31
0.0
 11
-55.44465535299278
 21
4510.48511819377
 31
0.0
 11
-55.28872978238653
 21
4510.272729392872
 31
0.0
 11
-55.1410417921598
 21
4510.083860142663
 31
0.0
 11
-54.93233861253139
 21
4509.824328641516
 31
0.0
 11
-54.732040510486
 21
4509.580156570983
 31
0.0
 11
-54.58029224205931
 21
4509.401279219449
 31
0.0
 11
-54.46722356947232
 21
4509.27448937466
 31
0.0
 11
-54.31394411261713
 21
4509.107403943798
 31
0.0
 11
-54.20227169933101
 21
4508.987391127162
 31
0.0
 11
-54.12660723754246
 21
4508.907420151706
 31
0.0
 11
-54.07499377617618
 21
4508.854691725177
 31
0.0
 11
-53.99679098887982
 21
4508.776187149802
 31
0.0
 11
-53.92180750136459
 21
4508.701810801011
 31
0.0
 11
-53.86758211232211
 21
4508.649211280983
 31
0.0
 11
-53.82010357351989
 21
4508.60510326004
 31
0.0
 11
-53.75286657956582
 21
4508.544315788397
 31
0.0
 11
-53.69077557576355
 21
4508.48927548172
 31
0.0
 11
-53.64565283807954
 21
4508.450682062433
 31
0.0
 11
-53.60800232705378
 21
4508.420879490348
 31
0.0
 11
-53.55427764848827
 21
4508.380565295641
 31
0.0
 11
-53.50745157812314
 21
4508.346812005782
 31
0.0
 11
-53.47489412656901
 21
4508.325179877946
 31
0.0
 11
-53.44241508764767
 21
4508.30812116525
 31
0.0
 11
-53.39137670441128
 21
4508.285364018302
 31
0.0
 11
-53.3449088482196
 21
4508.269802273737
 31
0.0
 11
-53.31728475450346
 21
4508.270569928088
 31
0.0
 11
-53.30160514012325
 21
4508.297198231253
 31
0.0
 11
-53.29637860436143
 21
4508.35656462832
 31
0.0
  0
SPLINE
  5
137
330
A
100
AcDbEntity
  8
0
  6
Continuous
 62
     3
100
AcDbSpline
210
0.0
220
0.0
230
1.0
 70
     8
 71
     3
 72
    99
 73
    95
 74
    93
 42
0.0000000001
 43
0.0000000001
 44
0.00000000001
 40
0.0
 40
0.0
 40
0.0
 40
0.0
 40
0.0596167644696644
 40
0.0905448178071493
 40
0.1183478018771089
 40
0.1677488019543142
 40
0.2243875362381566
 40
0.2616983771805522
 40
0.3010783991572567
 40
0.3589547637911004
 40
0.4243911221058951
 40
0.46764598314607
 40
0.538708617355568
 40
0.6440090040081131
 40
0.8019684446874354
 40
0.9223962995719389
 40
1.109633443385767
 40
1.360595207815231
 40
1.632334621793022
 40
1.827370340722359
 40
2.054707696668655
 40
2.372137594848596
 40
2.707079930652502
 40
2.946237516061675
 40
3.206509588361067
 40
3.570224726188644
 40
3.955665432594791
 40
4.244767472233637
 40
4.501418717326444
 40
4.844651746352226
 40
5.113710790685662
 40
5.292875869935082
 40
5.430431332966091
 40
5.636489283594065
 40
5.850617825088498
 40
6.004316752962148
 40
6.161379313970263
 40
6.380325363906831
 40
6.599577250531824
 40
6.756074699118735
 40
6.914375756001941
 40
7.136019250905647
 40
7.360994044994774
 40
7.522940554147392
 40
7.685326461228465
 40
7.910880067330432
 40
8.1339542856035
 40
8.293283109308852
 40
8.45240685511086
 40
8.675404251528776
 40
8.89927045631834
 40
9.059997445800927
 40
9.217970286396637
 40
9.437773642927758
 40
9.65389101005354
 40
9.808314690913315
 40
9.960130149448303
 40
10.17272393924427
 40
10.38013721605803
 40
10.51916617218597
 40
10.70023593242695
 40
10.97130724352254
 40
11.31181113678471
 40
11.56447773950127
 40
11.84908019909847
 40
12.23117085044285
 40
12.59743520276934
 40
12.86091534683311
 40
13.10067217391354
 40
13.43370913473695
 40
13.7495244758958
 40
13.98409779889495
 40
14.15398066872556
 40
14.38072310652784
 40
14.54465542197049
 40
14.65474841762764
 40
14.72853348629635
 40
14.83934253058274
 40
14.9449567562315
 40
15.02050212223205
 40
15.08530743959335
 40
15.17594920736384
 40
15.25892346911048
 40
15.31829950357145
 40
15.36631777388071
 40
15.43348603559494
 40
15.49120921501488
 40
15.53029804470222
 40
15.56698438613962
 40
15.62286644319429
 40
15.67187082619128
 40
15.6995055841392
 40
15.73040731283712
 40
15.79000333432226
 40
15.79000333432226
 40
15.79000333432226
 40
15.79000333432226
 10
-206.9337171551849
 20
4521.307861631374
 30
0.0
 10
-206.9335383645756
 20
4521.327111677638
 30
0.0
 10
-206.9332668207692
 20
4521.356348284945
 30
0.0
 10
-206.9502304111487
 20
4521.399503151751
 30
0.0
 10
-206.9914222036792
 20
4521.394448344927
 30
0.0
 10
-207.030982717738
 20
4521.378480204336
 30
0.0
 10
-207.0752619154427
 20
4521.358878280291
 30
0.0
 10
-207.1148218724319
 20
4521.338697229082
 30
0.0
 10
-207.1516829729751
 20
4521.312951359855
 30
0.0
 10
-207.1955633409388
 20
4521.2811504403
 30
0.0
 10
-207.2400371577443
 20
4521.2478885978
 30
0.0
 10
-207.2872421314067
 20
4521.210966606179
 30
0.0
 10
-207.3422885909724
 20
4521.16266495679
 30
0.0
 10
-207.4256072772196
 20
4521.088677132184
 30
0.0
 10
-207.5202934331904
 20
4521.002681977417
 30
0.0
 10
-207.6325130312524
 20
4520.89542259926
 30
0.0
 10
-207.7614287893725
 20
4520.760996717624
 30
0.0
 10
-207.9230286453411
 20
4520.588129980661
 30
0.0
 10
-208.0848046829422
 20
4520.411869407109
 30
0.0
 10
-208.2395444118884
 20
4520.239827538514
 30
0.0
 10
-208.3980925860753
 20
4520.050906786596
 30
0.0
 10
-208.5834915313536
 20
4519.823718311643
 30
0.0
 10
-208.7696300092527
 20
4519.592066030901
 30
0.0
 10
-208.941902025964
 20
4519.373671927052
 30
0.0
 10
-209.1109150421927
 20
4519.140765028546
 30
0.0
 10
-209.3033297881265
 20
4518.86472552554
 30
0.0
 10
-209.4981213359332
 20
4518.578684801562
 30
0.0
 10
-209.6698736024646
 20
4518.320032422955
 30
0.0
 10
-209.8199418511606
 20
4518.064380688254
 30
0.0
 10
-209.9574026167441
 20
4517.809391969143
 30
0.0
 10
-210.0798354413015
 20
4517.57572710519
 30
0.0
 10
-210.1693246176074
 20
4517.40212463728
 30
0.0
 10
-210.2412703684375
 20
4517.243368425124
 30
0.0
 10
-210.3147942161666
 20
4517.072609549817
 30
0.0
 10
-210.3888457961813
 20
4516.896237889892
 30
0.0
 10
-210.4539723944125
 20
4516.733790507717
 30
0.0
 10
-210.5102057444629
 20
4516.566347989334
 30
0.0
 10
-210.568519952304
 20
4516.376685291323
 30
0.0
 10
-210.6242669795941
 20
4516.186467053375
 30
0.0
 10
-210.6707212392827
 20
4516.014529119767
 30
0.0
 10
-210.7048712617035
 20
4515.838906129171
 30
0.0
 10
-210.7374108561916
 20
4515.639907839873
 30
0.0
 10
-210.7669771755998
 20
4515.439229612235
 30
0.0
 10
-210.7885619856058
 20
4515.257284421166
 30
0.0
 10
-210.7953711463449
 20
4515.073991313528
 30
0.0
 10
-210.796478025717
 20
4514.870326591068
 30
0.0
 10
-210.7941739848584
 20
4514.667693242379
 30
0.0
 10
-210.7865436358758
 20
4514.487222940547
 30
0.0
 10
-210.7642625698372
 20
4514.308001944277
 30
0.0
 10
-210.7338869306832
 20
4514.108315936677
 30
0.0
 10
-210.7002932184364
 20
4513.908587886046
 30
0.0
 10
-210.6648387879498
 20
4513.731141345758
 30
0.0
 10
-210.6172613005493
 20
4513.55797280844
 30
0.0
 10
-210.5607700813156
 20
4513.368251925323
 30
0.0
 10
-210.5021455757333
 20
4513.180401885034
 30
0.0
 10
-210.4461176890965
 20
4513.015478808969
 30
0.0
 10
-210.381241963504
 20
4512.85510827434
 30
0.0
 10
-210.3069665162787
 20
4512.679577441748
 30
0.0
 10
-210.2328100283572
 20
4512.508621692992
 30
0.0
 10
-210.1597653426924
 20
4512.348632175824
 30
0.0
 10
-210.0690457767625
 20
4512.173643508702
 30
0.0
 10
-209.9458397927171
 20
4511.939936952892
 30
0.0
 10
-209.8085581869493
 20
4511.686635578432
 30
0.0
 10
-209.6599806715083
 20
4511.434446187558
 30
0.0
 10
-209.4899805692353
 20
4511.179367521211
 30
0.0
 10
-209.2958849694944
 20
4510.894991904172
 30
0.0
 10
-209.1027383985709
 20
4510.618483326867
 30
0.0
 10
-208.9321725191421
 20
4510.384085661674
 30
0.0
 10
-208.7593315921865
 20
4510.165334478494
 30
0.0
 10
-208.5736342262574
 20
4509.934576197105
 30
0.0
 10
-208.3871690279033
 20
4509.706657948839
 30
0.0
 10
-208.2325884895911
 20
4509.522911119019
 30
0.0
 10
-208.0921403950548
 20
4509.366228141987
 30
0.0
 10
-207.9656379715604
 20
4509.228708771794
 30
0.0
 10
-207.8519405108604
 20
4509.10649884807
 30
0.0
 10
-207.7725946601647
 20
4509.021957668804
 30
0.0
 10
-207.7037317268141
 20
4508.951903439182
 30
0.0
 10
-207.6354114098381
 20
4508.883418017052
 30
0.0
 10
-207.566373494197
 20
4508.814823276345
 30
0.0
 10
-207.5077442359421
 20
4508.757501181055
 30
0.0
 10
-207.4511868695125
 20
4508.705244804443
 30
0.0
 10
-207.3921868964561
 20
4508.651996403457
 30
0.0
 10
-207.3341151233107
 20
4508.600434505729
 30
0.0
 10
-207.2861974431128
 20
4508.558808263297
 30
0.0
 10
-207.2404120936738
 20
4508.522880787277
 30
0.0
 10
-207.1942483549927
 20
4508.488345553027
 30
0.0
 10
-207.1499670539455
 20
4508.456368407253
 30
0.0
 10
-207.1133550660405
 20
4508.430885617559
 30
0.0
 10
-207.0742216454565
 20
4508.41109062286
 30
0.0
 10
-207.0304497306207
 20
4508.391838447987
 30
0.0
 10
-206.9912211488829
 20
4508.376155236889
 30
0.0
 10
-206.950299202985
 20
4508.371117700135
 30
0.0
 10
-206.933244548251
 20
4508.414151261201
 30
0.0
 10
-206.9335295025416
 20
4508.4433805357
 30
0.0
 10
-206.9337171551849
 20
4508.46262906362
 30
0.0
 11
-206.9337171551849
 21
4521.307861631374
 31
0.0
 11
-206.9389249055109
 21
4521.3672505019
 31
0.0
 11
-206.9545481564889
 21
4521.39394242038
 31
0.0
 11
-206.9823399412596
 21
4521.394731484671
 31
0.0
 11
-207.0291498161244
 21
4521.378942424416
 31
0.0
 11
-207.0808161861783
 21
4521.355736122972
 31
0.0
 11
-207.113794340492
 21
4521.338285043065
 31
0.0
 11
-207.1465492606346
 21
4521.316424088435
 31
0.0
 11
-207.1934506564264
 21
4521.282513431467
 31
0.0
 11
-207.2457866035779
 21
4521.243234103248
 31
0.0
 11
-207.2797437769959
 21
4521.216440570875
 31
0.0
 11
-207.3336660715062
 21
4521.170155755487
 31
0.0
 11
-207.4123811143711
 21
4521.10021211063
 31
0.0
 11
-207.5290382605974
 21
4520.993711898732
 31
0.0
 11
-207.6159288835541
 21
4520.91032792021
 31
0.0
 11
-207.7464710862418
 21
4520.776102433282
 31
0.0
 11
-207.9180306950231
 21
4520.592938277835
 31
0.0
 11
-208.1017034416575
 21
4520.392671877127
 31
0.0
 11
-208.2315669949605
 21
4520.247157653829
 31
0.0
 11
-208.378446881132
 21
4520.073639434478
 31
0.0
 11
-208.5794973266809
 21
4519.827996485052
 31
0.0
 11
-208.7891758206574
 21
4519.566804414963
 31
0.0
 11
-208.9363219081626
 21
4519.378272243726
 31
0.0
 11
-209.0900960024828
 21
4519.168283959447
 31
0.0
 11
-209.2986580934952
 21
4518.870306517889
 31
0.0
 11
-209.5154974547679
 21
4518.55164489554
 31
0.0
 11
-209.6734645206861
 21
4518.309516013726
 31
0.0
 11
-209.8041605282794
 21
4518.088635015886
 31
0.0
 11
-209.9684629836467
 21
4517.787282041163
 31
0.0
 11
-210.093430727126
 21
4517.549005243242
 31
0.0
 11
-210.1741460691293
 21
4517.389051627504
 31
0.0
 11
-210.2315236688119
 21
4517.264034362839
 31
0.0
 11
-210.3134485241834
 21
4517.074962426558
 31
0.0
 11
-210.3960252246401
 21
4516.877396941656
 31
0.0
 11
-210.45219300634
 21
4516.734328633745
 31
0.0
 11
-210.5030985903233
 21
4516.585744416583
 31
0.0
 11
-210.5680279318655
 21
4516.376647421412
 31
0.0
 11
-210.6292853233887
 21
4516.166126824385
 31
0.0
 11
-210.6687496929789
 21
4516.014687018036
 31
0.0
 11
-210.7001879838376
 21
4515.859539157985
 31
0.0
 11
-210.7366588119669
 21
4515.640916840898
 31
0.0
 11
-210.7688242059606
 21
4515.41825331581
 31
0.0
 11
-210.7863685401413
 21
4515.257259936552
 31
0.0
 11
-210.793870392105
 21
4515.0950474061
 31
0.0
 11
-210.795847322942
 21
4514.869502463859
 31
0.0
 11
-210.7925919814586
 21
4514.646451999592
 31
0.0
 11
-210.7843836149469
 21
4514.487334757339
 31
0.0
 11
-210.766296302007
 21
4514.329242329978
 31
0.0
 11
-210.7333558002401
 21
4514.108691287921
 31
0.0
 11
-210.695491885375
 21
4513.888050399603
 31
0.0
 11
-210.6627940345663
 21
4513.73068453386
 31
0.0
 11
-210.622276975505
 21
4513.577996006817
 31
0.0
 11
-210.5599555872909
 21
4513.367212800385
 31
0.0
 11
-210.4950164121779
 21
4513.16108269606
 31
0.0
 11
-210.4444532734546
 21
4513.015171619673
 31
0.0
 11
-210.3885349838647
 21
4512.874029569455
 31
0.0
 11
-210.3059968064287
 21
4512.678112319767
 31
0.0
 11
-210.2230161485728
 21
4512.488021610313
 31
0.0
 11
-210.1646817278875
 21
4512.361822775115
 31
0.0
 11
-210.0827137087077
 21
4512.200368441307
 31
0.0
 11
-209.9562224760025
 21
4511.960619356329
 31
0.0
 11
-209.7925688025816
 21
4511.662022007878
 31
0.0
 11
-209.6635273456733
 21
4511.444792372405
 31
0.0
 11
-209.5076438155241
 21
4511.206677095623
 31
0.0
 11
-209.2923289130708
 21
4510.891030523289
 31
0.0
 11
-209.0819939038162
 21
4510.591182629071
 31
0.0
 11
-208.92606833321
 21
4510.378793828173
 31
0.0
 11
-208.7783803429833
 21
4510.189924577963
 31
0.0
 11
-208.5696771633549
 21
4509.930393076817
 31
0.0
 11
-208.3693790613095
 21
4509.686221006284
 31
0.0
 11
-208.2176307928827
 21
4509.507343654749
 31
0.0
 11
-208.1045621202957
 21
4509.380553809961
 31
0.0
 11
-207.9512826634406
 21
4509.213468379098
 31
0.0
 11
-207.8396102501545
 21
4509.09345556246
 31
0.0
 11
-207.763945788366
 21
4509.013484587007
 31
0.0
 11
-207.7123323269996
 21
4508.960756160478
 31
0.0
 11
-207.6341295397033
 21
4508.882251585103
 31
0.0
 11
-207.5591460521881
 21
4508.807875236312
 31
0.0
 11
-207.5049206631456
 21
4508.755275716283
 31
0.0
 11
-207.4574421243434
 21
4508.71116769534
 31
0.0
 11
-207.3902051303893
 21
4508.650380223698
 31
0.0
 11
-207.328114126587
 21
4508.59533991702
 31
0.0
 11
-207.282991388903
 21
4508.556746497734
 31
0.0
 11
-207.2453408778772
 21
4508.526943925647
 31
0.0
 11
-207.1916161993117
 21
4508.486629730941
 31
0.0
 11
-207.1447901289466
 21
4508.452876441079
 31
0.0
 11
-207.1122326773925
 21
4508.431244313245
 31
0.0
 11
-207.0797536384711
 21
4508.414185600551
 31
0.0
 11
-207.0287152552348
 21
4508.391428453601
 31
0.0
 11
-206.982247399043
 21
4508.375866709037
 31
0.0
 11
-206.9546233053269
 21
4508.376634363388
 31
0.0
 11
-206.9389436909466
 21
4508.403262666552
 31
0.0
 11
-206.9337171551849
 21
4508.46262906362
 31
0.0
  0
SPLINE
  5
136
330
A
100
AcDbEntity
  8
0
  6
Continuous
 62
     3
100
AcDbSpline
210
0.0
220
0.0
230
1.0
 70
     8
 71
     3
 72
    99
 73
    95
 74
    93
 42
0.0000000001
 43
0.0000000001
 44
0.00000000001
 40
0.0
 40
0.0
 40
0.0
 40
0.0
 40
0.0596167646781436
 40
0.0905448180832607
 40
0.1183478024423978
 40
0.1677488030164963
 40
0.2243875379016094
 40
0.2616983792369329
 40
0.3010784015908399
 40
0.3589547667741041
 40
0.4243911256896583
 40
0.467645987126989
 40
0.5387086219701031
 40
0.6440090095674326
 40
0.8019684516182799
 40
0.9223963075506862
 40
1.109633452826861
 40
1.360595219171402
 40
1.632334635245636
 40
1.827370355765974
 40
2.054707713391058
 40
2.37213761376899
 40
2.707079951673043
 40
2.946237538599271
 40
3.206509612582679
 40
3.570224752782237
 40
3.95566546170987
 40
4.244767503254299
 40
4.501418749884028
 40
4.844651780917493
 40
5.113710826758421
 40
5.292875907023199
 40
5.430431370897033
 40
5.63648932279482
 40
5.850617865684232
 40
6.004316794616657
 40
6.161379356501969
 40
6.380325407538367
 40
6.599577295121097
 40
6.756074744413616
 40
6.914375802195898
 40
7.136019298416866
 40
7.360994093766684
 40
7.522940603775133
 40
7.685326511361343
 40
7.910880118152849
 40
8.1339543370925
 40
8.293283161300596
 40
8.452406907854093
 40
8.675404305402851
 40
8.899270511018128
 40
9.059997500904806
 40
9.217970341527054
 40
9.437773698273401
 40
9.653891065790672
 40
9.808314746929193
 40
9.960130205840325
 40
10.17272399618052
 40
10.38013727344583
 40
10.51916622986391
 40
10.70023599011743
 40
10.97130730120179
 40
11.31181119441237
 40
11.56447779714138
 40
11.84908025677684
 40
12.23117090818945
 40
12.59743526017237
 40
12.86091540389467
 40
13.10067222990354
 40
13.43370918928432
 40
13.74952452874408
 40
13.98409785050974
 40
14.1539807189476
 40
14.38072315485748
 40
14.54465546836447
 40
14.65474846259134
 40
14.72853352984477
 40
14.83934257215081
 40
14.94495679578085
 40
15.02050216033576
 40
15.08530747610088
 40
15.17594924163156
 40
15.25892350102874
 40
15.31829953381773
 40
15.36631780229836
 40
15.4334860614807
 40
15.49120923810309
 40
15.53029806579664
 40
15.56698440436442
 40
15.62286645712579
 40
15.67187083555022
 40
15.69950558977209
 40
15.7304073200704
 40
15.79000334474905
 40
15.79000334474905
 40
15.79000334474905
 40
15.79000334474905
 10
-206.9337171551849
 20
4571.307861631374
 30
0.0
 10
-206.9335383645563
 20
4571.327111677715
 30
0.0
 10
-206.9332668207207
 20
4571.356348285126
 30
0.0
 10
-206.9502304113789
 20
4571.399503152064
 30
0.0
 10
-206.9914222042374
 20
4571.394448344911
 30
0.0
 10
-207.0309827186327
 20
4571.378480204056
 30
0.0
 10
-207.0752619167332
 20
4571.358878279633
 30
0.0
 10
-207.1148218740633
 20
4571.338697228093
 30
0.0
 10
-207.1516829749167
 20
4571.312951358544
 30
0.0
 10
-207.1955633432338
 20
4571.281150438609
 30
0.0
 10
-207.2400371603931
 20
4571.247888595722
 30
0.0
 10
-207.2872421344264
 20
4571.21096660369
 30
0.0
 10
-207.3422885944284
 20
4571.162664953803
 30
0.0
 10
-207.4256072813212
 20
4571.08867712844
 30
0.0
 10
-207.5202934380247
 20
4571.002681972813
 30
0.0
 10
-207.6325130369148
 20
4570.895422593651
 30
0.0
 10
-207.7614287959376
 20
4570.760996710835
 30
0.0
 10
-207.9230286529991
 20
4570.588129972397
 30
0.0
 10
-208.0848046917053
 20
4570.411869397324
 30
0.0
 10
-208.2395444216944
 20
4570.23982752726
 30
0.0
 10
-208.3980925968658
 20
4570.050906773788
 30
0.0
 10
-208.5834915431555
 20
4569.82371829709
 30
0.0
 10
-208.7696300220001
 20
4569.592066014619
 30
0.0
 10
-208.9419020395499
 20
4569.373671909183
 30
0.0
 10
-209.1109150565025
 20
4569.140765008904
 30
0.0
 10
-209.3033298031843
 20
4568.864725503745
 30
0.0
 10
-209.4981213517014
 20
4568.578684777512
 30
0.0
 10
-209.66987361879
 20
4568.320032396883
 30
0.0
 10
-209.819941867657
 20
4568.064380660173
 30
0.0
 10
-209.957402633131
 20
4567.809391939086
 30
0.0
 10
-210.0798354575118
 20
4567.575727073339
 30
0.0
 10
-210.1693246336616
 20
4567.402124604081
 30
0.0
 10
-210.2412703841686
 20
4567.243368390634
 30
0.0
 10
-210.3147942314831
 20
4567.072609513875
 30
0.0
 10
-210.3888458110454
 20
4566.896237852414
 30
0.0
 10
-210.4539724087659
 20
4566.733790468836
 30
0.0
 10
-210.5102057580227
 20
4566.566347949114
 30
0.0
 10
-210.5685199648099
 20
4566.376685249757
 30
0.0
 10
-210.6242669909713
 20
4566.186467010519
 30
0.0
 10
-210.6707212495635
 20
4566.014529075727
 30
0.0
 10
-210.7048712706327
 20
4565.83890608387
 30
0.0
 10
-210.7374108634852
 20
4565.639907793135
 30
0.0
 10
-210.7669771811846
 20
4565.439229564084
 30
0.0
 10
-210.7885619894973
 20
4565.257284371933
 30
0.0
 10
-210.7953711483272
 20
4565.073991263539
 30
0.0
 10
-210.7964780255634
 20
4564.870326540446
 30
0.0
 10
-210.7941739825587
 20
4564.667693191164
 30
0.0
 10
-210.7865436316221
 20
4564.48722288877
 30
0.0
 10
-210.7642625635799
 20
4564.308001891947
 30
0.0
 10
-210.7338869222
 20
4564.108315883774
 30
0.0
 10
-210.7002932077515
 20
4563.908587832715
 30
0.0
 10
-210.6648387753601
 20
4563.731141292383
 30
0.0
 10
-210.6172612862212
 20
4563.557972755321
 30
0.0
 10
-210.5607700651815
 20
4563.368251872524
 30
0.0
 10
-210.5021455578195
 20
4563.180401832478
 30
0.0
 10
-210.4461176696411
 20
4563.01547875657
 30
0.0
 10
-210.3812419426438
 20
4562.855108222083
 30
0.0
 10
-210.3069664939115
 20
4562.679577389627
 30
0.0
 10
-210.2328100045488
 20
4562.508621641032
 30
0.0
 10
-210.1597653176364
 20
4562.348632124158
 30
0.0
 10
-210.0690457505614
 20
4562.173643457523
 30
0.0
 10
-209.9458397650943
 20
4561.939936902479
 30
0.0
 10
-209.8085581578397
 20
4561.686635528848
 30
0.0
 10
-209.6599806410803
 20
4561.434446138751
 30
0.0
 10
-209.4899805376985
 20
4561.179367473104
 30
0.0
 10
-209.2958849368157
 20
4560.894991856936
 30
0.0
 10
-209.1027383649045
 20
4560.618483280572
 30
0.0
 10
-208.9321724849403
 20
4560.384085616493
 30
0.0
 10
-208.7593315578445
 20
4560.165334434642
 30
0.0
 10
-208.5736341920358
 20
4559.934576154955
 30
0.0
 10
-208.3871689938607
 20
4559.706657908429
 30
0.0
 10
-208.2325884558981
 20
4559.5229110802
 30
0.0
 10
-208.0921403618474
 20
4559.366228104755
 30
0.0
 10
-207.965637939023
 20
4559.228708736307
 30
0.0
 10
-207.8519404790544
 20
4559.1064988143
 30
0.0
 10
-207.7725946291243
 20
4559.021957636502
 30
0.0
 10
-207.7037316965831
 20
4558.951903408336
 30
0.0
 10
-207.6354113805527
 20
4558.883417987813
 30
0.0
 10
-207.5663734658562
 20
4558.814823248732
 30
0.0
 10
-207.5077442085052
 20
4558.757501154927
 30
0.0
 10
-207.4511868430157
 20
4558.705244779893
 30
0.0
 10
-207.3921868710912
 20
4558.651996380731
 30
0.0
 10
-207.3341150990871
 20
4558.600434484858
 30
0.0
 10
-207.2861974200002
 20
4558.558808244119
 30
0.0
 10
-207.240412071673
 20
4558.522880769938
 30
0.0
 10
-207.1942483343698
 20
4558.488345537824
 30
0.0
 10
-207.1499670347472
 20
4558.456368394252
 30
0.0
 10
-207.1133550484513
 20
4558.430885606706
 30
0.0
 10
-207.074221629818
 20
4558.411090614794
 30
0.0
 10
-207.0304497176705
 20
4558.39183844396
 30
0.0
 10
-206.9912211389434
 20
4558.376155235183
 30
0.0
 10
-206.9502991950409
 20
4558.371117703992
 30
0.0
 10
-206.9332445471027
 20
4558.414151268919
 30
0.0
 10
-206.9335295020856
 20
4558.443380544409
 30
0.0
 10
-206.9337171551849
 20
4558.462629072994
 30
0.0
 11
-206.9337171551849
 21
4571.307861631374
 31
0.0
 11
-206.9389249055535
 21
4571.367250502105
 31
0.0
 11
-206.9545481566592
 21
4571.393942420589
 31
0.0
 11
-206.9823399417233
 21
4571.394731484735
 31
0.0
 11
-207.0291498169975
 21
4571.378942424138
 31
0.0
 11
-207.0808161875184
 21
4571.355736122266
 31
0.0
 11
-207.1137943421265
 21
4571.338285042076
 31
0.0
 11
-207.1465492625357
 21
4571.316424087166
 31
0.0
 11
-207.1934506587095
 21
4571.282513429789
 31
0.0
 11
-207.2457866062729
 21
4571.243234101119
 31
0.0
 11
-207.2797437799615
 21
4571.216440568447
 31
0.0
 11
-207.3336660748931
 21
4571.170155752576
 31
0.0
 11
-207.4123811183801
 21
4571.100212106997
 31
0.0
 11
-207.5290382654996
 21
4570.993711894044
 31
0.0
 11
-207.6159288891284
 21
4570.910327914709
 31
0.0
 11
-207.7464710927138
 21
4570.776102426614
 31
0.0
 11
-207.9180307026418
 21
4570.592938269617
 31
0.0
 11
-208.1017034505145
 21
4570.3926718672
 31
0.0
 11
-208.2315670047446
 21
4570.247157642597
 31
0.0
 11
-208.3784468918286
 21
4570.07363942182
 31
0.0
 11
-208.5794973385032
 21
4569.827996470473
 31
0.0
 11
-208.7891758334939
 21
4569.566804398505
 31
0.0
 11
-208.9363219216993
 21
4569.378272225892
 31
0.0
 11
-209.0900960166901
 21
4569.168283940015
 31
0.0
 11
-209.2986581085242
 21
4568.870306496137
 31
0.0
 11
-209.5154974705861
 21
4568.551644871276
 31
0.0
 11
-209.6734645370043
 21
4568.309515987513
 31
0.0
 11
-209.8041605447398
 21
4568.088634987971
 31
0.0
 11
-209.9684630000191
 21
4567.787282010914
 31
0.0
 11
-210.0934307433052
 21
4567.549005211189
 31
0.0
 11
-210.1741460851238
 21
4567.38905159422
 31
0.0
 11
-210.2315236845738
 21
4567.264034328521
 31
0.0
 11
-210.313448539489
 21
4567.074962390658
 31
0.0
 11
-210.3960252394287
 21
4566.877396904028
 31
0.0
 11
-210.4521930206853
 21
4566.734328594806
 31
0.0
 11
-210.5030986039771
 21
4566.58574437648
 31
0.0
 11
-210.5680279443748
 21
4566.376647379801
 31
0.0
 11
-210.6292853346218
 21
4566.166126781406
 31
0.0
 11
-210.6687497032095
 21
4566.014686974066
 31
0.0
 11
-210.7001879929085
 21
4565.859539112863
 31
0.0
 11
-210.7366588192625
 21
4565.640916794144
 31
0.0
 11
-210.7688242113392
 21
4565.418253267505
 31
0.0
 11
-210.7863685440141
 21
4565.257259887223
 31
0.0
 11
-210.7938703943061
 21
4565.095047356187
 31
0.0
 11
-210.7958473227758
 21
4564.869502413237
 31
0.0
 11
-210.7925919789249
 21
4564.646451948338
 31
0.0
 11
-210.784383610694
 21
4564.48733470567
 31
0.0
 11
-210.7662962959921
 21
4564.329242277754
 31
0.0
 11
-210.7333557917458
 21
4564.108691234923
 31
0.0
 11
-210.6954918744525
 21
4563.888050346184
 31
0.0
 11
-210.6627940219551
 21
4563.730684480381
 31
0.0
 11
-210.6222769613988
 21
4563.577995953706
 31
0.0
 11
-210.5599555711706
 21
4563.367212747645
 31
0.0
 11
-210.4950163940908
 21
4563.16108264353
 31
0.0
 11
-210.4444532540253
 21
4563.015171567312
 31
0.0
 11
-210.3885349631777
 21
4562.874029517188
 31
0.0
 11
-210.3059967840421
 21
4562.678112267625
 31
0.0
 11
-210.2230161245992
 21
4562.488021558372
 31
0.0
 11
-210.1646817028997
 21
4562.361822723324
 31
0.0
 11
-210.0827136826747
 21
4562.200368390032
 31
0.0
 11
-209.9562224485076
 21
4561.960619305838
 31
0.0
 11
-209.7925687733753
 21
4561.662021958382
 31
0.0
 11
-209.6635273153356
 21
4561.444792323569
 31
0.0
 11
-209.5076437841121
 21
4561.206677047444
 31
0.0
 11
-209.2923288803071
 21
4560.891030475949
 31
0.0
 11
-209.0819938700561
 21
4560.591182582849
 31
0.0
 11
-208.9260682988598
 21
4560.378793782808
 31
0.0
 11
-208.778380308649
 21
4560.189924533947
 31
0.0
 11
-208.5696771290685
 21
4559.930393034613
 31
0.0
 11
-208.3693790273073
 21
4559.686220966045
 31
0.0
 11
-208.2176307591052
 21
4559.507343615936
 31
0.0
 11
-208.1045620870197
 21
4559.380553772568
 31
0.0
 11
-207.9512826308355
 21
4559.213468343656
 31
0.0
 11
-207.8396102184135
 21
4559.093455528859
 31
0.0
 11
-207.7639457572892
 21
4559.013484554746
 31
0.0
 11
-207.712332296676
 21
4558.960756129461
 31
0.0
 11
-207.6341295104017
 21
4558.882251555863
 31
0.0
 11
-207.5591460239464
 21
4558.80787520887
 31
0.0
 11
-207.5049206356519
 21
4558.755275690145
 31
0.0
 11
-207.4574420977263
 21
4558.711167670604
 31
0.0
 11
-207.3902051049803
 21
4558.650380200966
 31
0.0
 11
-207.3281141024884
 21
4558.595339896352
 31
0.0
 11
-207.2829913657117
 21
4558.556746478577
 31
0.0
 11
-207.2453408557394
 21
4558.526943908105
 31
0.0
 11
-207.191616178582
 21
4558.486629715742
 31
0.0
 11
-207.1447901098987
 21
4558.452876428331
 31
0.0
 11
-207.1122326595279
 21
4558.431244302319
 31
0.0
 11
-207.0797536225243
 21
4558.414185592144
 31
0.0
 11
-207.0287152421622
 21
4558.391428449291
 31
0.0
 11
-206.9822473894542
 21
4558.375866708724
 31
0.0
 11
-206.9546232995421
 21
4558.37663436583
 31
0.0
 11
-206.9389436878771
 21
4558.40326267245
 31
0.0
 11
-206.9337171551849
 21
4558.462629072994
 31
0.0
  0
SPLINE
  5
135
330
A
100
AcDbEntity
  8
0
  6
Continuous
 62
     3
100
AcDbSpline
210
0.0
220
0.0
230
1.0
 70
     8
 71
     3
 72
    11
 73
     7
 74
     5
 42
0.0000000001
 43
0.0000000001
 44
0.00000000001
 40
0.0
 40
0.0
 40
0.0
 40
0.0
 40
0.009171114421675
 40
0.0157279491838438
 40
0.0222420385911404
 40
0.0313418656418135
 40
0.0313418656418135
 40
0.0313418656418135
 40
0.0313418656418135
 10
-190.5121512228292
 20
4555.94894184341
 30
0.0
 10
-190.510484853
 20
4555.951504673639
 30
0.0
 10
-190.5076271217813
 20
4555.95589978439
 30
0.0
 10
-190.5034151696182
 20
4555.962005091802
 30
0.0
 10
-190.4988378222362
 20
4555.967811145231
 30
0.0
 10
-190.4955072479006
 20
4555.971810364865
 30
0.0
 10
-190.4935661813838
 20
4555.974141119427
 30
0.0
 11
-190.5121512228292
 21
4555.94894184341
 31
0.0
 11
-190.5071110888254
 21
4555.95660385287
 31
0.0
 11
-190.5033508640841
 21
4555.961975332368
 31
0.0
 11
-190.4993530566941
 21
4555.967118375909
 31
0.0
 11
-190.4935661813838
 21
4555.974141119427
 31
0.0
  0
SPLINE
  5
134
330
A
100
AcDbEntity
  8
0
  6
Continuous
 62
     3
100
AcDbSpline
210
0.0
220
0.0
230
1.0
 70
     8
 71
     3
 72
    19
 73
    15
 74
    13
 42
0.0000000001
 43
0.0000000001
 44
0.00000000001
 40
0.0
 40
0.0
 40
0.0
 40
0.0
 40
0.2061832300126865
 40
0.3605944533837908
 40
0.4952913413837039
 40
0.6765740030945447
 40
0.8219358282299021
 40
0.9195584947367079
 40
0.9988043396491976
 40
1.116737591835913
 40
1.241955121390813
 40
1.330979904059061
 40
1.433902339767129
 40
1.581997843928657
 40
1.581997843928657
 40
1.581997843928657
 40
1.581997843928657
 10
-190.3020550706028
 20
4555.813444217004
 30
0.0
 10
-190.3556679759486
 20
4555.856351446407
 30
0.0
 10
-190.4494317427511
 20
4555.931392025272
 30
0.0
 10
-190.5939816926458
 20
4556.015397255587
 30
0.0
 10
-190.7495008552674
 20
4556.046538699471
 30
0.0
 10
-190.903528391682
 20
4556.049646958473
 30
0.0
 10
-191.044648622158
 20
4556.044313162516
 30
0.0
 10
-191.1523082897845
 20
4556.035914917191
 30
0.0
 10
-191.2463577012095
 20
4556.00584238885
 30
0.0
 10
-191.3455221252405
 20
4555.964450257355
 30
0.0
 10
-191.4459470900154
 20
4555.917997265278
 30
0.0
 10
-191.5394835333698
 20
4555.867660019381
 30
0.0
 10
-191.6240636894485
 20
4555.790925052585
 30
0.0
 10
-191.6786703178426
 20
4555.727567221569
 30
0.0
 10
-191.7108871234094
 20
4555.690187383571
 30
0.0
 11
-190.3020550706028
 21
4555.813444217004
 31
0.0
 11
-190.4666454674966
 21
4555.937627652247
 31
0.0
 11
-190.6029325474206
 21
4556.010213172489
 31
0.0
 11
-190.7342855326945
 21
4556.040040088126
 31
0.0
 11
-190.9153957074983
 21
4556.047946289458
 31
0.0
 11
-191.060656955359
 21
4556.042539804774
 31
0.0
 11
-191.1576354755856
 21
4556.031343750533
 31
0.0
 11
-191.2336510406133
 21
4556.008948710694
 31
0.0
 11
-191.3429807044784
 21
4555.964730201329
 31
0.0
 11
-191.4563467133635
 21
4555.911555228482
 31
0.0
 11
-191.53347814568
 21
4555.8671012739
 31
0.0
 11
-191.6115112549102
 21
4555.799990457813
 31
0.0
 11
-191.7108871234094
 21
4555.690187383571
 31
0.0
  0
SPLINE
  5
133
330
A
100
AcDbEntity
  8
0
  6
Continuous
 62
     3
100
AcDbSpline
210
0.0
220
0.0
230
1.0
 70
    24
 71
     3
 72
    15
 73
    11
 74
     9
 42
0.0000000001
 43
0.0000000001
 44
0.00000000001
 40
0.0
 40
0.0
 40
0.0
 40
0.0
 40
0.2878762557724979
 40
0.5081069231270888
 40
0.822912951633125
 40
1.257686464743231
 40
1.738952661802273
 40
2.089320726442341
 40
2.473000746563358
 40
3.000000000384654
 40
3.000000000384654
 40
3.000000000384654
 40
3.000000000384654
 10
-191.7108871236172
 20
4555.690187383922
 30
0.0
 10
-191.7725682203952
 20
4555.616678715242
 30
0.0
 10
-191.8814364985895
 20
4555.486934553583
 30
0.0
 10
-192.0577559149768
 20
4555.276805255663
 30
0.0
 10
-192.265549910334
 20
4555.029166015174
 30
0.0
 10
-192.5292740404206
 20
4554.714871835694
 30
0.0
 10
-192.8006177825717
 20
4554.391496956154
 30
0.0
 10
-193.0610141033147
 20
4554.081168705407
 30
0.0
 10
-193.3312093048053
 20
4553.759162603333
 30
0.0
 10
-193.5263337560347
 20
4553.526622337577
 30
0.0
 10
-193.6392499529247
 20
4553.392054054271
 30
0.0
 11
-191.7108871236172
 21
4555.690187383922
 31
0.0
 11
-191.8959304139512
 21
4555.469661377882
 31
0.0
 11
-192.0374919582
 21
4555.300954898951
 31
0.0
 11
-192.2398453727781
 21
4555.059799490154
 31
0.0
 11
-192.5193124000256
 21
4554.72674365642
 31
0.0
 11
-192.8286643484552
 21
4554.358072360502
 31
0.0
 11
-193.0538765992356
 21
4554.089674851538
 31
0.0
 11
-193.3005013622543
 21
4553.795758904189
 31
0.0
 11
-193.6392499529247
 21
4553.392054054271
 31
0.0
  0
SPLINE
  5
132
330
A
100
AcDbEntity
  8
0
  6
DOTTED
 62
     1
100
AcDbSpline
 70
     0
 71
     3
 72
    21
 73
    17
 74
    15
 42
0.0000000001
 43
0.0000000001
 44
0.00000000001
 40
0.0
 40
0.0
 40
0.0
 40
0.0
 40
0.6092034191128875
 40
1.049368428490282
 40
1.467127468509284
 40
2.045296947035279
 40
2.592614497878008
 40
2.988114155121871
 40
3.319989761529118
 40
3.779253435214639
 40
4.181415982675024
 40
4.472028863827138
 40
4.661293840630093
 40
4.913291098076169
 40
5.133388710381361
 40
5.298695149999327
 40
5.298695149999327
 40
5.298695149999327
 40
5.298695149999327
 10
-217.8033809439139
 20
4517.746445200664
 30
0.0
 10
-217.8473328617092
 20
4517.54819091217
 30
0.0
 10
-217.9230411612017
 20
4517.206692843326
 30
0.0
 10
-218.0288893288434
 20
4516.729242613519
 30
0.0
 10
-218.1324985048272
 20
4516.26189182107
 30
0.0
 10
-218.2438383658681
 20
4515.759670162529
 30
0.0
 10
-218.353572289497
 20
4515.264692419494
 30
0.0
 10
-218.4455369634028
 20
4514.849866584541
 30
0.0
 10
-218.5311488548506
 20
4514.463696299133
 30
0.0
 10
-218.6172414502989
 20
4514.07535769592
 30
0.0
 10
-218.7003570829767
 20
4513.700447304007
 30
0.0
 10
-218.763993244383
 20
4513.413403128654
 30
0.0
 10
-218.8167955001276
 20
4513.175227544349
 30
0.0
 10
-218.8645103235007
 20
4512.959999885213
 30
0.0
 10
-218.9104966213853
 20
4512.752569100814
 30
0.0
 10
-218.9383021896576
 20
4512.627146288519
 30
0.0
 10
-218.9502284770687
 20
4512.573350282887
 30
0.0
 11
-217.8033809439139
 21
4517.746445200664
 31
0.0
 11
-217.9352366971982
 21
4517.151682335159
 31
0.0
 11
-218.0305058419181
 21
4516.721950994035
 31
0.0
 11
-218.1209254470832
 21
4516.314094511286
 31
0.0
 11
-218.2460642256364
 21
4515.749629957925
 31
0.0
 11
-218.3645254250249
 21
4515.215286018406
 31
0.0
 11
-218.4501272184131
 21
4514.82916128228
 31
0.0
 11
-218.5219582467317
 21
4514.505152452927
 31
0.0
 11
-218.621361098862
 21
4514.056775162071
 31
0.0
 11
-218.708405005178
 21
4513.664145472729
 31
0.0
 11
-218.7713051448148
 21
4513.380421277205
 31
0.0
 11
-218.8122695832829
 21
4513.195642636055
 31
0.0
 11
-218.8668117724703
 21
4512.949618719821
 31
0.0
 11
-218.9144496148604
 21
4512.734738299786
 31
0.0
 11
-218.9502284770687
 21
4512.573350282887
 31
0.0
  0
SPLINE
  5
131
330
A
100
AcDbEntity
  8
0
  6
DOTTED
 62
     1
100
AcDbSpline
210
0.0
220
0.0
230
1.0
 70
    24
 71
     3
 72
    29
 73
    25
 74
    23
 42
0.0000000001
 43
0.0000000001
 44
0.00000000001
 40
0.0
 40
0.0
 40
0.0
 40
0.0
 40
0.1209807088528724
 40
0.2820226905001287
 40
0.4219921083151086
 40
0.516910859956452
 40
0.6135078374918192
 40
0.7562141458832061
 40
0.9188063640096682
 40
1.035433264559485
 40
1.174589811297316
 40
1.368595766157142
 40
1.576690847072499
 40
1.726105321932588
 40
1.891993669378954
 40
2.123033742495202
 40
2.357906716906859
 40
2.514972100592811
 40
2.734726249021489
 40
3.062578831477749
 40
3.496073057250475
 40
3.824692333048972
 40
4.204222927551394
 40
4.700000000304497
 40
4.700000000304497
 40
4.700000000304497
 40
4.700000000304497
 10
-217.9790271065571
 20
4511.939246572401
 30
0.0
 10
-217.9531054730036
 20
4511.970138772315
 30
0.0
 10
-217.8926785759697
 20
4512.042152743946
 30
0.0
 10
-217.8022614764314
 20
4512.14990764715
 30
0.0
 10
-217.7174284779562
 20
4512.251007677857
 30
0.0
 10
-217.6464036295278
 20
4512.335651796131
 30
0.0
 10
-217.5747923679845
 20
4512.420994774347
 30
0.0
 10
-217.4886812178524
 20
4512.52361804688
 30
0.0
 10
-217.3982784056084
 20
4512.631355923152
 30
0.0
 10
-217.3086361743009
 20
4512.738187374359
 30
0.0
 10
-217.2122631560786
 20
4512.853040265059
 30
0.0
 10
-217.0962919335152
 20
4512.991249386183
 30
0.0
 10
-216.9781228212541
 20
4513.132077850257
 30
0.0
 10
-216.8659782588775
 20
4513.265726535355
 30
0.0
 10
-216.7489174442722
 20
4513.405234181715
 30
0.0
 10
-216.6135460747812
 20
4513.56656349764
 30
0.0
 10
-216.4800651358857
 20
4513.725639886112
 30
0.0
 10
-216.3490023478418
 20
4513.881834434619
 30
0.0
 10
-216.1980175131284
 20
4514.061771153815
 30
0.0
 10
-215.9878043335328
 20
4514.312293465811
 30
0.0
 10
-215.7542654356013
 20
4514.590614286429
 30
0.0
 10
-215.5096538757257
 20
4514.882130991701
 30
0.0
 10
-215.2516974350708
 20
4515.189551506584
 30
0.0
 10
-215.0641517940127
 20
4515.413059698092
 30
0.0
 10
-214.9579253408354
 20
4515.539655455294
 30
0.0
 11
-217.9790271065571
 21
4511.939246572401
 31
0.0
 11
-217.9012622058961
 21
4512.031923172143
 31
0.0
 11
-217.7977464154535
 21
4512.155288487292
 31
0.0
 11
-217.7077758079476
 21
4512.262511282016
 31
0.0
 11
-217.6467632104651
 21
4512.335223264259
 31
0.0
 11
-217.5846718701726
 21
4512.409220842122
 31
0.0
 11
-217.4929420233142
 21
4512.518540216663
 31
0.0
 11
-217.3884297600706
 21
4512.643093081853
 31
0.0
 11
-217.3134634334411
 21
4512.732434470938
 31
0.0
 11
-217.2240153293915
 21
4512.83903457029
 31
0.0
 11
-217.0993107054021
 21
4512.987651753942
 31
0.0
 11
-216.9655497657533
 21
4513.147061834319
 31
0.0
 11
-216.8695079926051
 21
4513.261519962506
 31
0.0
 11
-216.7628770182755
 21
4513.388597809245
 31
0.0
 11
-216.6143673219352
 21
4513.565584773394
 31
0.0
 11
-216.4633938841331
 21
4513.745507910281
 31
0.0
 11
-216.3624342015893
 21
4513.86582697466
 31
0.0
 11
-216.2211789578019
 21
4514.034168418915
 31
0.0
 11
-216.0104393799958
 21
4514.285318067869
 31
0.0
 11
-215.7317946627982
 21
4514.617393910646
 31
0.0
 11
-215.5205622640108
 21
4514.869130880774
 31
0.0
 11
-215.2766047003674
 21
4515.159868183686
 31
0.0
 11
-214.9579253408354
 21
4515.539655455294
 31
0.0
  0
SPLINE
  5
130
330
A
100
AcDbEntity
  8
0
  6
Continuous
 62
     3
100
AcDbSpline
210
0.0
220
0.0
230
1.0
 70
     8
 71
     3
 72
    15
 73
    11
 74
     9
 42
0.0000000001
 43
0.0000000001
 44
0.00000000001
 40
0.0
 40
0.0
 40
0.0
 40
0.0
 40
0.1644643262856972
 40
0.2817053636533206
 40
0.3991655120581232
 40
0.5637065844082605
 40
0.7300214376049662
 40
0.8493063913156813
 40
0.9702535350073498
 40
1.139049341830863
 40
1.139049341830863
 40
1.139049341830863
 40
1.139049341830863
 10
-193.639249952469
 20
4553.392054054214
 30
0.0
 10
-193.6742517652139
 20
4553.349867095316
 30
0.0
 10
-193.7342051825325
 20
4553.277606484967
 30
0.0
 10
-193.8150935573668
 20
4553.171794129433
 30
0.0
 10
-193.8853410409314
 20
4553.058617262003
 30
0.0
 10
-193.9595804369309
 20
4552.928930719938
 30
0.0
 10
-194.0315260839672
 20
4552.797264361576
 30
0.0
 10
-194.0923327217088
 20
4552.676015435928
 30
0.0
 10
-194.1412963655729
 20
4552.54861445865
 30
0.0
 10
-194.172087003789
 20
4552.457081097236
 30
0.0
 10
-194.1900247331145
 20
4552.40375642596
 30
0.0
 11
-193.639249952469
 21
4553.392054054214
 31
0.0
 11
-193.7432779916092
 21
4553.264670061134
 31
0.0
 11
-193.813485936988
 21
4553.170774878889
 31
0.0
 11
-193.8765503945825
 21
4553.071680173422
 31
0.0
 11
-193.9588148011551
 21
4552.929179886049
 31
0.0
 11
-194.0380490818603
 21
4552.782952121398
 31
0.0
 11
-194.0903154369677
 21
4552.67572745863
 31
0.0
 11
-194.1348900598027
 21
4552.563293857931
 31
0.0
 11
-194.1900247331145
 21
4552.40375642596
 31
0.0
  0
SPLINE
  5
12F
330
A
100
AcDbEntity
  8
0
  6
DOTTED
 62
     1
100
AcDbSpline
210
0.0
220
0.0
230
1.0
 70
     8
 71
     3
 72
    13
 73
     9
 74
     7
 42
0.0000000001
 43
0.0000000001
 44
0.00000000001
 40
0.0
 40
0.0
 40
0.0
 40
0.0
 40
0.0421907707071433
 40
0.0851068580154755
 40
0.1232111517447609
 40
0.1599611212175546
 40
0.1964128525443213
 40
0.2335412196416301
 40
0.2335412196416301
 40
0.2335412196416301
 40
0.2335412196416301
 10
-218.9569742355711
 20
4512.4936128263
 30
0.0
 10
-218.9544286924239
 20
4512.479764128766
 30
0.0
 10
-218.9492938447886
 20
4512.451828655794
 30
0.0
 10
-218.9435063938179
 20
4512.411396061842
 30
0.0
 10
-218.9320326566295
 20
4512.372711978961
 30
0.0
 10
-218.9043198042477
 20
4512.346409846132
 30
0.0
 10
-218.8736523892033
 20
4512.326399911617
 30
0.0
 10
-218.8537309649933
 20
4512.312048596054
 30
0.0
 10
-218.8436786551023
 20
4512.304806951588
 30
0.0
 11
-218.9569742355711
 21
4512.4936128263
 31
0.0
 11
-218.9496170869158
 21
4512.452068470527
 31
0.0
 11
-218.9421334588912
 21
4512.409809910904
 31
0.0
 11
-218.9289610352922
 21
4512.374054848925
 31
0.0
 11
-218.9037108421041
 21
4512.347353013778
 31
0.0
 11
-218.8739707738194
 21
4512.326275607506
 31
0.0
 11
-218.8436786551023
 21
4512.304806951588
 31
0.0
  0
SPLINE
  5
12E
330
A
100
AcDbEntity
  8
0
  6
Continuous
 62
     3
100
AcDbSpline
210
0.0
220
0.0
230
1.0
 70
     8
 71
     3
 72
    99
 73
    95
 74
    93
 42
0.0000000001
 43
0.0000000001
 44
0.00000000001
 40
0.0
 40
0.0
 40
0.0
 40
0.0
 40
0.0596167646781386
 40
0.0905448180832414
 40
0.1183478024424638
 40
0.1677488030165623
 40
0.2243875379016494
 40
0.2616983792369728
 40
0.3010784015908089
 40
0.3589547667741192
 40
0.4243911256896962
 40
0.4676459871270713
 40
0.5387086219701639
 40
0.6440090095674296
 40
0.8019684516189322
 40
0.9223963075506473
 40
1.109633452826901
 40
1.360595219171384
 40
1.632334635246308
 40
1.827370355766042
 40
2.054707713391127
 40
2.372137613769004
 40
2.707079951673058
 40
2.946237538598569
 40
3.206509612582778
 40
3.570224752782287
 40
3.955665461709889
 40
4.244767503255079
 40
4.501418749884012
 40
4.844651780917503
 40
5.113710826758445
 40
5.292875907022423
 40
5.430431370897887
 40
5.636489322794817
 40
5.850617865684229
 40
6.004316794616665
 40
6.161379356502829
 40
6.38032540753835
 40
6.599577295121104
 40
6.756074744410983
 40
6.914375802195956
 40
7.136019298416924
 40
7.360994093766742
 40
7.522940603775185
 40
7.685326511362302
 40
7.910880118152899
 40
8.133954337092548
 40
8.293283161300649
 40
8.45240690785414
 40
8.675404305402903
 40
8.899270511018194
 40
9.059997500904854
 40
9.21797034152536
 40
9.437773698273435
 40
9.653891065790714
 40
9.808314746930058
 40
9.960130205840334
 40
10.17272399618139
 40
10.38013727344592
 40
10.51916622986396
 40
10.70023599011746
 40
10.97130730120184
 40
11.31181119441158
 40
11.56447779714137
 40
11.84908025677688
 40
12.23117090818953
 40
12.59743526017242
 40
12.86091540389467
 40
13.10067222990353
 40
13.4337091892857
 40
13.74952452874411
 40
13.9840978505098
 40
14.15398071894767
 40
14.38072315485751
 40
14.54465546836587
 40
14.6547484625914
 40
14.72853352984485
 40
14.83934257215157
 40
14.94495679578095
 40
15.02050216033584
 40
15.085307476101
 40
15.17594924163164
 40
15.25892350102822
 40
15.31829953381717
 40
15.36631780229834
 40
15.43348606148067
 40
15.49120923810307
 40
15.53029806579662
 40
15.56698440436445
 40
15.62286645712579
 40
15.67187083555057
 40
15.69950558977246
 40
15.73040732007079
 40
15.79000334474943
 40
15.79000334474943
 40
15.79000334474943
 40
15.79000334474943
 10
-136.7900873465944
 20
4571.307861631374
 30
0.0
 10
-136.7899085559658
 20
4571.327111677715
 30
0.0
 10
-136.7896370121302
 20
4571.356348285126
 30
0.0
 10
-136.8066006027883
 20
4571.399503152064
 30
0.0
 10
-136.847792395647
 20
4571.394448344912
 30
0.0
 10
-136.8873529100422
 20
4571.378480204054
 30
0.0
 10
-136.9316321081426
 20
4571.358878279633
 30
0.0
 10
-136.9711920654728
 20
4571.338697228094
 30
0.0
 10
-137.0080531663262
 20
4571.312951358544
 30
0.0
 10
-137.0519335346432
 20
4571.281150438608
 30
0.0
 10
-137.0964073518025
 20
4571.247888595722
 30
0.0
 10
-137.143612325836
 20
4571.210966603689
 30
0.0
 10
-137.1986587858379
 20
4571.162664953804
 30
0.0
 10
-137.281977472731
 20
4571.08867712844
 30
0.0
 10
-137.3766636294336
 20
4571.002681972813
 30
0.0
 10
-137.4888832283246
 20
4570.89542259365
 30
0.0
 10
-137.617798987347
 20
4570.760996710835
 30
0.0
 10
-137.7793988444089
 20
4570.588129972397
 30
0.0
 10
-137.9411748831141
 20
4570.411869397324
 30
0.0
 10
-138.0959146131044
 20
4570.23982752726
 30
0.0
 10
-138.2544627882752
 20
4570.050906773787
 30
0.0
 10
-138.4398617345651
 20
4569.823718297091
 30
0.0
 10
-138.6260002134092
 20
4569.592066014619
 30
0.0
 10
-138.79827223096
 20
4569.373671909183
 30
0.0
 10
-138.9672852479117
 20
4569.140765008903
 30
0.0
 10
-139.1596999945938
 20
4568.864725503745
 30
0.0
 10
-139.3544915431112
 20
4568.578684777512
 30
0.0
 10
-139.5262438101989
 20
4568.320032396881
 30
0.0
 10
-139.6763120590667
 20
4568.064380660172
 30
0.0
 10
-139.8137728245408
 20
4567.809391939086
 30
0.0
 10
-139.9362056489207
 20
4567.575727073338
 30
0.0
 10
-140.0256948250721
 20
4567.402124604082
 30
0.0
 10
-140.0976405755773
 20
4567.243368390633
 30
0.0
 10
-140.1711644228929
 20
4567.072609513873
 30
0.0
 10
-140.2452160024548
 20
4566.896237852414
 30
0.0
 10
-140.3103426001757
 20
4566.733790468836
 30
0.0
 10
-140.3665759494318
 20
4566.566347949114
 30
0.0
 10
-140.4248901562196
 20
4566.376685249756
 30
0.0
 10
-140.4806371823801
 20
4566.18646701052
 30
0.0
 10
-140.5270914409738
 20
4566.014529075729
 30
0.0
 10
-140.5612414620419
 20
4565.838906083873
 30
0.0
 10
-140.5937810548949
 20
4565.639907793134
 30
0.0
 10
-140.6233473725943
 20
4565.439229564087
 30
0.0
 10
-140.6449321809069
 20
4565.257284371934
 30
0.0
 10
-140.6517413397367
 20
4565.073991263537
 30
0.0
 10
-140.6528482169729
 20
4564.870326540446
 30
0.0
 10
-140.6505441739683
 20
4564.667693191163
 30
0.0
 10
-140.6429138230315
 20
4564.487222888771
 30
0.0
 10
-140.6206327549895
 20
4564.308001891949
 30
0.0
 10
-140.5902571136094
 20
4564.108315883774
 30
0.0
 10
-140.5566633991607
 20
4563.908587832715
 30
0.0
 10
-140.52120896677
 20
4563.731141292382
 30
0.0
 10
-140.4736314776299
 20
4563.557972755321
 30
0.0
 10
-140.4171402565915
 20
4563.368251872523
 30
0.0
 10
-140.3585157492287
 20
4563.180401832481
 30
0.0
 10
-140.3024878610511
 20
4563.015478756567
 30
0.0
 10
-140.2376121340528
 20
4562.855108222083
 30
0.0
 10
-140.1633366853216
 20
4562.679577389626
 30
0.0
 10
-140.089180195958
 20
4562.508621641032
 30
0.0
 10
-140.0161355090459
 20
4562.348632124156
 30
0.0
 10
-139.925415941971
 20
4562.173643457525
 30
0.0
 10
-139.8022099565041
 20
4561.939936902477
 30
0.0
 10
-139.6649283492487
 20
4561.686635528848
 30
0.0
 10
-139.5163508324902
 20
4561.434446138753
 30
0.0
 10
-139.3463507291079
 20
4561.179367473102
 30
0.0
 10
-139.1522551282252
 20
4560.894991856936
 30
0.0
 10
-138.959108556314
 20
4560.618483280572
 30
0.0
 10
-138.7885426763499
 20
4560.384085616494
 30
0.0
 10
-138.6157017492535
 20
4560.165334434642
 30
0.0
 10
-138.4300043834467
 20
4559.934576154955
 30
0.0
 10
-138.2435391852697
 20
4559.706657908428
 30
0.0
 10
-138.0889586473077
 20
4559.5229110802
 30
0.0
 10
-137.948510553257
 20
4559.366228104755
 30
0.0
 10
-137.8220081304316
 20
4559.228708736308
 30
0.0
 10
-137.7083106704652
 20
4559.106498814297
 30
0.0
 10
-137.6289648205333
 20
4559.0219576365
 30
0.0
 10
-137.5601018879923
 20
4558.951903408337
 30
0.0
 10
-137.4917815719628
 20
4558.883417987814
 30
0.0
 10
-137.4227436572652
 20
4558.814823248728
 30
0.0
 10
-137.3641143999148
 20
4558.757501154929
 30
0.0
 10
-137.307557034425
 20
4558.705244779889
 30
0.0
 10
-137.248557062501
 20
4558.651996380731
 30
0.0
 10
-137.1904852904963
 20
4558.600434484861
 30
0.0
 10
-137.1425676114095
 20
4558.558808244119
 30
0.0
 10
-137.0967822630829
 20
4558.522880769941
 30
0.0
 10
-137.0506185257793
 20
4558.488345537823
 30
0.0
 10
-137.0063372261568
 20
4558.456368394252
 30
0.0
 10
-136.9697252398608
 20
4558.430885606705
 30
0.0
 10
-136.9305918212276
 20
4558.411090614794
 30
0.0
 10
-136.8868199090798
 20
4558.39183844396
 30
0.0
 10
-136.847591330353
 20
4558.376155235182
 30
0.0
 10
-136.8066693864504
 20
4558.371117703992
 30
0.0
 10
-136.7896147385121
 20
4558.414151268916
 30
0.0
 10
-136.7898996934951
 20
4558.443380544409
 30
0.0
 10
-136.7900873465944
 20
4558.462629072994
 30
0.0
 11
-136.7900873465944
 21
4571.307861631374
 31
0.0
 11
-136.7952950969629
 21
4571.367250502105
 31
0.0
 11
-136.8109183480686
 21
4571.393942420589
 31
0.0
 11
-136.8387101331328
 21
4571.394731484735
 31
0.0
 11
-136.885520008407
 21
4571.378942424138
 31
0.0
 11
-136.9371863789279
 21
4571.355736122266
 31
0.0
 11
-136.970164533536
 21
4571.338285042076
 31
0.0
 11
-137.0029194539451
 21
4571.316424087166
 31
0.0
 11
-137.049820850119
 21
4571.282513429789
 31
0.0
 11
-137.1021567976824
 21
4571.243234101119
 31
0.0
 11
-137.1361139713711
 21
4571.216440568447
 31
0.0
 11
-137.1900362663026
 21
4571.170155752576
 31
0.0
 11
-137.2687513097895
 21
4571.100212106997
 31
0.0
 11
-137.3854084569091
 21
4570.993711894043
 31
0.0
 11
-137.4722990805378
 21
4570.910327914709
 31
0.0
 11
-137.6028412841233
 21
4570.776102426614
 31
0.0
 11
-137.7744008940513
 21
4570.592938269617
 31
0.0
 11
-137.9580736419239
 21
4570.392671867199
 31
0.0
 11
-138.0879371961542
 21
4570.247157642597
 31
0.0
 11
-138.2348170832382
 21
4570.07363942182
 31
0.0
 11
-138.4358675299127
 21
4569.827996470473
 31
0.0
 11
-138.6455460249033
 21
4569.566804398505
 31
0.0
 11
-138.7926921131088
 21
4569.378272225892
 31
0.0
 11
-138.9464662080997
 21
4569.168283940015
 31
0.0
 11
-139.1550282999338
 21
4568.870306496137
 31
0.0
 11
-139.3718676619956
 21
4568.551644871276
 31
0.0
 11
-139.5298347284138
 21
4568.309515987512
 31
0.0
 11
-139.6605307361493
 21
4568.088634987971
 31
0.0
 11
-139.8248331914286
 21
4567.787282010914
 31
0.0
 11
-139.9498009347148
 21
4567.549005211189
 31
0.0
 11
-140.0305162765334
 21
4567.389051594221
 31
0.0
 11
-140.0878938759834
 21
4567.26403432852
 31
0.0
 11
-140.1698187308985
 21
4567.074962390658
 31
0.0
 11
-140.2523954308381
 21
4566.877396904028
 31
0.0
 11
-140.3085632120948
 21
4566.734328594806
 31
0.0
 11
-140.3594687953865
 21
4566.585744376479
 31
0.0
 11
-140.4243981357842
 21
4566.376647379801
 31
0.0
 11
-140.4856555260313
 21
4566.166126781406
 31
0.0
 11
-140.525119894619
 21
4566.014686974069
 31
0.0
 11
-140.5565581843181
 21
4565.859539112863
 31
0.0
 11
-140.593029010672
 21
4565.640916794144
 31
0.0
 11
-140.6251944027488
 21
4565.418253267505
 31
0.0
 11
-140.6427387354236
 21
4565.257259887223
 31
0.0
 11
-140.6502405857156
 21
4565.095047356186
 31
0.0
 11
-140.6522175141853
 21
4564.869502413237
 31
0.0
 11
-140.6489621703344
 21
4564.646451948338
 31
0.0
 11
-140.6407538021035
 21
4564.48733470567
 31
0.0
 11
-140.6226664874016
 21
4564.329242277754
 31
0.0
 11
-140.5897259831552
 21
4564.108691234923
 31
0.0
 11
-140.5518620658619
 21
4563.888050346184
 31
0.0
 11
-140.5191642133646
 21
4563.730684480381
 31
0.0
 11
-140.4786471528082
 21
4563.577995953707
 31
0.0
 11
-140.4163257625801
 21
4563.367212747645
 31
0.0
 11
-140.3513865855002
 21
4563.16108264353
 31
0.0
 11
-140.3008234454349
 21
4563.01517156731
 31
0.0
 11
-140.2449051545873
 21
4562.874029517188
 31
0.0
 11
-140.1623669754516
 21
4562.678112267625
 31
0.0
 11
-140.0793863160086
 21
4562.488021558372
 31
0.0
 11
-140.0210518943092
 21
4562.361822723324
 31
0.0
 11
-139.9390838740842
 21
4562.200368390032
 31
0.0
 11
-139.8125926399171
 21
4561.960619305838
 31
0.0
 11
-139.6489389647848
 21
4561.662021958383
 31
0.0
 11
-139.5198975067452
 21
4561.444792323569
 31
0.0
 11
-139.3640139755216
 21
4561.206677047444
 31
0.0
 11
-139.1486990717165
 21
4560.891030475949
 31
0.0
 11
-138.9383640614655
 21
4560.591182582849
 31
0.0
 11
-138.7824384902694
 21
4560.378793782808
 31
0.0
 11
-138.6347505000586
 21
4560.189924533947
 31
0.0
 11
-138.4260473204782
 21
4559.930393034611
 31
0.0
 11
-138.2257492187169
 21
4559.686220966045
 31
0.0
 11
-138.0740009505147
 21
4559.507343615936
 31
0.0
 11
-137.9609322784292
 21
4559.380553772568
 31
0.0
 11
-137.807652822245
 21
4559.213468343656
 31
0.0
 11
-137.695980409823
 21
4559.093455528858
 31
0.0
 11
-137.6203159486988
 21
4559.013484554746
 31
0.0
 11
-137.5687024880855
 21
4558.960756129461
 31
0.0
 11
-137.4904997018111
 21
4558.882251555862
 31
0.0
 11
-137.4155162153558
 21
4558.80787520887
 31
0.0
 11
-137.3612908270614
 21
4558.755275690145
 31
0.0
 11
-137.3138122891358
 21
4558.711167670604
 31
0.0
 11
-137.2465752963897
 21
4558.650380200966
 31
0.0
 11
-137.1844842938978
 21
4558.595339896353
 31
0.0
 11
-137.1393615571212
 21
4558.556746478578
 31
0.0
 11
-137.101711047149
 21
4558.526943908105
 31
0.0
 11
-137.0479863699916
 21
4558.486629715742
 31
0.0
 11
-137.0011603013082
 21
4558.452876428331
 31
0.0
 11
-136.9686028509375
 21
4558.431244302319
 31
0.0
 11
-136.9361238139338
 21
4558.414185592144
 31
0.0
 11
-136.8850854335717
 21
4558.391428449291
 31
0.0
 11
-136.8386175808637
 21
4558.375866708723
 31
0.0
 11
-136.8109934909516
 21
4558.37663436583
 31
0.0
 11
-136.7953138792866
 21
4558.40326267245
 31
0.0
 11
-136.7900873465944
 21
4558.462629072994
 31
0.0
  0
SPLINE
  5
12D
330
A
100
AcDbEntity
  8
0
  6
Continuous
 62
     3
100
AcDbSpline
210
0.0
220
0.0
230
1.0
 70
     8
 71
     3
 72
    99
 73
    95
 74
    93
 42
0.0000000001
 43
0.0000000001
 44
0.00000000001
 40
0.0
 40
0.0
 40
0.0
 40
0.0
 40
0.0596167644696594
 40
0.0905448178071444
 40
0.1183478018771323
 40
0.1677488019542838
 40
0.2243875362381521
 40
0.2616983771805729
 40
0.3010783991567725
 40
0.3589547637906162
 40
0.4243911221059113
 40
0.4676459831460863
 40
0.538708617355649
 40
0.6440090040075687
 40
0.8019684446874832
 40
0.9223962995720071
 40
1.109633443385856
 40
1.360595207815319
 40
1.63233462179311
 40
1.827370340722467
 40
2.054707696668707
 40
2.372137594848666
 40
2.707079930652554
 40
2.946237516061745
 40
3.206509588361871
 40
3.570224726188703
 40
3.955665432594882
 40
4.244767472233728
 40
4.50141871732652
 40
4.844651746353045
 40
5.11371079068569
 40
5.292875869935896
 40
5.430431332966114
 40
5.636489283594099
 40
5.850617825088543
 40
6.004316752962203
 40
6.161379313969448
 40
6.380325363906852
 40
6.599577250532734
 40
6.756074699118778
 40
6.914375756002002
 40
7.136019250905712
 40
7.360994044995723
 40
7.52294055414744
 40
7.685326461229417
 40
7.910880067332294
 40
8.133954285601722
 40
8.293283109308893
 40
8.452406855110904
 40
8.675404251527917
 40
8.899270456318376
 40
9.059997445800956
 40
9.217970286396665
 40
9.437773642927762
 40
9.65389101005357
 40
9.808314690913325
 40
9.960130149448346
 40
10.17272393924347
 40
10.38013721605805
 40
10.51916617218765
 40
10.70023593242701
 40
10.9713072435226
 40
11.31181113678635
 40
11.56447773950137
 40
11.8490801990986
 40
12.23117085044298
 40
12.59743520277096
 40
12.86091534683325
 40
13.10067217391296
 40
13.43370913473846
 40
13.74952447589807
 40
13.98409779889438
 40
14.153980668727
 40
14.38072310652865
 40
14.54465542196997
 40
14.65474841762788
 40
14.72853348629651
 40
14.83934253058292
 40
14.94495675623172
 40
15.02050212223224
 40
15.08530743959353
 40
15.175949207364
 40
15.25892346911065
 40
15.31829950357165
 40
15.36631777388086
 40
15.4334860355951
 40
15.49120921501506
 40
15.53029804470237
 40
15.56698438614022
 40
15.62286644319421
 40
15.67187082619143
 40
15.69950558413927
 40
15.73040731283795
 40
15.7900033343231
 40
15.7900033343231
 40
15.7900033343231
 40
15.7900033343231
 10
-136.7900873465944
 20
4521.307861631374
 30
0.0
 10
-136.7899085559851
 20
4521.327111677639
 30
0.0
 10
-136.7896370121787
 20
4521.356348284948
 30
0.0
 10
-136.8066006025582
 20
4521.399503151749
 30
0.0
 10
-136.8477923950887
 20
4521.394448344929
 30
0.0
 10
-136.8873529091475
 20
4521.378480204336
 30
0.0
 10
-136.9316321068522
 20
4521.358878280291
 30
0.0
 10
-136.9711920638412
 20
4521.338697229081
 30
0.0
 10
-137.008053164385
 20
4521.312951359858
 30
0.0
 10
-137.0519335323486
 20
4521.2811504403
 30
0.0
 10
-137.0964073491535
 20
4521.247888597801
 30
0.0
 10
-137.1436123228161
 20
4521.210966606179
 30
0.0
 10
-137.1986587823817
 20
4521.16266495679
 30
0.0
 10
-137.2819774686298
 20
4521.088677132184
 30
0.0
 10
-137.3766636245996
 20
4521.002681977418
 30
0.0
 10
-137.488883222662
 20
4520.895422599261
 30
0.0
 10
-137.6177989807819
 20
4520.760996717623
 30
0.0
 10
-137.7793988367505
 20
4520.588129980662
 30
0.0
 10
-137.9411748743517
 20
4520.411869407109
 30
0.0
 10
-138.0959146032979
 20
4520.239827538514
 30
0.0
 10
-138.2544627774848
 20
4520.050906786595
 30
0.0
 10
-138.4398617227631
 20
4519.823718311643
 30
0.0
 10
-138.626000200662
 20
4519.592066030899
 30
0.0
 10
-138.7982722173738
 20
4519.373671927054
 30
0.0
 10
-138.9672852336015
 20
4519.140765028546
 30
0.0
 10
-139.1596999795364
 20
4518.864725525538
 30
0.0
 10
-139.3544915273428
 20
4518.578684801563
 30
0.0
 10
-139.526243793874
 20
4518.320032422954
 30
0.0
 10
-139.6763120425706
 20
4518.064380688254
 30
0.0
 10
-139.8137728081528
 20
4517.809391969143
 30
0.0
 10
-139.9362056327115
 20
4517.575727105191
 30
0.0
 10
-140.0256948090162
 20
4517.402124637279
 30
0.0
 10
-140.0976405598474
 20
4517.243368425124
 30
0.0
 10
-140.171164407576
 20
4517.072609549817
 30
0.0
 10
-140.2452159875908
 20
4516.89623788989
 30
0.0
 10
-140.310342585822
 20
4516.733790507717
 30
0.0
 10
-140.3665759358727
 20
4516.566347989335
 30
0.0
 10
-140.4248901437134
 20
4516.376685291321
 30
0.0
 10
-140.4806371710033
 20
4516.186467053375
 30
0.0
 10
-140.5270914306924
 20
4516.014529119765
 30
0.0
 10
-140.561241453113
 20
4515.83890612917
 30
0.0
 10
-140.5937810476014
 20
4515.639907839873
 30
0.0
 10
-140.6233473670092
 20
4515.439229612234
 30
0.0
 10
-140.6449321770155
 20
4515.257284421166
 30
0.0
 10
-140.6517413377543
 20
4515.073991313527
 30
0.0
 10
-140.6528482171265
 20
4514.870326591066
 30
0.0
 10
-140.6505441762679
 20
4514.667693242381
 30
0.0
 10
-140.6429138272853
 20
4514.487222940545
 30
0.0
 10
-140.6206327612468
 20
4514.308001944278
 30
0.0
 10
-140.5902571220925
 20
4514.108315936677
 30
0.0
 10
-140.5566634098461
 20
4513.908587886046
 30
0.0
 10
-140.5212089793592
 20
4513.731141345757
 30
0.0
 10
-140.4736314919589
 20
4513.557972808441
 30
0.0
 10
-140.4171402727254
 20
4513.368251925325
 30
0.0
 10
-140.3585157671427
 20
4513.180401885034
 30
0.0
 10
-140.302487880506
 20
4513.015478808968
 30
0.0
 10
-140.2376121549137
 20
4512.855108274343
 30
0.0
 10
-140.1633367076879
 20
4512.679577441746
 30
0.0
 10
-140.0891802197663
 20
4512.508621692992
 30
0.0
 10
-140.0161355341029
 20
4512.348632175823
 30
0.0
 10
-139.9254159681713
 20
4512.173643508704
 30
0.0
 10
-139.8022099841263
 20
4511.939936952891
 30
0.0
 10
-139.6649283783599
 20
4511.686635578431
 30
0.0
 10
-139.5163508629172
 20
4511.434446187557
 30
0.0
 10
-139.3463507606449
 20
4511.179367521211
 30
0.0
 10
-139.1522551609031
 20
4510.89499190417
 30
0.0
 10
-138.9591085899815
 20
4510.618483326867
 30
0.0
 10
-138.7885427105513
 20
4510.384085661672
 30
0.0
 10
-138.615701783595
 20
4510.165334478496
 30
0.0
 10
-138.4300044176671
 20
4509.934576197102
 30
0.0
 10
-138.2435392193147
 20
4509.706657948838
 30
0.0
 10
-138.0889586809984
 20
4509.522911119019
 30
0.0
 10
-137.9485105864658
 20
4509.366228141986
 30
0.0
 10
-137.8220081629704
 20
4509.22870877179
 30
0.0
 10
-137.7083107022691
 20
4509.106498848072
 30
0.0
 10
-137.6289648515744
 20
4509.021957668806
 30
0.0
 10
-137.5601019182235
 20
4508.95190343918
 30
0.0
 10
-137.4917816012476
 20
4508.883418017054
 30
0.0
 10
-137.4227436856064
 20
4508.814823276344
 30
0.0
 10
-137.3641144273515
 20
4508.757501181055
 30
0.0
 10
-137.307557060922
 20
4508.705244804442
 30
0.0
 10
-137.2485570878657
 20
4508.651996403457
 30
0.0
 10
-137.1904853147203
 20
4508.600434505729
 30
0.0
 10
-137.1425676345221
 20
4508.558808263297
 30
0.0
 10
-137.0967822850833
 20
4508.52288078728
 30
0.0
 10
-137.0506185464021
 20
4508.488345553025
 30
0.0
 10
-137.006337245355
 20
4508.456368407253
 30
0.0
 10
-136.9697252574497
 20
4508.430885617559
 30
0.0
 10
-136.9305918368666
 20
4508.411090622858
 30
0.0
 10
-136.8868199220294
 20
4508.39183844799
 30
0.0
 10
-136.8475913402926
 20
4508.376155236889
 30
0.0
 10
-136.8066693943942
 20
4508.371117700134
 30
0.0
 10
-136.7896147396608
 20
4508.414151261197
 30
0.0
 10
-136.7898996939513
 20
4508.443380535698
 30
0.0
 10
-136.7900873465944
 20
4508.46262906362
 30
0.0
 11
-136.7900873465944
 21
4521.307861631374
 31
0.0
 11
-136.7952950969203
 21
4521.3672505019
 31
0.0
 11
-136.8109183478984
 21
4521.39394242038
 31
0.0
 11
-136.8387101326691
 21
4521.394731484671
 31
0.0
 11
-136.8855200075339
 21
4521.378942424416
 31
0.0
 11
-136.9371863775877
 21
4521.355736122972
 31
0.0
 11
-136.9701645319015
 21
4521.338285043065
 31
0.0
 11
-137.0029194520441
 21
4521.316424088436
 31
0.0
 11
-137.0498208478359
 21
4521.282513431468
 31
0.0
 11
-137.1021567949873
 21
4521.243234103248
 31
0.0
 11
-137.1361139684054
 21
4521.216440570875
 31
0.0
 11
-137.1900362629158
 21
4521.170155755487
 31
0.0
 11
-137.2687513057806
 21
4521.10021211063
 31
0.0
 11
-137.3854084520069
 21
4520.993711898732
 31
0.0
 11
-137.4722990749636
 21
4520.91032792021
 31
0.0
 11
-137.6028412776514
 21
4520.776102433282
 31
0.0
 11
-137.7744008864326
 21
4520.592938277835
 31
0.0
 11
-137.958073633067
 21
4520.392671877127
 31
0.0
 11
-138.0879371863701
 21
4520.247157653829
 31
0.0
 11
-138.2348170725414
 21
4520.073639434478
 31
0.0
 11
-138.4358675180904
 21
4519.827996485052
 31
0.0
 11
-138.6455460120669
 21
4519.566804414963
 31
0.0
 11
-138.7926920995721
 21
4519.378272243726
 31
0.0
 11
-138.9464661938923
 21
4519.168283959446
 31
0.0
 11
-139.1550282849047
 21
4518.870306517889
 31
0.0
 11
-139.3718676461775
 21
4518.55164489554
 31
0.0
 11
-139.5298347120957
 21
4518.309516013726
 31
0.0
 11
-139.660530719689
 21
4518.088635015886
 31
0.0
 11
-139.8248331750561
 21
4517.787282041162
 31
0.0
 11
-139.9498009185354
 21
4517.549005243242
 31
0.0
 11
-140.0305162605387
 21
4517.389051627502
 31
0.0
 11
-140.0878938602214
 21
4517.264034362839
 31
0.0
 11
-140.1698187155929
 21
4517.074962426558
 31
0.0
 11
-140.2523954160496
 21
4516.877396941656
 31
0.0
 11
-140.3085631977496
 21
4516.734328633745
 31
0.0
 11
-140.3594687817328
 21
4516.585744416584
 31
0.0
 11
-140.424398123275
 21
4516.376647421412
 31
0.0
 11
-140.4856555147981
 21
4516.166126824384
 31
0.0
 11
-140.5251198843884
 21
4516.014687018036
 31
0.0
 11
-140.5565581752472
 21
4515.859539157985
 31
0.0
 11
-140.5930290033765
 21
4515.640916840898
 31
0.0
 11
-140.6251943973701
 21
4515.418253315809
 31
0.0
 11
-140.6427387315509
 21
4515.257259936552
 31
0.0
 11
-140.6502405835144
 21
4515.095047406099
 31
0.0
 11
-140.6522175143515
 21
4514.869502463858
 31
0.0
 11
-140.6489621728681
 21
4514.646451999595
 31
0.0
 11
-140.6407538063564
 21
4514.487334757339
 31
0.0
 11
-140.6226664934165
 21
4514.329242329978
 31
0.0
 11
-140.5897259916496
 21
4514.108691287922
 31
0.0
 11
-140.5518620767845
 21
4513.888050399603
 31
0.0
 11
-140.5191642259758
 21
4513.73068453386
 31
0.0
 11
-140.4786471669145
 21
4513.577996006817
 31
0.0
 11
-140.4163257787005
 21
4513.367212800385
 31
0.0
 11
-140.3513866035875
 21
4513.16108269606
 31
0.0
 11
-140.3008234648642
 21
4513.015171619673
 31
0.0
 11
-140.2449051752742
 21
4512.874029569455
 31
0.0
 11
-140.1623669978382
 21
4512.678112319767
 31
0.0
 11
-140.0793863399824
 21
4512.488021610313
 31
0.0
 11
-140.0210519192971
 21
4512.361822775114
 31
0.0
 11
-139.9390839001173
 21
4512.200368441307
 31
0.0
 11
-139.8125926674121
 21
4511.960619356329
 31
0.0
 11
-139.6489389939912
 21
4511.662022007875
 31
0.0
 11
-139.5198975370828
 21
4511.444792372405
 31
0.0
 11
-139.3640140069335
 21
4511.206677095623
 31
0.0
 11
-139.1486991044802
 21
4510.891030523289
 31
0.0
 11
-138.9383640952257
 21
4510.591182629069
 31
0.0
 11
-138.7824385246195
 21
4510.378793828173
 31
0.0
 11
-138.6347505343928
 21
4510.189924577964
 31
0.0
 11
-138.4260473547644
 21
4509.930393076816
 31
0.0
 11
-138.2257492527189
 21
4509.686221006282
 31
0.0
 11
-138.0740009842923
 21
4509.50734365475
 31
0.0
 11
-137.9609323117052
 21
4509.380553809959
 31
0.0
 11
-137.8076528548501
 21
4509.213468379097
 31
0.0
 11
-137.695980441564
 21
4509.093455562462
 31
0.0
 11
-137.6203159797754
 21
4509.013484587007
 31
0.0
 11
-137.5687025184091
 21
4508.960756160478
 31
0.0
 11
-137.4904997311128
 21
4508.882251585103
 31
0.0
 11
-137.4155162435975
 21
4508.807875236312
 31
0.0
 11
-137.3612908545551
 21
4508.755275716283
 31
0.0
 11
-137.3138123157529
 21
4508.71116769534
 31
0.0
 11
-137.2465753217988
 21
4508.650380223698
 31
0.0
 11
-137.1844843179965
 21
4508.59533991702
 31
0.0
 11
-137.1393615803125
 21
4508.556746497734
 31
0.0
 11
-137.1017110692867
 21
4508.526943925647
 31
0.0
 11
-137.0479863907212
 21
4508.486629730941
 31
0.0
 11
-137.0011603203561
 21
4508.452876441079
 31
0.0
 11
-136.968602868802
 21
4508.431244313245
 31
0.0
 11
-136.9361238298806
 21
4508.41418560055
 31
0.0
 11
-136.8850854466442
 21
4508.391428453601
 31
0.0
 11
-136.8386175904525
 21
4508.375866709037
 31
0.0
 11
-136.8109934967364
 21
4508.376634363386
 31
0.0
 11
-136.7953138823562
 21
4508.403262666552
 31
0.0
 11
-136.7900873465944
 21
4508.46262906362
 31
0.0
  0
SPLINE
  5
12C
330
A
100
AcDbEntity
  8
0
  6
Continuous
 62
     6
100
AcDbSpline
210
0.0
220
0.0
230
1.0
 70
     8
 71
     3
 72
    99
 73
    95
 74
    93
 42
0.0000000001
 43
0.0000000001
 44
0.00000000001
 40
0.0
 40
0.0
 40
0.0
 40
0.0
 40
0.4578308114956099
 40
0.7964891319742642
 40
1.07424045793645
 40
1.448477287943546
 40
1.738628145426644
 40
1.932909100597996
 40
2.077442928914332
 40
2.293337367365064
 40
2.506666847110545
 40
2.648960796779959
 40
2.83592835671169
 40
3.116353054648623
 40
3.478037456939559
 40
3.748435116332195
 40
4.064093858861115
 40
4.485574985476874
 40
4.89375746076457
 40
5.185566188112623
 40
5.473003412726139
 40
5.876006568772619
 40
6.274510332887304
 40
6.557920629028612
 40
6.83754968541175
 40
7.229945929136947
 40
7.631213091862043
 40
7.930687378855613
 40
8.18498418667189
 40
8.526315992147704
 40
8.791608353501462
 40
8.968324899193738
 40
9.103361842341628
 40
9.305887192151717
 40
9.516252967614022
 40
9.667148159106533
 40
9.821775239426408
 40
10.03747925824199
 40
10.25409338658508
 40
10.4086735700798
 40
10.56600932009894
 40
10.78635440761506
 40
11.01067365020785
 40
11.17219379541667
 40
11.33465594772532
 40
11.56025903374052
 40
11.78336849282453
 40
11.94276031572891
 40
12.10142362336031
 40
12.32371967648678
 40
12.54621066864316
 40
12.70590452378185
 40
12.86188862965727
 40
13.07897643517172
 40
13.29183976038952
 40
13.44383208563229
 40
13.59287499951915
 40
13.80172837027717
 40
14.00560781133903
 40
14.14210374428889
 40
14.32078212306162
 40
14.58819342302527
 40
14.92703464186672
 40
15.17754042439452
 40
15.47267725122057
 40
15.87079824549113
 40
16.26651693752666
 40
16.55018157501431
 40
16.83509880862083
 40
17.23240565248609
 40
17.63493262357429
 40
17.93399019131098
 40
18.1904002819534
 40
18.53681611801969
 40
18.80955610279315
 40
18.99150092269649
 40
19.12905896335202
 40
19.33471398656767
 40
19.54488229176426
 40
19.69499249156977
 40
19.84690739855115
 40
20.05968976431248
 40
20.27412133130781
 40
20.42719856014303
 40
20.58345473265241
 40
20.80255683233641
 40
21.01899621648493
 40
21.16339129898537
 40
21.35575922411395
 40
21.64361559395985
 40
22.01577800481469
 40
22.2919976263604
 40
22.63033614180299
 40
23.08805141371307
 40
23.08805141371307
 40
23.08805141371307
 40
23.08805141371307
 10
3.05925950208848
 20
4521.201790024332
 30
0.0
 10
2.908144375741559
 20
4521.223005544005
 30
0.0
 10
2.645249103535978
 20
4521.259914223856
 30
0.0
 10
2.288199799527364
 20
4521.292635049731
 30
0.0
 10
1.957685364832771
 20
4521.289244153116
 30
0.0
 10
1.644102085009591
 20
4521.271824948825
 30
0.0
 10
1.358654331024489
 20
4521.251099893911
 30
0.0
 10
1.149686762861363
 20
4521.233073125962
 30
0.0
 10
0.9667599517187676
 20
4521.205721066785
 30
0.0
 10
0.7781866415818927
 20
4521.173853508064
 30
0.0
 10
0.5906199078492228
 20
4521.14054871617
 30
0.0
 10
0.4131294023487178
 20
4521.105488651587
 30
0.0
 10
0.2164868036567326
 20
4521.05384629726
 30
0.0
 10
-0.0499080036521386
 20
4520.980397141566
 30
0.0
 10
-0.3417368452595961
 20
4520.894546721751
 30
0.0
 10
-0.6405863564859918
 20
4520.791185998875
 30
0.0
 10
-0.94610346000636
 20
4520.65086716568
 30
0.0
 10
-1.286730748479624
 20
4520.478475141099
 30
0.0
 10
-1.616215629679998
 20
4520.301932428629
 30
0.0
 10
-1.900545873985552
 20
4520.135387069629
 30
0.0
 10
-2.164287776391794
 20
4519.940764225919
 30
0.0
 10
-2.44813766421804
 20
4519.714557392973
 30
0.0
 10
-2.726081854166529
 20
4519.483233525975
 30
0.0
 10
-2.964813726922171
 20
4519.268818542871
 30
0.0
 10
-3.17789004920353
 20
4519.031634960064
 30
0.0
 10
-3.406850308066406
 20
4518.75675720026
 30
0.0
 10
-3.633396842090384
 20
4518.471384482069
 30
0.0
 10
-3.821921260361738
 20
4518.214416491344
 30
0.0
 10
-3.973265881093562
 20
4517.956919081754
 30
0.0
 10
-4.106314129466915
 20
4517.702618670098
 30
0.0
 10
-4.223220769552385
 20
4517.469168666064
 30
0.0
 10
-4.307225469437234
 20
4517.296034840674
 30
0.0
 10
-4.371701195328847
 20
4517.137129042716
 30
0.0
 10
-4.436828330214034
 20
4516.966498360996
 30
0.0
 10
-4.501985341369429
 20
4516.790231017512
 30
0.0
 10
-4.558247369703043
 20
4516.627668101036
 30
0.0
 10
-4.605073610512773
 20
4516.460286588894
 30
0.0
 10
-4.653377019801829
 20
4516.270696596357
 30
0.0
 10
-4.699281459173723
 20
4516.080531485632
 30
0.0
 10
-4.73697304299177
 20
4515.908364052994
 30
0.0
 10
-4.763907799063693
 20
4515.732926509644
 30
0.0
 10
-4.789685979664109
 20
4515.533926083715
 30
0.0
 10
-4.813007527498049
 20
4515.333218884912
 30
0.0
 10
-4.82988368234006
 20
4515.15115716447
 30
0.0
 10
-4.835072387589961
 20
4514.967958867607
 30
0.0
 10
-4.835956845463156
 20
4514.764238967201
 30
0.0
 10
-4.83414018273699
 20
4514.561550242148
 30
0.0
 10
-4.828315993797358
 20
4514.381180144975
 30
0.0
 10
-4.810882643567307
 20
4514.201833859462
 30
0.0
 10
-4.786898995705777
 20
4514.00212407267
 30
0.0
 10
-4.760259584549825
 20
4513.802401533019
 30
0.0
 10
-4.732247071835882
 20
4513.625138171621
 30
0.0
 10
-4.693577049104376
 20
4513.451741592229
 30
0.0
 10
-4.646970078893414
 20
4513.262077094351
 30
0.0
 10
-4.598312513071737
 20
4513.074300320525
 30
0.0
 10
-4.551569965692026
 20
4512.909434497347
 30
0.0
 10
-4.495400641443612
 20
4512.74895743203
 30
0.0
 10
-4.429905075340835
 20
4512.573531320581
 30
0.0
 10
-4.364073683202558
 20
4512.402705923747
 30
0.0
 10
-4.298440941993758
 20
4512.242552476134
 30
0.0
 10
-4.213045595745549
 20
4512.068041396913
 30
0.0
 10
-4.095037158729289
 20
4511.834551098842
 30
0.0
 10
-3.961776159814906
 20
4511.581935551116
 30
0.0
 10
-3.811580429896848
 20
4511.327872475098
 30
0.0
 10
-3.624436300923571
 20
4511.074556496114
 30
0.0
 10
-3.398064505397276
 20
4510.790826094911
 30
0.0
 10
-3.167542960686998
 20
4510.515413888784
 30
0.0
 10
-2.951633969972546
 20
4510.276802952186
 30
0.0
 10
-2.711318264383522
 20
4510.061998926464
 30
0.0
 10
-2.432929196101367
 20
4509.831289791069
 30
0.0
 10
-2.145597230017119
 20
4509.604122390376
 30
0.0
 10
-1.887729428183746
 20
4509.415204723388
 30
0.0
 10
-1.62881506153546
 20
4509.261865307679
 30
0.0
 10
-1.371203313109358
 20
4509.124656623199
 30
0.0
 10
-1.133498013009069
 20
4509.00303549452
 30
0.0
 10
-0.9565805545225142
 20
4508.915267508052
 30
0.0
 10
-0.7952837523400137
 20
4508.847113035296
 30
0.0
 10
-0.6240748442748141
 20
4508.778474299997
 30
0.0
 10
-0.4483230558155696
 20
4508.709939899677
 30
0.0
 10
-0.2880621305530846
 20
4508.650931002307
 30
0.0
 10
-0.1240435945082776
 20
4508.600311197766
 30
0.0
 10
0.0614818177747697
 20
4508.546973737757
 30
0.0
 10
0.2479483310292797
 20
4508.495552084281
 30
0.0
 10
0.4171344319095857
 20
4508.4522554497
 30
0.0
 10
0.5899528367218795
 20
4508.417906850857
 30
0.0
 10
0.7841751034979662
 20
4508.38340316501
 30
0.0
 10
0.9748203506640225
 20
4508.351439550908
 30
0.0
 10
1.157279683365867
 20
4508.324355815527
 30
0.0
 10
1.364824745279578
 20
4508.30670977648
 30
0.0
 10
1.648198699150149
 20
4508.286341789285
 30
0.0
 10
1.959827717218186
 20
4508.269225626795
 30
0.0
 10
2.289028209536205
 20
4508.265864038334
 30
0.0
 10
2.645431090894859
 20
4508.298452136155
 30
0.0
 10
2.908182484686932
 20
4508.33534486979
 30
0.0
 10
3.059259368642528
 20
4508.356557466068
 30
0.0
 11
3.05925950208848
 21
4521.201790024332
 31
0.0
 11
2.605307233722508
 21
4521.261257578512
 31
0.0
 11
2.267721223336634
 21
4521.288186069393
 31
0.0
 11
1.989970177298427
 21
4521.287791736495
 31
0.0
 11
1.616201438987956
 21
4521.269079836657
 31
0.0
 11
1.326817360974406
 21
4521.247999621041
 31
0.0
 11
1.133433875436721
 21
4521.229347085997
 31
0.0
 11
0.9903567453011039
 21
4521.208878515945
 31
0.0
 11
0.7773950126067526
 21
4521.173414323275
 31
0.0
 11
0.5674441529391992
 21
4521.135597614622
 31
0.0
 11
0.4280248758649704
 21
4521.107140044581
 31
0.0
 11
0.2467205418437272
 21
4521.06147159889
 31
0.0
 11
-0.0236137244191213
 21
4520.986923656616
 31
0.0
 11
-0.3700037227974581
 21
4520.882858408412
 31
0.0
 11
-0.6248050861558397
 21
4520.792353384044
 31
0.0
 11
-0.9132275231584696
 21
4520.664084371541
 31
0.0
 11
-1.28991275944697
 21
4520.474995575322
 31
0.0
 11
-1.649014266530279
 21
4520.280936201051
 31
0.0
 11
-1.898946558267101
 21
4520.130316869942
 31
0.0
 11
-2.132318873240344
 21
4519.962514841654
 31
0.0
 11
-2.448403528575236
 21
4519.712510772797
 31
0.0
 11
-2.753725625082062
 21
4519.456417689332
 31
0.0
 11
-2.962148294477935
 21
4519.264372416439
 31
0.0
 11
-3.151613861690989
 21
4519.058714428473
 31
0.0
 11
-3.403778200795132
 21
4518.758068526831
 31
0.0
 11
-3.652230797043421
 21
4518.442970695517
 31
0.0
 11
-3.826252916875487
 21
4518.199247183357
 31
0.0
 11
-3.956971464681713
 21
4517.98111986337
 31
0.0
 11
-4.117047363332462
 21
4517.679651609484
 31
0.0
 11
-4.2358565212908
 21
4517.442450384829
 31
0.0
 11
-4.311269005195817
 21
4517.282632692465
 31
0.0
 11
-4.362888407263447
 21
4517.15785123012
 31
0.0
 11
-4.435569550071045
 21
4516.96881692425
 31
0.0
 11
-4.508060697746636
 21
4516.771335803647
 31
0.0
 11
-4.556407985096601
 21
4516.628395611184
 31
0.0
 11
-4.599099592088012
 21
4516.479778786226
 31
0.0
 11
-4.652862907668469
 21
4516.270882329503
 31
0.0
 11
-4.703261084604224
 21
4516.060212672553
 31
0.0
 11
-4.735190028553409
 21
4515.908965934844
 31
0.0
 11
-4.760209089154905
 21
4515.753632149592
 31
0.0
 11
-4.789041031863314
 21
4515.535181522054
 31
0.0
 11
-4.814420203146994
 21
4515.312302585718
 31
0.0
 11
-4.828136453317628
 21
4515.151365884529
 31
0.0
 11
-4.833932561616013
 21
4514.989007158058
 31
0.0
 11
-4.835457448603544
 21
4514.763409225578
 31
0.0
 11
-4.832938023285289
 21
4514.540313992036
 31
0.0
 11
-4.826590712490597
 21
4514.381048600772
 31
0.0
 11
-4.812441264615587
 21
4514.223017469936
 31
0.0
 11
-4.786426160736883
 21
4514.002248926874
 31
0.0
 11
-4.756458306557538
 21
4513.781785394047
 31
0.0
 11
-4.730395289586417
 21
4513.624232715506
 31
0.0
 11
-4.697558297051123
 21
4513.471744115252
 31
0.0
 11
-4.646188011975028
 21
4513.260821833087
 31
0.0
 11
-4.592310846084458
 21
4513.054889693249
 31
0.0
 11
-4.549828026559736
 21
4512.908955197745
 31
0.0
 11
-4.501590471162725
 21
4512.767934176514
 31
0.0
 11
-4.428979079312217
 21
4512.572109468545
 31
0.0
 11
-4.355192782531664
 21
4512.382050506918
 31
0.0
 11
-4.302584644171506
 21
4512.256100026609
 31
0.0
 11
-4.225782779723695
 21
4512.094769816609
 31
0.0
 11
-4.105162934192211
 21
4511.856107594605
 31
0.0
 11
-3.945256226184996
 21
4511.557371563434
 31
0.0
 11
-3.81588344315276
 21
4511.342858556624
 31
0.0
 11
-3.643653883003985
 21
4511.10318643651
 31
0.0
 11
-3.396354266852171
 21
4510.79118767701
 31
0.0
 11
-3.141273932288066
 21
4510.488652875466
 31
0.0
 11
-2.948390511901047
 21
4510.280658614244
 31
0.0
 11
-2.73834869724265
 21
4510.088148183096
 31
0.0
 11
-2.433314518042688
 21
4509.833576233145
 31
0.0
 11
-2.116764306245954
 21
4509.584932057937
 31
0.0
 11
-1.873366578138218
 21
4509.411170799963
 31
0.0
 11
-1.653875222395202
 21
4509.278620132906
 31
0.0
 11
-1.349041576775719
 21
4509.114058958944
 31
0.0
 11
-1.106229576635551
 21
4508.989843694656
 31
0.0
 11
-0.9424492387714735
 21
4508.910597758364
 31
0.0
 11
-0.8160751413847187
 21
4508.856267269146
 31
0.0
 11
-0.6253526833685465
 21
4508.779332669763
 31
0.0
 11
-0.4293850740948775
 21
4508.703389186667
 31
0.0
 11
-0.2882007834320742
 21
4508.652398323214
 31
0.0
 11
-0.1433252748542452
 21
4508.606690271654
 31
0.0
 11
0.0610573642620543
 21
4508.547495069088
 31
0.0
 11
0.2678744845438562
 21
4508.490859605971
 31
0.0
 11
0.4164119983203415
 21
4508.453856295457
 31
0.0
 11
0.569474806510095
 21
4508.422427515711
 31
0.0
 11
0.7851089771911055
 21
4508.383599246104
 31
0.0
 11
0.9986452137275332
 21
4508.348268201731
 31
0.0
 11
1.141608821377888
 21
4508.327986516942
 31
0.0
 11
1.333109720578436
 21
4508.309743046229
 31
0.0
 11
1.620222144350853
 21
4508.289061030457
 31
0.0
 11
1.991928833858526
 21
4508.270649158512
 31
0.0
 11
2.268148197550112
 21
4508.270271734786
 31
0.0
 11
2.605419931191395
 21
4508.297118125948
 31
0.0
 11
3.059259368642528
 21
4508.356557466068
 31
0.0
  0
SPLINE
  5
12B
330
A
100
AcDbEntity
  8
0
  6
Continuous
 62
     6
100
AcDbSpline
210
0.0
220
0.0
230
1.0
 70
     8
 71
     3
 72
    99
 73
    95
 74
    93
 42
0.0000000001
 43
0.0000000001
 44
0.00000000001
 40
0.0
 40
0.0
 40
0.0
 40
0.0
 40
0.4578308114956197
 40
0.7964891319743615
 40
1.074240457936588
 40
1.448477287943511
 40
1.738628145426731
 40
1.932909100598163
 40
2.077442928914448
 40
2.293337367365168
 40
2.506666847110555
 40
2.64896079677998
 40
2.835928356711176
 40
3.116353054648716
 40
3.478037456939671
 40
3.748435116332388
 40
4.06409385886125
 40
4.485574985477002
 40
4.89375746076423
 40
5.185566188112732
 40
5.473003412726325
 40
5.876006568772825
 40
6.274510332887545
 40
6.557920629028894
 40
6.837549685411962
 40
7.229945929137185
 40
7.631213091862243
 40
7.930687378855868
 40
8.184984186672116
 40
8.526315992147928
 40
8.791608353501674
 40
8.968324899193888
 40
9.103361842341749
 40
9.305887192151917
 40
9.516252967615072
 40
9.667148159107593
 40
9.821775239426594
 40
10.03747925824217
 40
10.25409338658523
 40
10.40867357007997
 40
10.56600932009911
 40
10.78635440761432
 40
11.01067365020802
 40
11.17219379541684
 40
11.33465594772731
 40
11.5602590337407
 40
11.78336849282288
 40
11.94276031572908
 40
12.10142362336047
 40
12.32371967648695
 40
12.54621066864333
 40
12.70590452378024
 40
12.86188862965744
 40
13.07897643517186
 40
13.29183976038967
 40
13.44383208563245
 40
13.59287499951937
 40
13.80172837027737
 40
14.00560781134009
 40
14.14210374428904
 40
14.3207821230618
 40
14.58819342302541
 40
14.92703464186691
 40
15.17754042439471
 40
15.47267725122072
 40
15.87079824548991
 40
16.26651693752673
 40
16.55018157501436
 40
16.835098808621
 40
17.23240565248623
 40
17.63493262357437
 40
17.93399019131109
 40
18.19040028195354
 40
18.53681611801981
 40
18.80955610279318
 40
18.99150092269712
 40
19.1290589633526
 40
19.33471398656747
 40
19.54488229176407
 40
19.69499249156984
 40
19.84690739855065
 40
20.0596897643125
 40
20.27412133130783
 40
20.42719856014306
 40
20.58345473265227
 40
20.8025568323365
 40
21.01899621648516
 40
21.16339129898547
 40
21.35575922411411
 40
21.64361559396003
 40
22.01577800481498
 40
22.29199762636066
 40
22.63033614180335
 40
23.08805141371324
 40
23.08805141371324
 40
23.08805141371324
 40
23.08805141371324
 10
383.0592592351086
 20
4521.201790024332
 30
0.0
 10
383.2103743614555
 20
4521.223005544003
 30
0.0
 10
383.4732696336611
 20
4521.259914223854
 30
0.0
 10
383.8303189376698
 20
4521.292635049732
 30
0.0
 10
384.1608333723643
 20
4521.289244153114
 30
0.0
 10
384.4744166521879
 20
4521.271824948829
 30
0.0
 10
384.7598644061725
 20
4521.251099893908
 30
0.0
 10
384.9688319743358
 20
4521.233073125963
 30
0.0
 10
385.1517587854784
 20
4521.205721066785
 30
0.0
 10
385.3403320956151
 20
4521.173853508064
 30
0.0
 10
385.5278988293479
 20
4521.14054871617
 30
0.0
 10
385.705389334848
 20
4521.105488651588
 30
0.0
 10
385.902031933541
 20
4521.053846297262
 30
0.0
 10
386.1684267408488
 20
4520.980397141563
 30
0.0
 10
386.4602555824568
 20
4520.894546721752
 30
0.0
 10
386.7591050936832
 20
4520.791185998874
 30
0.0
 10
387.0646221972037
 20
4520.650867165681
 30
0.0
 10
387.4052494856764
 20
4520.478475141096
 30
0.0
 10
387.7347343668777
 20
4520.301932428631
 30
0.0
 10
388.0190646111824
 20
4520.135387069628
 30
0.0
 10
388.2828065135889
 20
4519.940764225919
 30
0.0
 10
388.5666564014152
 20
4519.714557392972
 30
0.0
 10
388.8446005913636
 20
4519.483233525976
 30
0.0
 10
389.0833324641194
 20
4519.268818542871
 30
0.0
 10
389.2964087864007
 20
4519.031634960064
 30
0.0
 10
389.5253690452637
 20
4518.75675720026
 30
0.0
 10
389.7519155792875
 20
4518.471384482069
 30
0.0
 10
389.9404399975591
 20
4518.214416491345
 30
0.0
 10
390.0917846182906
 20
4517.956919081753
 30
0.0
 10
390.2248328666642
 20
4517.702618670099
 30
0.0
 10
390.3417395067496
 20
4517.469168666063
 30
0.0
 10
390.4257442066343
 20
4517.296034840672
 30
0.0
 10
390.4902199325257
 20
4517.137129042718
 30
0.0
 10
390.5553470674114
 20
4516.966498360995
 30
0.0
 10
390.6205040785664
 20
4516.790231017512
 30
0.0
 10
390.6767661069001
 20
4516.627668101035
 30
0.0
 10
390.7235923477101
 20
4516.460286588891
 30
0.0
 10
390.7718957569991
 20
4516.270696596357
 30
0.0
 10
390.8178001963706
 20
4516.08053148563
 30
0.0
 10
390.8554917801889
 20
4515.908364052996
 30
0.0
 10
390.8824265362608
 20
4515.732926509645
 30
0.0
 10
390.9082047168613
 20
4515.533926083715
 30
0.0
 10
390.9315262646949
 20
4515.333218884912
 30
0.0
 10
390.9484024195375
 20
4515.15115716447
 30
0.0
 10
390.9535911247869
 20
4514.967958867607
 30
0.0
 10
390.9544755826606
 20
4514.764238967202
 30
0.0
 10
390.9526589199341
 20
4514.561550242147
 30
0.0
 10
390.9468347309945
 20
4514.381180144977
 30
0.0
 10
390.9294013807647
 20
4514.201833859462
 30
0.0
 10
390.9054177329029
 20
4514.00212407267
 30
0.0
 10
390.8787783217473
 20
4513.80240153302
 30
0.0
 10
390.8507658090325
 20
4513.625138171621
 30
0.0
 10
390.8120957863019
 20
4513.451741592231
 30
0.0
 10
390.7654888160905
 20
4513.26207709435
 30
0.0
 10
390.7168312502689
 20
4513.074300320524
 30
0.0
 10
390.6700887028891
 20
4512.909434497347
 30
0.0
 10
390.6139193786406
 20
4512.748957432031
 30
0.0
 10
390.5484238125376
 20
4512.573531320579
 30
0.0
 10
390.4825924203998
 20
4512.402705923747
 30
0.0
 10
390.4169596791908
 20
4512.242552476134
 30
0.0
 10
390.3315643329425
 20
4512.068041396913
 30
0.0
 10
390.2135558959266
 20
4511.83455109884
 30
0.0
 10
390.080294897012
 20
4511.581935551117
 30
0.0
 10
389.9300991670939
 20
4511.327872475097
 30
0.0
 10
389.7429550381213
 20
4511.074556496115
 30
0.0
 10
389.5165832425931
 20
4510.790826094915
 30
0.0
 10
389.2860616978848
 20
4510.515413888782
 30
0.0
 10
389.0701527071697
 20
4510.276802952186
 30
0.0
 10
388.8298370015805
 20
4510.061998926464
 30
0.0
 10
388.5514479332984
 20
4509.831289791069
 30
0.0
 10
388.2641159672143
 20
4509.604122390376
 30
0.0
 10
388.0062481653809
 20
4509.415204723388
 30
0.0
 10
387.7473337987326
 20
4509.26186530768
 30
0.0
 10
387.4897220503066
 20
4509.124656623196
 30
0.0
 10
387.2520167502059
 20
4509.003035494519
 30
0.0
 10
387.0750992917198
 20
4508.915267508052
 30
0.0
 10
386.9138024895373
 20
4508.847113035293
 30
0.0
 10
386.7425935814716
 20
4508.778474300001
 30
0.0
 10
386.5668417930124
 20
4508.709939899679
 30
0.0
 10
386.4065808677508
 20
4508.650931002307
 30
0.0
 10
386.2425623317047
 20
4508.60031119777
 30
0.0
 10
386.0570369194229
 20
4508.546973737757
 30
0.0
 10
385.8705704061679
 20
4508.495552084281
 30
0.0
 10
385.7013843052878
 20
4508.452255449702
 30
0.0
 10
385.5285659004751
 20
4508.417906850858
 30
0.0
 10
385.3343436336991
 20
4508.383403165009
 30
0.0
 10
385.1436983865333
 20
4508.351439550906
 30
0.0
 10
384.9612390538311
 20
4508.324355815528
 30
0.0
 10
384.7536939919176
 20
4508.306709776479
 30
0.0
 10
384.4703200380468
 20
4508.286341789285
 30
0.0
 10
384.1586910199787
 20
4508.269225626795
 30
0.0
 10
383.8294905276608
 20
4508.265864038334
 30
0.0
 10
383.4730876463021
 20
4508.298452136156
 30
0.0
 10
383.2103362525101
 20
4508.335344869792
 30
0.0
 10
383.0592593685545
 20
4508.356557466068
 30
0.0
 11
383.0592592351086
 21
4521.201790024332
 31
0.0
 11
383.5132115034746
 21
4521.261257578512
 31
0.0
 11
383.8507975138605
 21
4521.288186069393
 31
0.0
 11
384.1285485598988
 21
4521.287791736495
 31
0.0
 11
384.5023172982092
 21
4521.269079836659
 31
0.0
 11
384.7917013762227
 21
4521.247999621041
 31
0.0
 11
384.9850848617604
 21
4521.229347085997
 31
0.0
 11
385.128161991896
 21
4521.208878515945
 31
0.0
 11
385.3411237245904
 21
4521.173414323275
 31
0.0
 11
385.5510745842579
 21
4521.135597614622
 31
0.0
 11
385.6904938613321
 21
4521.107140044581
 31
0.0
 11
385.8717981953532
 21
4521.061471598891
 31
0.0
 11
386.1421324616162
 21
4520.986923656616
 31
0.0
 11
386.4885224599945
 21
4520.882858408412
 31
0.0
 11
386.743323823353
 21
4520.792353384044
 31
0.0
 11
387.0317462603556
 21
4520.664084371541
 31
0.0
 11
387.4084314966441
 21
4520.474995575322
 31
0.0
 11
387.7675330037273
 21
4520.280936201052
 31
0.0
 11
388.0174652954642
 21
4520.130316869942
 31
0.0
 11
388.2508376104375
 21
4519.962514841654
 31
0.0
 11
388.5669222657724
 21
4519.712510772797
 31
0.0
 11
388.8722443622793
 21
4519.456417689332
 31
0.0
 11
389.0806670316752
 21
4519.264372416439
 31
0.0
 11
389.2701325988881
 21
4519.058714428473
 31
0.0
 11
389.5222969379923
 21
4518.758068526831
 31
0.0
 11
389.7707495342406
 21
4518.442970695517
 31
0.0
 11
389.9447716540727
 21
4518.199247183357
 31
0.0
 11
390.0754902018789
 21
4517.98111986337
 31
0.0
 11
390.2355661005296
 21
4517.679651609484
 31
0.0
 11
390.354375258488
 21
4517.442450384829
 31
0.0
 11
390.4297877423928
 21
4517.282632692465
 31
0.0
 11
390.4814071444604
 21
4517.15785123012
 31
0.0
 11
390.5540882872682
 21
4516.96881692425
 31
0.0
 11
390.6265794349438
 21
4516.771335803646
 31
0.0
 11
390.6749267222938
 21
4516.628395611183
 31
0.0
 11
390.7176183292852
 21
4516.479778786226
 31
0.0
 11
390.7713816448656
 21
4516.270882329503
 31
0.0
 11
390.8217798218012
 21
4516.060212672553
 31
0.0
 11
390.8537087657505
 21
4515.908965934844
 31
0.0
 11
390.878727826352
 21
4515.753632149592
 31
0.0
 11
390.9075597690604
 21
4515.535181522055
 31
0.0
 11
390.9329389403441
 21
4515.312302585718
 31
0.0
 11
390.9466551905148
 21
4515.151365884529
 31
0.0
 11
390.9524512988132
 21
4514.989007158056
 31
0.0
 11
390.9539761858008
 21
4514.763409225578
 31
0.0
 11
390.9514567604824
 21
4514.540313992038
 31
0.0
 11
390.9451094496877
 21
4514.381048600772
 31
0.0
 11
390.9309600018128
 21
4514.223017469936
 31
0.0
 11
390.9049448979341
 21
4514.002248926874
 31
0.0
 11
390.8749770437547
 21
4513.781785394047
 31
0.0
 11
390.8489140267835
 21
4513.624232715508
 31
0.0
 11
390.8160770342482
 21
4513.471744115252
 31
0.0
 11
390.7647067491722
 21
4513.260821833087
 31
0.0
 11
390.7108295832816
 21
4513.054889693249
 31
0.0
 11
390.6683467637569
 21
4512.908955197745
 31
0.0
 11
390.6201092083597
 21
4512.767934176514
 31
0.0
 11
390.5474978165092
 21
4512.572109468545
 31
0.0
 11
390.4737115197286
 21
4512.382050506917
 31
0.0
 11
390.4211033813687
 21
4512.256100026609
 31
0.0
 11
390.3443015169208
 21
4512.094769816609
 31
0.0
 11
390.2236816713894
 21
4511.856107594605
 31
0.0
 11
390.0637749633821
 21
4511.557371563434
 31
0.0
 11
389.9344021803498
 21
4511.342858556624
 31
0.0
 11
389.7621726202011
 21
4511.10318643651
 31
0.0
 11
389.5148730040492
 21
4510.791187677011
 31
0.0
 11
389.2597926694853
 21
4510.488652875466
 31
0.0
 11
389.0669092490983
 21
4510.280658614244
 31
0.0
 11
388.8568674344397
 21
4510.088148183096
 31
0.0
 11
388.5518332552398
 21
4509.833576233145
 31
0.0
 11
388.2352830434431
 21
4509.584932057937
 31
0.0
 11
387.9918853153354
 21
4509.411170799963
 31
0.0
 11
387.7723939595923
 21
4509.278620132906
 31
0.0
 11
387.4675603139729
 21
4509.114058958944
 31
0.0
 11
387.2247483138328
 21
4508.989843694656
 31
0.0
 11
387.0609679759685
 21
4508.910597758363
 31
0.0
 11
386.9345938785818
 21
4508.856267269145
 31
0.0
 11
386.7438714205657
 21
4508.779332669765
 31
0.0
 11
386.5479038112921
 21
4508.703389186669
 31
0.0
 11
386.4067195206293
 21
4508.652398323214
 31
0.0
 11
386.2618440120515
 21
4508.606690271656
 31
0.0
 11
386.0574613729352
 21
4508.547495069088
 31
0.0
 11
385.8506442526533
 21
4508.490859605971
 31
0.0
 11
385.7021067388769
 21
4508.453856295457
 31
0.0
 11
385.5490439306871
 21
4508.422427515712
 31
0.0
 11
385.333409760006
 21
4508.383599246104
 31
0.0
 11
385.1198735234696
 21
4508.348268201731
 31
0.0
 11
384.9769099158192
 21
4508.327986516942
 31
0.0
 11
384.7854090166186
 21
4508.309743046229
 31
0.0
 11
384.4982965928462
 21
4508.289061030457
 31
0.0
 11
384.1265899033384
 21
4508.270649158512
 31
0.0
 11
383.8503705396469
 21
4508.270271734786
 31
0.0
 11
383.5130988060054
 21
4508.297118125948
 31
0.0
 11
383.0592593685545
 21
4508.356557466068
 31
0.0
  0
CIRCLE
  5
12A
330
A
100
AcDbEntity
  8
0
  6
Continuous
 62
     3
100
AcDbCircle
 10
384.059259368598
 20
4564.779180907072
 30
0.0
 40
2.25
  0
CIRCLE
  5
129
330
A
100
AcDbEntity
  8
0
  6
Continuous
 62
     1
100
AcDbCircle
 10
384.059259368598
 20
4564.779180907072
 30
0.0
 40
2.75
  0
CIRCLE
  5
128
330
A
100
AcDbEntity
  8
0
  6
Continuous
 62
     1
100
AcDbCircle
 10
384.059259368598
 20
4514.77918060907
 30
0.0
 40
2.75
  0
CIRCLE
  5
127
330
A
100
AcDbEntity
  8
0
  6
Continuous
 62
     3
100
AcDbCircle
 10
384.059259368598
 20
4514.77918060907
 30
0.0
 40
2.25
  0
CIRCLE
  5
126
330
A
100
AcDbEntity
  8
0
  6
Continuous
 62
     3
100
AcDbCircle
 10
2.059259368599
 20
4514.77918060907
 30
0.0
 40
2.25
  0
CIRCLE
  5
125
330
A
100
AcDbEntity
  8
0
  6
Continuous
 62
     1
100
AcDbCircle
 10
2.059259368599
 20
4514.77918060907
 30
0.0
 40
2.75
  0
CIRCLE
  5
124
330
A
100
AcDbEntity
  8
0
  6
Continuous
 62
     1
100
AcDbCircle
 10
2.059259368599
 20
4564.779180907072
 30
0.0
 40
2.75
  0
CIRCLE
  5
123
330
A
100
AcDbEntity
  8
0
  6
Continuous
 62
     3
100
AcDbCircle
 10
2.059259368599
 20
4564.779180907072
 30
0.0
 40
2.25
  0
CIRCLE
  5
122
330
A
100
AcDbEntity
  8
0
  6
DOTTED
 62
     1
100
AcDbCircle
 10
193.059259368599
 20
4554.779177629071
 30
0.0
 40
2.0
  0
CIRCLE
  5
121
330
A
100
AcDbEntity
  8
0
  6
DOTTED
 62
     1
100
AcDbCircle
 10
-211.833716723018
 20
4526.885989051878
 30
0.0
 40
1.55
  0
CIRCLE
  5
120
330
A
100
AcDbEntity
  8
0
  6
DOTTED
 62
     1
100
AcDbCircle
 10
-141.690086914428
 20
4516.885242064371
 30
0.0
 40
1.55
  0
CIRCLE
  5
11F
330
A
100
AcDbEntity
  8
1
  6
Continuous
 62
     3
100
AcDbCircle
 10
384.059259368598
 20
4564.779180907072
 30
0.0
 40
6.000003498382
  0
CIRCLE
  5
11E
330
A
100
AcDbEntity
  8
1
  6
Continuous
 62
     3
100
AcDbCircle
 10
384.059259368598
 20
4514.77917375507
 30
0.0
 40
6.000003498382
  0
CIRCLE
  5
11D
330
A
100
AcDbEntity
  8
1
  6
Continuous
 62
     3
100
AcDbCircle
 10
2.059259368599
 20
4564.779180907072
 30
0.0
 40
6.000003498382
  0
CIRCLE
  5
11C
330
A
100
AcDbEntity
  8
1
  6
Continuous
 62
     3
100
AcDbCircle
 10
2.059259368599
 20
4514.77917375507
 30
0.0
 40
6.000003498382
  0
ARC
  5
11B
330
A
100
AcDbEntity
  8
0
  6
Continuous
 62
     3
100
AcDbCircle
 10
336.041023353999
 20
4525.57374272667
 30
0.0
 40
0.9819427757219999
100
AcDbArc
 50
-178.892489834088
 51
-88.93548857997801
  0
ARC
  5
11A
330
A
100
AcDbEntity
  8
0
  6
Continuous
 62
     3
100
AcDbCircle
 10
352.0775257493991
 20
4525.573712584072
 30
0.0
 40
0.981912905785
100
AcDbArc
 50
-91.06538374655899
 51
-1.105784674334
  0
ARC
  5
119
330
A
100
AcDbEntity
  8
0
  6
Continuous
 62
     3
100
AcDbCircle
 10
390.9349952995981
 20
4505.07917733107
 30
0.0
 40
0.300000000634
100
AcDbArc
 50
-90.00000002214701
 51
-44.99999991716999
  0
ARC
  5
118
330
A
100
AcDbEntity
  8
0
  6
Continuous
 62
     3
100
AcDbCircle
 10
390.9349952995981
 20
4574.47917733107
 30
0.0
 40
0.300000000001
100
AcDbArc
 50
44.99999986513799
 51
89.99999998811201
  0
ARC
  5
117
330
A
100
AcDbEntity
  8
0
  6
Continuous
 62
     3
100
AcDbCircle
 10
392.759259368599
 20
4572.654913262071
 30
0.0
 40
0.3
100
AcDbArc
 50
0.0
 51
44.999999977339
  0
ARC
  5
116
330
A
100
AcDbEntity
  8
0
  6
Continuous
 62
     3
100
AcDbCircle
 10
392.759259368599
 20
4506.903441400071
 30
0.0
 40
0.3
100
AcDbArc
 50
-45.000000000491
 51
-0.000000023623
  0
ARC
  5
115
330
A
100
AcDbEntity
  8
0
  6
Continuous
 62
     3
100
AcDbCircle
 10
370.059259368598
 20
4516.079177331071
 30
0.0
 40
6.0
100
AcDbArc
 50
-90.00000002200001
 51
-0.000000010283
  0
ARC
  5
114
330
A
100
AcDbEntity
  8
0
  6
Continuous
 62
     3
100
AcDbCircle
 10
370.059259368598
 20
4557.77917733107
 30
0.0
 40
6.0
100
AcDbArc
 50
-0.000000011812
 51
90.000017074103
  0
ARC
  5
113
330
A
100
AcDbEntity
  8
0
  6
Continuous
 62
     3
100
AcDbCircle
 10
365.059259368598
 20
4516.079177331071
 30
0.0
 40
6.0
100
AcDbArc
 50
179.999999782274
 51
-90.000000030098
  0
ARC
  5
112
330
A
100
AcDbEntity
  8
0
  6
Continuous
 62
     3
100
AcDbCircle
 10
365.059259368598
 20
4557.77917733107
 30
0.0
 40
6.0
100
AcDbArc
 50
89.999982925895
 51
180.0
  0
ARC
  5
111
330
A
100
AcDbEntity
  8
0
  6
Continuous
 62
     3
100
AcDbCircle
 10
338.059262944599
 20
4547.77917923807
 30
0.0
 40
15.000000000004
100
AcDbArc
 50
-0.000001138295
 51
90.00005692890301
  0
ARC
  5
110
330
A
100
AcDbEntity
  8
0
  6
Continuous
 62
     3
100
AcDbCircle
 10
348.059260262599
 20
4517.282525104071
 30
0.0
 40
4.000002056348999
100
AcDbArc
 50
-179.952050985301
 51
-151.044922391425
  0
ARC
  5
10F
330
A
100
AcDbEntity
  8
0
  6
Continuous
 62
     6
100
AcDbCircle
 10
384.059259368598
 20
4564.779180907072
 30
0.0
 40
6.500000001401
100
AcDbArc
 50
98.84988310530101
 51
-98.849884903104
  0
ARC
  5
10E
330
A
100
AcDbEntity
  8
0
  6
Continuous
 62
     3
100
AcDbCircle
 10
369.559262825699
 20
4563.029178008821
 30
0.0
 40
0.5
100
AcDbArc
 50
0.0
 51
17.457521492939
  0
ARC
  5
10D
330
A
100
AcDbEntity
  8
0
  6
Continuous
 62
     3
100
AcDbCircle
 10
365.059262825699
 20
4557.779178008821
 30
0.0
 40
5.0
100
AcDbArc
 50
90.0
 51
180.0
  0
ARC
  5
10C
330
A
100
AcDbEntity
  8
0
  6
Continuous
 62
     3
100
AcDbCircle
 10
370.059262825699
 20
4516.07917800882
 30
0.0
 40
5.000000000384
100
AcDbArc
 50
-90.0
 51
0.0
  0
ARC
  5
10B
330
A
100
AcDbEntity
  8
0
  6
Continuous
 62
     3
100
AcDbCircle
 10
365.059262825699
 20
4516.07917800882
 30
0.0
 40
5.0
100
AcDbArc
 50
180.0
 51
-90.0
  0
ARC
  5
10A
330
A
100
AcDbEntity
  8
0
  6
Continuous
 62
     3
100
AcDbCircle
 10
370.059262825699
 20
4557.779178008821
 30
0.0
 40
5.000000000386
100
AcDbArc
 50
0.000000011099
 51
90.0
  0
ARC
  5
109
330
A
100
AcDbEntity
  8
0
  6
Continuous
 62
     3
100
AcDbCircle
 10
365.559262825699
 20
4563.029178008821
 30
0.0
 40
0.5
100
AcDbArc
 50
162.542478507067
 51
180.0
  0
ARC
  5
108
330
A
100
AcDbEntity
  8
0
  6
Continuous
 62
     3
100
AcDbCircle
 10
348.059260262599
 20
4517.282525104071
 30
0.0
 40
4.000002056348999
100
AcDbArc
 50
-28.955077608574
 51
0.047949048206
  0
ARC
  5
107
330
A
100
AcDbEntity
  8
0
  6
Continuous
 62
     3
100
AcDbCircle
 10
348.059260262599
 20
4517.282525104071
 30
0.0
 40
4.000002056348999
100
AcDbArc
 50
-151.044922391425
 51
-28.955077608574
  0
ARC
  5
106
330
A
100
AcDbEntity
  8
0
  6
Continuous
 62
     3
100
AcDbCircle
 10
38.059258474599
 20
4517.282525104071
 30
0.0
 40
4.000002056348999
100
AcDbArc
 50
-151.044922391425
 51
-28.955077608574
  0
ARC
  5
105
330
A
100
AcDbEntity
  8
0
  6
Continuous
 62
     3
100
AcDbCircle
 10
38.059258474599
 20
4517.282525104071
 30
0.0
 40
4.000002056348999
100
AcDbArc
 50
179.952050951794
 51
-151.044922391425
  0
ARC
  5
104
330
A
100
AcDbEntity
  8
0
  6
Continuous
 62
     3
100
AcDbCircle
 10
20.559255911499
 20
4563.029178008821
 30
0.0
 40
0.5
100
AcDbArc
 50
0.0
 51
17.457521492933
  0
ARC
  5
103
330
A
100
AcDbEntity
  8
0
  6
Continuous
 62
     3
100
AcDbCircle
 10
16.059255911499
 20
4557.779178008821
 30
0.0
 40
5.000000000386999
100
AcDbArc
 50
90.0
 51
179.9999999889
  0
ARC
  5
102
330
A
100
AcDbEntity
  8
0
  6
Continuous
 62
     3
100
AcDbCircle
 10
21.059255911499
 20
4516.07917800882
 30
0.0
 40
5.0
100
AcDbArc
 50
-90.0
 51
0.0
  0
ARC
  5
101
330
A
100
AcDbEntity
  8
0
  6
Continuous
 62
     3
100
AcDbCircle
 10
16.059255911499
 20
4516.07917800882
 30
0.0
 40
5.000000000386
100
AcDbArc
 50
180.0
 51
-90.0
  0
ARC
  5
100
330
A
100
AcDbEntity
  8
0
  6
Continuous
 62
     3
100
AcDbCircle
 10
21.059255911499
 20
4557.779178008821
 30
0.0
 40
5.0
100
AcDbArc
 50
0.0
 51
90.0
  0
ARC
  5
FF
330
A
100
AcDbEntity
  8
0
  6
Continuous
 62
     3
100
AcDbCircle
 10
16.559255911499
 20
4563.029178008821
 30
0.0
 40
0.5
100
AcDbArc
 50
162.542478507066
 51
180.0
  0
ARC
  5
FE
330
A
100
AcDbEntity
  8
0
  6
Continuous
 62
     6
100
AcDbCircle
 10
2.059259368599
 20
4564.779180907072
 30
0.0
 40
6.5000000014
100
AcDbArc
 50
-81.15011509689599
 51
81.15011689469801
  0
ARC
  5
FD
330
A
100
AcDbEntity
  8
0
  6
Continuous
 62
     3
100
AcDbCircle
 10
-55.420642673395
 20
4505.07917733107
 30
0.0
 40
0.2999999999989999
100
AcDbArc
 50
-89.99999997799999
 51
-89.732156067759
  0
ARC
  5
FC
330
A
100
AcDbEntity
  8
0
  6
Continuous
 62
     3
100
AcDbCircle
 10
38.059258474599
 20
4517.282525104071
 30
0.0
 40
4.000002056348999
100
AcDbArc
 50
-28.955077608574
 51
-0.047949014699
  0
ARC
  5
FB
330
A
100
AcDbEntity
  8
0
  6
Continuous
 62
     3
100
AcDbCircle
 10
48.059255792599
 20
4547.77917923807
 30
0.0
 40
15.000000000004
100
AcDbArc
 50
89.999943071097
 51
-179.999998861704
  0
ARC
  5
FA
330
A
100
AcDbEntity
  8
0
  6
Continuous
 62
     3
100
AcDbCircle
 10
21.059259368599
 20
4557.77917733107
 30
0.0
 40
6.0
100
AcDbArc
 50
0.0
 51
90.00001707410401
  0
ARC
  5
F9
330
A
100
AcDbEntity
  8
0
  6
Continuous
 62
     3
100
AcDbCircle
 10
21.059259368599
 20
4516.079177331071
 30
0.0
 40
6.0
100
AcDbArc
 50
-89.9999999699
 51
0.000000217725
  0
ARC
  5
F8
330
A
100
AcDbEntity
  8
0
  6
Continuous
 62
     3
100
AcDbCircle
 10
16.059259368599
 20
4557.77917733107
 30
0.0
 40
6.0
100
AcDbArc
 50
89.999982925896
 51
-179.999999988188
  0
ARC
  5
F7
330
A
100
AcDbEntity
  8
0
  6
Continuous
 62
     3
100
AcDbCircle
 10
16.059259368599
 20
4516.079177331071
 30
0.0
 40
6.0
100
AcDbArc
 50
-179.999999989717
 51
-89.99999997799802
  0
ARC
  5
F6
330
A
100
AcDbEntity
  8
0
  6
Continuous
 62
     3
100
AcDbCircle
 10
-6.640740631401
 20
4506.903441400071
 30
0.0
 40
0.3
100
AcDbArc
 50
-179.999999976376
 51
-134.999999999508
  0
ARC
  5
F5
330
A
100
AcDbEntity
  8
0
  6
Continuous
 62
     3
100
AcDbCircle
 10
-6.640740631401
 20
4572.654913262071
 30
0.0
 40
0.3
100
AcDbArc
 50
135.000000022668
 51
180.0
  0
ARC
  5
F4
330
A
100
AcDbEntity
  8
0
  6
Continuous
 62
     3
100
AcDbCircle
 10
-4.816476562401
 20
4574.47917733107
 30
0.0
 40
0.300000000001
100
AcDbArc
 50
90.00000001184401
 51
135.000000134858
  0
ARC
  5
F3
330
A
100
AcDbEntity
  8
0
  6
Continuous
 62
     3
100
AcDbCircle
 10
-4.816476562401
 20
4505.07917733107
 30
0.0
 40
0.300000000633
100
AcDbArc
 50
-135.000000082815
 51
-89.99999997784799
  0
ARC
  5
F2
330
A
100
AcDbEntity
  8
0
  6
Continuous
 62
     3
100
AcDbCircle
 10
34.040992987799
 20
4525.573712584072
 30
0.0
 40
0.9819129057819999
100
AcDbArc
 50
-178.894215325665
 51
-88.93461625344
  0
ARC
  5
F1
330
A
100
AcDbEntity
  8
0
  6
Continuous
 62
     3
100
AcDbCircle
 10
50.07749538319899
 20
4525.57374272667
 30
0.0
 40
0.981942775721
100
AcDbArc
 50
-91.064511420025
 51
-1.107510165911
  0
ARC
  5
F0
330
A
100
AcDbEntity
  8
0
  6
Continuous
 62
     3
100
AcDbCircle
 10
383.059259368598
 20
4684.645072609629
 30
0.0
 40
10.0
100
AcDbArc
 50
-90.0
 51
0.000000011808
  0
ARC
  5
EF
330
A
100
AcDbEntity
  8
0
  6
Continuous
 62
     3
100
AcDbCircle
 10
3.059259368599
 20
4684.645072609629
 30
0.0
 40
10.0
100
AcDbArc
 50
180.0
 51
-90.00000000509899
  0
ARC
  5
EE
330
A
100
AcDbEntity
  8
0
  6
Continuous
 62
     3
100
AcDbCircle
 10
-53.596378604395
 20
4506.903441400071
 30
0.0
 40
0.300000000204
100
AcDbArc
 50
-45.00000005974901
 51
0.0
  0
ARC
  5
ED
330
A
100
AcDbEntity
  8
0
  6
Continuous
 62
     3
100
AcDbCircle
 10
-53.596378604395
 20
4572.654913262071
 30
0.0
 40
0.3
100
AcDbArc
 50
0.000000342885
 51
44.999999990921
  0
ARC
  5
EC
330
A
100
AcDbEntity
  8
0
  6
Continuous
 62
     3
100
AcDbCircle
 10
-55.420642673395
 20
4574.47917733107
 30
0.0
 40
0.300000000109
100
AcDbArc
 50
44.999999923654
 51
90.000000011688
  0
ARC
  5
EB
330
A
100
AcDbEntity
  8
0
  6
Continuous
 62
     3
100
AcDbCircle
 10
-55.420642673395
 20
4505.07917733107
 30
0.0
 40
0.2999999999989999
100
AcDbArc
 50
-89.732156067759
 51
-45.000000000326
  0
ARC
  5
EA
330
A
100
AcDbEntity
  8
0
  6
Continuous
 62
     3
100
AcDbCircle
 10
-209.057981224218
 20
4505.18524176637
 30
0.0
 40
0.2999999999989999
100
AcDbArc
 50
-89.732156067775
 51
-45.000000000464
  0
ARC
  5
E9
330
A
100
AcDbEntity
  8
0
  6
Continuous
 62
     3
100
AcDbCircle
 10
-209.057981224218
 20
4574.58524176637
 30
0.0
 40
0.300000000109
100
AcDbArc
 50
44.999999923653
 51
90.00000001168698
  0
ARC
  5
E8
330
A
100
AcDbEntity
  8
0
  6
Continuous
 62
     3
100
AcDbCircle
 10
-207.233717155218
 20
4572.760977697371
 30
0.0
 40
0.3
100
AcDbArc
 50
0.000000342885
 51
44.99999999079999
  0
ARC
  5
E7
330
A
100
AcDbEntity
  8
0
  6
Continuous
 62
     3
100
AcDbCircle
 10
-207.233717155218
 20
4507.00950583537
 30
0.0
 40
0.300000000204
100
AcDbArc
 50
-45.00000005975
 51
0.0
  0
ARC
  5
E6
330
A
100
AcDbEntity
  8
0
  6
Continuous
 62
     3
100
AcDbCircle
 10
-209.057981224218
 20
4505.18524176637
 30
0.0
 40
0.2999999999989999
100
AcDbArc
 50
-89.999999978016
 51
-89.732156067775
  0
ARC
  5
E5
330
A
100
AcDbEntity
  8
0
  6
Continuous
 62
     3
100
AcDbCircle
 10
-190.302055070608
 20
4555.813444217069
 30
0.0
 40
0.750000000099
100
AcDbArc
 50
140.000000023706
 51
162.024312840148
  0
ARC
  5
E4
330
A
100
AcDbEntity
  8
0
  6
Continuous
 62
     3
100
AcDbCircle
 10
-190.302055070608
 20
4555.813444217069
 30
0.0
 40
0.75
100
AcDbArc
 50
-40.00000000001699
 51
140.000000023651
  0
ARC
  5
E3
330
A
100
AcDbEntity
  8
0
  6
Continuous
 62
     3
100
AcDbCircle
 10
-193.711055057589
 20
4549.167304538516
 30
0.0
 40
0.3
100
AcDbArc
 50
-47.431414790576
 51
44.096964968775
  0
ARC
  5
E2
330
A
100
AcDbEntity
  8
0
  6
DOTTED
 62
     1
100
AcDbCircle
 10
-211.833716723018
 20
4526.885989051878
 30
0.0
 40
3.85
100
AcDbArc
 50
132.568585243119
 51
140.000000023524
  0
ARC
  5
E1
330
A
100
AcDbEntity
  8
0
  6
DOTTED
 62
     1
100
AcDbCircle
 10
-211.833716723018
 20
4526.885989051878
 30
0.0
 40
3.85
100
AcDbArc
 50
140.000000023524
 51
167.500000006405
  0
ARC
  5
E0
330
A
100
AcDbEntity
  8
0
  6
Continuous
 62
     3
100
AcDbCircle
 10
-191.341116623116
 20
4551.463691225219
 30
0.0
 40
3.0
100
AcDbArc
 50
161.7384608077
 51
-135.903035200779
  0
ARC
  5
DF
330
A
100
AcDbEntity
  8
0
  6
DOTTED
 62
     1
100
AcDbCircle
 10
-218.657339674883
 20
4512.508418398763
 30
0.0
 40
0.300000000001
100
AcDbArc
 50
-153.814225139719
 51
-130.000000022119
  0
ARC
  5
DE
330
A
100
AcDbEntity
  8
0
  6
DOTTED
 62
     1
100
AcDbCircle
 10
-218.657339674883
 20
4512.508418398763
 30
0.0
 40
0.3
100
AcDbArc
 50
167.500000006372
 51
-173.880256248337
  0
ARC
  5
DD
330
A
100
AcDbEntity
  8
0
  6
Continuous
 62
     3
100
AcDbCircle
 10
-185.362393584618
 20
4551.276953899232
 30
0.0
 40
0.300000000002
100
AcDbArc
 50
-40.000000000103
 51
50.000000011509
  0
ARC
  5
DC
330
A
100
AcDbEntity
  8
0
  6
DOTTED
 62
     1
100
AcDbCircle
 10
-218.208840439599
 20
4512.132082855853
 30
0.0
 40
0.3
100
AcDbArc
 50
-129.999999992543
 51
-40.00000001031501
  0
ARC
  5
DB
330
A
100
AcDbEntity
  8
0
  6
Continuous
 62
     3
100
AcDbCircle
 10
-138.914351415628
 20
4505.18524176637
 30
0.0
 40
0.2999999999989999
100
AcDbArc
 50
-89.99999997799999
 51
-89.73215606775299
  0
ARC
  5
DA
330
A
100
AcDbEntity
  8
0
  6
Continuous
 62
     3
100
AcDbCircle
 10
-137.090087346628
 20
4507.00950583537
 30
0.0
 40
0.300000000204
100
AcDbArc
 50
-45.00000005975
 51
0.0
  0
ARC
  5
D9
330
A
100
AcDbEntity
  8
0
  6
Continuous
 62
     3
100
AcDbCircle
 10
-137.090087346628
 20
4572.760977697371
 30
0.0
 40
0.3
100
AcDbArc
 50
0.000000342885
 51
44.99999999079999
  0
ARC
  5
D8
330
A
100
AcDbEntity
  8
0
  6
Continuous
 62
     3
100
AcDbCircle
 10
-138.914351415628
 20
4574.58524176637
 30
0.0
 40
0.300000000109
100
AcDbArc
 50
44.999999923653
 51
90.00000001168698
  0
ARC
  5
D7
330
A
100
AcDbEntity
  8
0
  6
Continuous
 62
     3
100
AcDbCircle
 10
-138.914351415628
 20
4505.18524176637
 30
0.0
 40
0.2999999999989999
100
AcDbArc
 50
-89.73215606775299
 51
-45.000000000449
  0
ARC
  5
D6
330
A
100
AcDbEntity
  8
1
  6
DOTTED
 62
     1
100
AcDbCircle
 10
-103.690086914428
 20
4516.885242064371
 30
0.0
 40
3.5
100
AcDbArc
 50
90.0
 51
-90.0
  0
ARC
  5
D5
330
A
100
AcDbEntity
  8
1
  6
Continuous
 62
     3
100
AcDbCircle
 10
-103.690086914428
 20
4516.885242064371
 30
0.0
 40
3.5
100
AcDbArc
 50
-90.0
 51
90.0
  0
ARC
  5
D4
330
A
100
AcDbEntity
  8
0
  6
Continuous
 62
     6
100
AcDbCircle
 10
2.059259368599
 20
4514.77917375507
 30
0.0
 40
6.500000001399
100
AcDbArc
 50
-81.15011689469499
 51
81.15011509689599
  0
ARC
  5
D3
330
A
100
AcDbEntity
  8
0
  6
Continuous
 62
     6
100
AcDbCircle
 10
384.059259368598
 20
4514.77917375507
 30
0.0
 40
6.5000000014
100
AcDbArc
 50
98.849884903104
 51
-98.84988310530399
  0
LINE
  5
D2
330
A
100
AcDbEntity
  8
1
  6
DOT_CENTER
 62
     1
100
AcDbLine
 10
-71.920233654833
 20
4514.77918060907
 30
0.0
 11
-48.280233654833
 21
4514.77918060907
 31
0.0
  0
LINE
  5
D1
330
A
100
AcDbEntity
  8
1
  6
DOT_CENTER
 62
     1
100
AcDbLine
 10
-72.476495714501
 20
4564.779180907072
 30
0.0
 11
-48.41649571450099
 21
4564.779180907072
 31
0.0
  0
LINE
  5
D0
330
A
100
AcDbEntity
  8
0
  6
Continuous
 62
     3
100
AcDbLine
 10
365.059265209799
 20
4563.779177241471
 30
0.0
 11
365.059265209799
 21
4563.17917732927
 31
0.0
  0
LINE
  5
CF
330
A
100
AcDbEntity
  8
0
  6
Continuous
 62
     3
100
AcDbLine
 10
370.059260441599
 20
4563.17917732927
 30
0.0
 11
370.059260441599
 21
4563.779177241471
 31
0.0
  0
LINE
  5
CE
330
A
100
AcDbEntity
  8
0
  6
Continuous
 62
     3
100
AcDbLine
 10
351.559260262599
 20
4524.591969423271
 30
0.0
 11
352.059268666999
 21
4524.591969423271
 31
0.0
  0
LINE
  5
CD
330
A
100
AcDbEntity
  8
0
  6
Continuous
 62
     3
100
AcDbLine
 10
344.059252454599
 20
4522.09948571807
 30
0.0
 11
344.059252454599
 21
4522.49239953647
 31
0.0
  0
LINE
  5
CC
330
A
100
AcDbEntity
  8
0
  6
Continuous
 62
     3
100
AcDbLine
 10
352.059253765798
 20
4522.52884405147
 30
0.0
 11
352.059253765798
 21
4522.133270375871
 31
0.0
  0
LINE
  5
CB
330
A
100
AcDbEntity
  8
0
  6
Continuous
 62
     3
100
AcDbLine
 10
392.971390201399
 20
4572.867045276271
 30
0.0
 11
391.147130443399
 21
4574.69130936347
 31
0.0
  0
LINE
  5
CA
330
A
100
AcDbEntity
  8
0
  6
Continuous
 62
     3
100
AcDbLine
 10
391.147130443399
 20
4504.867045306071
 30
0.0
 11
392.971390201399
 21
4506.691312514671
 31
0.0
  0
LINE
  5
C9
330
A
100
AcDbEntity
  8
0
  6
Continuous
 62
     3
100
AcDbLine
 10
393.059262348799
 20
4506.90343799487
 30
0.0
 11
393.059262348799
 21
4572.65491327687
 31
0.0
  0
LINE
  5
C8
330
A
100
AcDbEntity
  8
0
  6
Continuous
 62
     3
100
AcDbLine
 10
376.0592576997979
 20
4557.779178120472
 30
0.0
 11
376.0592576997979
 21
4516.079178177271
 31
0.0
  0
LINE
  5
C7
330
A
100
AcDbEntity
  8
0
  6
Continuous
 62
     3
100
AcDbLine
 10
370.059260441599
 20
4510.079180919071
 30
0.0
 11
365.059265209799
 21
4510.079180919071
 31
0.0
  0
LINE
  5
C6
330
A
100
AcDbEntity
  8
0
  6
Continuous
 62
     3
100
AcDbLine
 10
370.059260441599
 20
4563.779177241471
 30
0.0
 11
365.059265209799
 21
4563.779177241471
 31
0.0
  0
LINE
  5
C5
330
A
100
AcDbEntity
  8
0
  6
Continuous
 62
     3
100
AcDbLine
 10
359.059253050599
 20
4516.079178177271
 30
0.0
 11
359.059253050599
 21
4557.779178120472
 31
0.0
  0
LINE
  5
C4
330
A
100
AcDbEntity
  8
0
  6
Continuous
 62
     3
100
AcDbLine
 10
352.059253765798
 20
4519.04791789547
 30
0.0
 11
352.059253765798
 21
4517.285874210671
 31
0.0
  0
LINE
  5
C3
330
A
100
AcDbEntity
  8
0
  6
Continuous
 62
     3
100
AcDbLine
 10
335.059264017799
 20
4522.867275499071
 30
0.0
 11
335.059264017799
 21
4536.279177390471
 31
0.0
  0
LINE
  5
C2
330
A
100
AcDbEntity
  8
0
  6
Continuous
 62
     3
100
AcDbLine
 10
344.059252454599
 20
4517.279176138671
 30
0.0
 11
344.059252454599
 21
4518.537147067871
 31
0.0
  0
LINE
  5
C1
330
A
100
AcDbEntity
  8
0
  6
Continuous
 62
     3
100
AcDbLine
 10
344.059252454599
 20
4518.537147067871
 30
0.0
 11
336.059266044399
 21
4518.537147067871
 31
0.0
  0
LINE
  5
C0
330
A
100
AcDbEntity
  8
0
  6
Continuous
 62
     3
100
AcDbLine
 10
370.036232640115
 20
4563.17917732927
 30
0.0
 11
370.059260441599
 21
4563.17917732927
 31
0.0
  0
LINE
  5
BF
330
A
100
AcDbEntity
  8
1
  6
DOT_CENTER
 62
     1
100
AcDbLine
 10
384.059259368598
 20
4554.3124025862
 30
0.0
 11
384.059259368598
 21
4575.598088407449
 31
0.0
  0
LINE
  5
BE
330
A
100
AcDbEntity
  8
1
  6
DOT_CENTER
 62
     1
100
AcDbLine
 10
374.147503886415
 20
4564.779180907072
 30
0.0
 11
390.05926286698
 21
4564.779180907072
 31
0.0
  0
LINE
  5
BD
330
A
100
AcDbEntity
  8
1
  6
DOT_CENTER
 62
     1
100
AcDbLine
 10
394.725717491064
 20
4514.77918060907
 30
0.0
 11
374.147503886415
 21
4514.77918060907
 31
0.0
  0
LINE
  5
BC
330
A
100
AcDbEntity
  8
1
  6
DOT_CENTER
 62
     1
100
AcDbLine
 10
384.059259368598
 20
4503.748137384092
 30
0.0
 11
384.059259368598
 21
4525.033823205341
 31
0.0
  0
LINE
  5
BB
330
A
100
AcDbEntity
  8
0
  6
Continuous
 62
     3
100
AcDbLine
 10
360.059262993299
 20
4530.27917547562
 30
0.0
 11
359.559262445699
 21
4530.27917547562
 31
0.0
  0
LINE
  5
BA
330
A
100
AcDbEntity
  8
0
  6
Continuous
 62
     3
100
AcDbLine
 10
359.559262445699
 20
4523.27917619082
 30
0.0
 11
360.059262993299
 21
4523.27917619082
 31
0.0
  0
LINE
  5
B9
330
A
100
AcDbEntity
  8
0
  6
Continuous
 62
     3
100
AcDbLine
 10
375.059262658098
 20
4523.27917619082
 30
0.0
 11
375.759262865899
 21
4523.27917619082
 31
0.0
  0
LINE
  5
B8
330
A
100
AcDbEntity
  8
0
  6
Continuous
 62
     3
100
AcDbLine
 10
360.059262993299
 20
4516.07917724582
 30
0.0
 11
360.059262993299
 21
4557.779178120521
 31
0.0
  0
LINE
  5
B7
330
A
100
AcDbEntity
  8
0
  6
Continuous
 62
     3
100
AcDbLine
 10
375.059262658098
 20
4557.779178120521
 30
0.0
 11
375.059262658098
 21
4516.07917724582
 31
0.0
  0
LINE
  5
B6
330
A
100
AcDbEntity
  8
0
  6
Continuous
 62
     3
100
AcDbLine
 10
370.059262769799
 20
4511.079178288921
 30
0.0
 11
365.059262881599
 21
4511.079178288921
 31
0.0
  0
LINE
  5
B5
330
A
100
AcDbEntity
  8
0
  6
Continuous
 62
     3
100
AcDbLine
 10
370.059262769799
 20
4562.77917800882
 30
0.0
 11
365.059262881599
 21
4562.77917800882
 31
0.0
  0
LINE
  5
B4
330
A
100
AcDbEntity
  8
0
  6
Continuous
 62
     3
100
AcDbLine
 10
375.059262658098
 20
4529.22866596312
 30
0.0
 11
375.759262865899
 21
4529.22866596312
 31
0.0
  0
LINE
  5
B3
330
A
100
AcDbEntity
  8
0
  6
Continuous
 62
     3
100
AcDbLine
 10
365.059265209799
 20
4563.17917732927
 30
0.0
 11
365.082293011282
 21
4563.17917732927
 31
0.0
  0
LINE
  5
B2
330
A
100
AcDbEntity
  8
0
  6
Continuous
 62
     3
100
AcDbLine
 10
365.082293011282
 20
4563.17917732927
 30
0.0
 11
370.036232640115
 21
4563.17917732927
 31
0.0
  0
LINE
  5
B1
330
A
100
AcDbEntity
  8
0
  6
Continuous
 62
     3
100
AcDbLine
 10
353.059255792399
 20
4547.779178344071
 30
0.0
 11
353.059255792399
 21
4521.90018268707
 31
0.0
  0
LINE
  5
B0
330
A
100
AcDbEntity
  8
1
  6
DOT_CENTER
 62
     1
100
AcDbLine
 10
348.059260262599
 20
4542.779177629071
 30
0.0
 11
348.059260262599
 21
4509.26443539965
 31
0.0
  0
LINE
  5
AF
330
A
100
AcDbEntity
  8
1
  6
Continuous
 62
     3
100
AcDbLine
 10
351.559260262599
 20
4523.076811792607
 30
0.0
 11
351.559260262599
 21
4515.346029183394
 31
0.0
  0
LINE
  5
AE
330
A
100
AcDbEntity
  8
1
  6
Continuous
 62
     3
100
AcDbLine
 10
344.559260262599
 20
4524.591969423271
 30
0.0
 11
344.559260262599
 21
4542.779177629071
 31
0.0
  0
LINE
  5
AD
330
A
100
AcDbEntity
  8
0
  6
Continuous
 62
     3
100
AcDbLine
 10
336.059266044399
 20
4524.591969423271
 30
0.0
 11
344.559260262599
 21
4524.591969423271
 31
0.0
  0
LINE
  5
AC
330
A
100
AcDbEntity
  8
1
  6
Continuous
 62
     3
100
AcDbLine
 10
351.559260262599
 20
4542.779177629071
 30
0.0
 11
351.559260262599
 21
4524.591969423271
 31
0.0
  0
LINE
  5
AB
330
A
100
AcDbEntity
  8
1
  6
Continuous
 62
     3
100
AcDbLine
 10
344.559260262599
 20
4523.081098012546
 30
0.0
 11
344.559260262599
 21
4524.591969423271
 31
0.0
  0
LINE
  5
AA
330
A
100
AcDbEntity
  8
1
  6
Continuous
 62
     3
100
AcDbLine
 10
344.559260262599
 20
4515.346029183394
 30
0.0
 11
344.559260262599
 21
4523.081098012546
 31
0.0
  0
LINE
  5
A9
330
A
100
AcDbEntity
  8
1
  6
Continuous
 62
     3
100
AcDbLine
 10
351.559260262599
 20
4524.591969423271
 30
0.0
 11
351.559260262599
 21
4523.076811792607
 31
0.0
  0
LINE
  5
A8
330
A
100
AcDbEntity
  8
1
  6
Continuous
 62
     3
100
AcDbLine
 10
34.559258474599
 20
4523.076811792607
 30
0.0
 11
34.559258474599
 21
4524.591969423271
 31
0.0
  0
LINE
  5
A7
330
A
100
AcDbEntity
  8
1
  6
Continuous
 62
     3
100
AcDbLine
 10
41.559258474599
 20
4523.081098012546
 30
0.0
 11
41.559258474599
 21
4515.346029183394
 31
0.0
  0
LINE
  5
A6
330
A
100
AcDbEntity
  8
1
  6
Continuous
 62
     3
100
AcDbLine
 10
41.559258474599
 20
4524.591969423271
 30
0.0
 11
41.559258474599
 21
4523.081098012546
 31
0.0
  0
LINE
  5
A5
330
A
100
AcDbEntity
  8
1
  6
Continuous
 62
     3
100
AcDbLine
 10
34.559258474599
 20
4524.591969423271
 30
0.0
 11
34.559258474599
 21
4542.779177629071
 31
0.0
  0
LINE
  5
A4
330
A
100
AcDbEntity
  8
0
  6
Continuous
 62
     3
100
AcDbLine
 10
41.559258474599
 20
4524.591969423271
 30
0.0
 11
50.059252692799
 21
4524.591969423271
 31
0.0
  0
LINE
  5
A3
330
A
100
AcDbEntity
  8
1
  6
Continuous
 62
     3
100
AcDbLine
 10
41.559258474599
 20
4542.779177629071
 30
0.0
 11
41.559258474599
 21
4524.591969423271
 31
0.0
  0
LINE
  5
A2
330
A
100
AcDbEntity
  8
1
  6
Continuous
 62
     3
100
AcDbLine
 10
336.059260262599
 20
4551.279177629072
 30
0.0
 11
50.05925847459899
 21
4551.279177629072
 31
0.0
  0
LINE
  5
A1
330
A
100
AcDbEntity
  8
1
  6
Continuous
 62
     3
100
AcDbLine
 10
50.05925847459899
 20
4558.279177629071
 30
0.0
 11
336.059260262599
 21
4558.279177629071
 31
0.0
  0
LINE
  5
A0
330
A
100
AcDbEntity
  8
1
  6
Continuous
 62
     3
100
AcDbLine
 10
34.559258474599
 20
4515.346029183394
 30
0.0
 11
34.559258474599
 21
4523.076811792607
 31
0.0
  0
LINE
  5
9F
330
A
100
AcDbEntity
  8
1
  6
DOT_CENTER
 62
     1
100
AcDbLine
 10
38.059258474599
 20
4509.26443539965
 30
0.0
 11
38.059258474599
 21
4542.779177629071
 31
0.0
  0
LINE
  5
9E
330
A
100
AcDbEntity
  8
1
  6
DOT_CENTER
 62
     1
100
AcDbLine
 10
50.05925847459899
 20
4554.779177629071
 30
0.0
 11
336.059260262599
 21
4554.779177629071
 31
0.0
  0
LINE
  5
9D
330
A
100
AcDbEntity
  8
1
  6
DOT_CENTER
 62
     1
100
AcDbLine
 10
193.059259368599
 20
4586.04964640271
 30
0.0
 11
193.059259368599
 21
4494.6906530724
 31
0.0
  0
LINE
  5
9C
330
A
100
AcDbEntity
  8
0
  6
Continuous
 62
     3
100
AcDbLine
 10
33.059262944799
 20
4521.90018268707
 30
0.0
 11
33.059262944799
 21
4547.779178344071
 31
0.0
  0
LINE
  5
9B
330
A
100
AcDbEntity
  8
0
  6
Continuous
 62
     3
100
AcDbLine
 10
16.082286097082
 20
4563.17917732927
 30
0.0
 11
21.036225725915
 21
4563.17917732927
 31
0.0
  0
LINE
  5
9A
330
A
100
AcDbEntity
  8
0
  6
Continuous
 62
     3
100
AcDbLine
 10
21.036225725915
 20
4563.17917732927
 30
0.0
 11
21.059253527399
 21
4563.17917732927
 31
0.0
  0
LINE
  5
99
330
A
100
AcDbEntity
  8
0
  6
Continuous
 62
     3
100
AcDbLine
 10
26.059255743899
 20
4529.22866596312
 30
0.0
 11
26.759255951699
 21
4529.22866596312
 31
0.0
  0
LINE
  5
98
330
A
100
AcDbEntity
  8
0
  6
Continuous
 62
     3
100
AcDbLine
 10
21.059255855599
 20
4562.77917800882
 30
0.0
 11
16.059255967399
 21
4562.77917800882
 31
0.0
  0
LINE
  5
97
330
A
100
AcDbEntity
  8
0
  6
Continuous
 62
     3
100
AcDbLine
 10
21.059255855599
 20
4511.079178288921
 30
0.0
 11
16.059255967399
 21
4511.079178288921
 31
0.0
  0
LINE
  5
96
330
A
100
AcDbEntity
  8
0
  6
Continuous
 62
     3
100
AcDbLine
 10
11.059256079099
 20
4516.07917724582
 30
0.0
 11
11.059256079099
 21
4557.779178120521
 31
0.0
  0
LINE
  5
95
330
A
100
AcDbEntity
  8
0
  6
Continuous
 62
     3
100
AcDbLine
 10
26.059255743899
 20
4557.779178120521
 30
0.0
 11
26.059255743899
 21
4516.07917724582
 31
0.0
  0
LINE
  5
94
330
A
100
AcDbEntity
  8
0
  6
Continuous
 62
     3
100
AcDbLine
 10
26.059255743899
 20
4523.27917619082
 30
0.0
 11
26.759255951699
 21
4523.27917619082
 31
0.0
  0
LINE
  5
93
330
A
100
AcDbEntity
  8
0
  6
Continuous
 62
     3
100
AcDbLine
 10
10.559255531499
 20
4523.27917619082
 30
0.0
 11
11.059256079099
 21
4523.27917619082
 31
0.0
  0
LINE
  5
92
330
A
100
AcDbEntity
  8
0
  6
Continuous
 62
     3
100
AcDbLine
 10
11.059256079099
 20
4530.27917547562
 30
0.0
 11
10.559255531499
 21
4530.27917547562
 31
0.0
  0
LINE
  5
91
330
A
100
AcDbEntity
  8
1
  6
DOT_CENTER
 62
     1
100
AcDbLine
 10
2.059259368599
 20
4525.033823205341
 30
0.0
 11
2.059259368599
 21
4503.748137384092
 31
0.0
  0
LINE
  5
90
330
A
100
AcDbEntity
  8
1
  6
DOT_CENTER
 62
     1
100
AcDbLine
 10
11.971014850782
 20
4514.77918060907
 30
0.0
 11
-8.607198753867001
 21
4514.77918060907
 31
0.0
  0
LINE
  5
8F
330
A
100
AcDbEntity
  8
1
  6
DOT_CENTER
 62
     1
100
AcDbLine
 10
-8.607198753867001
 20
4564.779180907072
 30
0.0
 11
11.971014850782
 21
4564.779180907072
 31
0.0
  0
LINE
  5
8E
330
A
100
AcDbEntity
  8
1
  6
DOT_CENTER
 62
     1
100
AcDbLine
 10
2.059259368599
 20
4575.598088407449
 30
0.0
 11
2.059259368599
 21
4554.3124025862
 31
0.0
  0
LINE
  5
8D
330
A
100
AcDbEntity
  8
1
  6
DOT_CENTER
 62
     1
100
AcDbLine
 10
-73.670904391647
 20
4539.77917733107
 30
0.0
 11
-46.90090439164699
 21
4539.77917733107
 31
0.0
  0
LINE
  5
8C
330
A
100
AcDbEntity
  8
0
  6
Continuous
 62
     6
100
AcDbLine
 10
-53.38424659459501
 20
4572.65491327687
 30
0.0
 11
-67.296378604395
 21
4572.65491327687
 31
0.0
  0
LINE
  5
8B
330
A
100
AcDbEntity
  8
0
  6
Continuous
 62
     3
100
AcDbLine
 10
16.059258295599
 20
4563.17917732927
 30
0.0
 11
16.082286097082
 21
4563.17917732927
 31
0.0
  0
LINE
  5
8A
330
A
100
AcDbEntity
  8
0
  6
Continuous
 62
     3
100
AcDbLine
 10
50.059252692799
 20
4518.537147067871
 30
0.0
 11
42.05926628259899
 21
4518.537147067871
 31
0.0
  0
LINE
  5
89
330
A
100
AcDbEntity
  8
0
  6
Continuous
 62
     3
100
AcDbLine
 10
244.055637432799
 20
4527.77917879107
 30
0.0
 11
142.062881304399
 21
4527.77917879107
 31
0.0
  0
LINE
  5
88
330
A
100
AcDbEntity
  8
0
  6
Continuous
 62
     3
100
AcDbLine
 10
42.05926628259899
 20
4518.537147067871
 30
0.0
 11
42.05926628259899
 21
4517.279176138671
 31
0.0
  0
LINE
  5
87
330
A
100
AcDbEntity
  8
0
  6
Continuous
 62
     3
100
AcDbLine
 10
51.05925471939901
 20
4536.279177390471
 30
0.0
 11
51.05925471939901
 21
4522.867275499071
 31
0.0
  0
LINE
  5
86
330
A
100
AcDbEntity
  8
0
  6
Continuous
 62
     3
100
AcDbLine
 10
48.05926354079899
 20
4562.779178940071
 30
0.0
 11
338.059255196198
 21
4562.779178940071
 31
0.0
  0
LINE
  5
85
330
A
100
AcDbEntity
  8
0
  6
Continuous
 62
     3
100
AcDbLine
 10
34.059264971399
 20
4517.285874210671
 30
0.0
 11
34.059264971399
 21
4519.04791789547
 31
0.0
  0
LINE
  5
84
330
A
100
AcDbEntity
  8
0
  6
Continuous
 62
     3
100
AcDbLine
 10
27.059265686599
 20
4557.779178120472
 30
0.0
 11
27.059265686599
 21
4516.079178177271
 31
0.0
  0
LINE
  5
83
330
A
100
AcDbEntity
  8
0
  6
Continuous
 62
     3
100
AcDbLine
 10
21.059253527399
 20
4563.779177241471
 30
0.0
 11
16.059258295599
 21
4563.779177241471
 31
0.0
  0
LINE
  5
82
330
A
100
AcDbEntity
  8
0
  6
Continuous
 62
     3
100
AcDbLine
 10
21.059253527399
 20
4510.079180919071
 30
0.0
 11
16.059258295599
 21
4510.079180919071
 31
0.0
  0
LINE
  5
81
330
A
100
AcDbEntity
  8
0
  6
Continuous
 62
     3
100
AcDbLine
 10
10.059261037399
 20
4516.079178177271
 30
0.0
 11
10.059261037399
 21
4557.779178120472
 31
0.0
  0
LINE
  5
80
330
A
100
AcDbEntity
  8
0
  6
Continuous
 62
     3
100
AcDbLine
 10
-6.940743611600999
 20
4572.65491327687
 30
0.0
 11
-6.940743611600999
 21
4506.90343799487
 31
0.0
  0
LINE
  5
7F
330
A
100
AcDbEntity
  8
0
  6
Continuous
 62
     6
100
AcDbLine
 10
-6.852871464200999
 20
4506.691312514671
 30
0.0
 11
393.059262348799
 21
4506.691312514671
 31
0.0
  0
LINE
  5
7E
330
A
100
AcDbEntity
  8
0
  6
Continuous
 62
     6
100
AcDbLine
 10
392.971390201399
 20
4572.867045276271
 30
0.0
 11
-6.852871464200999
 21
4572.867045276271
 31
0.0
  0
LINE
  5
7D
330
A
100
AcDbEntity
  8
0
  6
Continuous
 62
     3
100
AcDbLine
 10
-6.852871464200999
 20
4506.691312514671
 30
0.0
 11
-5.028611706201
 21
4504.867045306071
 31
0.0
  0
LINE
  5
7C
330
A
100
AcDbEntity
  8
0
  6
Continuous
 62
     3
100
AcDbLine
 10
-5.028611706201
 20
4574.69130936347
 30
0.0
 11
-6.852871464200999
 21
4572.867045276271
 31
0.0
  0
LINE
  5
7B
330
A
100
AcDbEntity
  8
0
  6
Continuous
 62
     3
100
AcDbLine
 10
390.9349952995981
 20
4574.779177331071
 30
0.0
 11
-4.816476562401
 21
4574.779177331071
 31
0.0
  0
LINE
  5
7A
330
A
100
AcDbEntity
  8
0
  6
Continuous
 62
     3
100
AcDbLine
 10
-4.815074004188
 20
4504.77918060907
 30
0.0
 11
390.933592741385
 21
4504.77918060907
 31
0.0
  0
LINE
  5
79
330
A
100
AcDbEntity
  8
0
  6
Continuous
 62
     3
100
AcDbLine
 10
34.059264971399
 20
4522.133270375871
 30
0.0
 11
34.059264971399
 21
4522.52884405147
 31
0.0
  0
LINE
  5
78
330
A
100
AcDbEntity
  8
0
  6
Continuous
 62
     3
100
AcDbLine
 10
42.05926628259899
 20
4522.49239953647
 30
0.0
 11
42.05926628259899
 21
4522.09948571807
 31
0.0
  0
LINE
  5
77
330
A
100
AcDbEntity
  8
0
  6
Continuous
 62
     3
100
AcDbLine
 10
34.059250070199
 20
4524.591969423271
 30
0.0
 11
34.559258474599
 21
4524.591969423271
 31
0.0
  0
LINE
  5
76
330
A
100
AcDbEntity
  8
0
  6
Continuous
 62
     3
100
AcDbLine
 10
16.059258295599
 20
4563.779177241471
 30
0.0
 11
16.059258295599
 21
4563.17917732927
 31
0.0
  0
LINE
  5
75
330
A
100
AcDbEntity
  8
0
  6
Continuous
 62
     3
100
AcDbLine
 10
21.059253527399
 20
4563.17917732927
 30
0.0
 11
21.059253527399
 21
4563.779177241471
 31
0.0
  0
LINE
  5
74
330
A
100
AcDbEntity
  8
0
  6
Continuous
 62
     3
100
AcDbLine
 10
390.934997512399
 20
4688.645072609629
 30
0.0
 11
-4.816478775400999
 21
4688.645072609629
 31
0.0
  0
LINE
  5
73
330
A
100
AcDbEntity
  8
0
  6
Continuous
 62
     6
100
AcDbLine
 10
390.934997512399
 20
4688.645072609629
 30
0.0
 11
390.934997512399
 21
4684.64507241963
 31
0.0
  0
LINE
  5
72
330
A
100
AcDbEntity
  8
0
  6
Continuous
 62
     6
100
AcDbLine
 10
383.059256984398
 20
4676.769337013631
 30
0.0
 11
3.059261752799
 21
4676.769337013631
 31
0.0
  0
LINE
  5
71
330
A
100
AcDbEntity
  8
0
  6
Continuous
 62
     6
100
AcDbLine
 10
-4.816478775400999
 20
4684.64507241963
 30
0.0
 11
-4.816478775400999
 21
4688.645072609629
 31
0.0
  0
LINE
  5
70
330
A
100
AcDbEntity
  8
0
  6
Continuous
 62
     3
100
AcDbLine
 10
-6.940743611600999
 20
4688.645072609629
 30
0.0
 11
-6.940743611600999
 21
4684.64507241963
 31
0.0
  0
LINE
  5
6F
330
A
100
AcDbEntity
  8
0
  6
Continuous
 62
     3
100
AcDbLine
 10
-6.940743611600999
 20
4688.645072609629
 30
0.0
 11
-4.816478775400999
 21
4688.645072609629
 31
0.0
  0
LINE
  5
6E
330
A
100
AcDbEntity
  8
0
  6
Continuous
 62
     3
100
AcDbLine
 10
393.059262348799
 20
4684.64507241963
 30
0.0
 11
393.059262348799
 21
4688.645072609629
 31
0.0
  0
LINE
  5
6D
330
A
100
AcDbEntity
  8
0
  6
Continuous
 62
     3
100
AcDbLine
 10
390.934997512399
 20
4688.645072609629
 30
0.0
 11
393.059262348799
 21
4688.645072609629
 31
0.0
  0
LINE
  5
6C
330
A
100
AcDbEntity
  8
0
  6
Continuous
 62
     3
100
AcDbLine
 10
383.059256984398
 20
4674.645072177431
 30
0.0
 11
3.059259367709
 21
4674.645072177431
 31
0.0
  0
LINE
  5
6B
330
A
100
AcDbEntity
  8
0
  6
Continuous
 62
     3
100
AcDbLine
 10
-67.296378604395
 20
4574.779177331071
 30
0.0
 11
-67.296378604395
 21
4506.691312514671
 31
0.0
  0
LINE
  5
6A
330
A
100
AcDbEntity
  8
0
  6
Continuous
 62
     6
100
AcDbLine
 10
-67.296378604395
 20
4506.691312514671
 30
0.0
 11
-53.38424659459501
 21
4506.691312514671
 31
0.0
  0
LINE
  5
69
330
A
100
AcDbEntity
  8
0
  6
Continuous
 62
     3
100
AcDbLine
 10
-53.296378172195
 20
4572.65491327687
 30
0.0
 11
-53.296378172195
 21
4506.90343799487
 31
0.0
  0
LINE
  5
68
330
A
100
AcDbEntity
  8
0
  6
Continuous
 62
     3
100
AcDbLine
 10
-67.296378604395
 20
4506.691312514671
 30
0.0
 11
-67.296378604395
 21
4504.77918060907
 31
0.0
  0
LINE
  5
67
330
A
100
AcDbEntity
  8
0
  6
Continuous
 62
     3
100
AcDbLine
 10
-53.38424659459501
 20
4506.691312514671
 30
0.0
 11
-55.208511009195
 21
4504.867045306071
 31
0.0
  0
LINE
  5
66
330
A
100
AcDbEntity
  8
0
  6
Continuous
 62
     3
100
AcDbLine
 10
-55.208511009195
 20
4574.69130936347
 30
0.0
 11
-53.38424659459501
 21
4572.867045276271
 31
0.0
  0
LINE
  5
65
330
A
100
AcDbEntity
  8
0
  6
Continuous
 62
     3
100
AcDbLine
 10
-55.420642673395
 20
4574.779177331071
 30
0.0
 11
-67.296378604395
 21
4574.779177331071
 31
0.0
  0
LINE
  5
64
330
A
100
AcDbEntity
  8
0
  6
Continuous
 62
     3
100
AcDbLine
 10
-67.296378604395
 20
4504.77918060907
 30
0.0
 11
-55.41924025095299
 21
4504.77918060907
 31
0.0
  0
LINE
  5
63
330
A
100
AcDbEntity
  8
0
  6
Continuous
 62
     3
100
AcDbLine
 10
-220.933717155218
 20
4504.88524504437
 30
0.0
 11
-209.056578801777
 21
4504.88524504437
 31
0.0
  0
LINE
  5
62
330
A
100
AcDbEntity
  8
0
  6
Continuous
 62
     3
100
AcDbLine
 10
-209.057981224218
 20
4574.885241766371
 30
0.0
 11
-220.933717155218
 21
4574.885241766371
 31
0.0
  0
LINE
  5
61
330
A
100
AcDbEntity
  8
0
  6
Continuous
 62
     3
100
AcDbLine
 10
-208.845849560018
 20
4574.79737379877
 30
0.0
 11
-207.021585145418
 21
4572.973109711571
 31
0.0
  0
LINE
  5
60
330
A
100
AcDbEntity
  8
0
  6
Continuous
 62
     3
100
AcDbLine
 10
-207.021585145418
 20
4506.79737694997
 30
0.0
 11
-208.845849560018
 21
4504.97310974137
 31
0.0
  0
LINE
  5
5F
330
A
100
AcDbEntity
  8
0
  6
Continuous
 62
     3
100
AcDbLine
 10
-220.933717155218
 20
4506.79737694997
 30
0.0
 11
-220.933717155218
 21
4504.88524504437
 31
0.0
  0
LINE
  5
5E
330
A
100
AcDbEntity
  8
0
  6
Continuous
 62
     6
100
AcDbLine
 10
-220.933717155218
 20
4506.79737694997
 30
0.0
 11
-207.021585145418
 21
4506.79737694997
 31
0.0
  0
LINE
  5
5D
330
A
100
AcDbEntity
  8
0
  6
Continuous
 62
     3
100
AcDbLine
 10
-220.933717155218
 20
4574.885241766371
 30
0.0
 11
-220.933717155218
 21
4506.79737694997
 31
0.0
  0
LINE
  5
5C
330
A
100
AcDbEntity
  8
0
  6
Continuous
 62
     6
100
AcDbLine
 10
-207.021585145418
 20
4572.76097771217
 30
0.0
 11
-220.933717155218
 21
4572.76097771217
 31
0.0
  0
LINE
  5
5B
330
A
100
AcDbEntity
  8
1
  6
DOT_CENTER
 62
     1
100
AcDbLine
 10
-227.308242942471
 20
4539.77917733107
 30
0.0
 11
-200.538242942471
 21
4539.77917733107
 31
0.0
  0
LINE
  5
5A
330
A
100
AcDbEntity
  8
0
  6
DOTTED
 62
     1
100
AcDbLine
 10
-214.957925831583
 20
4515.539654871115
 30
0.0
 11
-206.933716723018
 21
4525.102534903973
 31
0.0
  0
LINE
  5
59
330
A
100
AcDbEntity
  8
0
  6
Continuous
 62
     3
100
AcDbLine
 10
-193.508113306199
 20
4548.946363877043
 30
0.0
 11
-206.933716723018
 21
4536.614467557153
 31
0.0
  0
LINE
  5
58
330
A
100
AcDbEntity
  8
0
  6
Continuous
 62
     3
100
AcDbLine
 10
-185.169557312588
 20
4551.506767241296
 30
0.0
 11
-190.110544093885
 21
4555.652747427135
 31
0.0
  0
LINE
  5
57
330
A
100
AcDbEntity
  8
0
  6
Continuous
 62
     3
100
AcDbLine
 10
-190.302055236074
 20
4555.81344435591
 30
0.0
 11
-190.110544093885
 21
4555.652747427135
 31
0.0
  0
LINE
  5
56
330
A
100
AcDbEntity
  8
0
  6
DOTTED
 62
     1
100
AcDbLine
 10
-218.850175758822
 20
4512.27860526452
 30
0.0
 11
-218.401676553337
 21
4511.902269746613
 31
0.0
  0
LINE
  5
55
330
A
100
AcDbEntity
  8
0
  6
DOTTED
 62
     1
100
AcDbLine
 10
-215.592455633792
 20
4527.71928189386
 30
0.0
 11
-217.803381630539
 21
4517.746444342618
 31
0.0
  0
LINE
  5
54
330
A
100
AcDbEntity
  8
1
  6
DOT_CENTER
 62
     1
100
AcDbLine
 10
-149.895241963589
 20
4516.885242064371
 30
0.0
 11
-95.755496969019
 21
4516.885242064371
 31
0.0
  0
LINE
  5
53
330
A
100
AcDbEntity
  8
1
  6
DOT_CENTER
 62
     1
100
AcDbLine
 10
-157.16461313388
 20
4539.77917733107
 30
0.0
 11
-130.39461313388
 21
4539.77917733107
 31
0.0
  0
LINE
  5
52
330
A
100
AcDbEntity
  8
0
  6
Continuous
 62
     6
100
AcDbLine
 10
-136.877955336828
 20
4572.76097771217
 30
0.0
 11
-150.790087346628
 21
4572.76097771217
 31
0.0
  0
LINE
  5
51
330
A
100
AcDbEntity
  8
0
  6
Continuous
 62
     3
100
AcDbLine
 10
-150.790087346628
 20
4574.885241766371
 30
0.0
 11
-150.790087346628
 21
4506.79737694997
 31
0.0
  0
LINE
  5
50
330
A
100
AcDbEntity
  8
0
  6
Continuous
 62
     6
100
AcDbLine
 10
-150.790087346628
 20
4506.79737694997
 30
0.0
 11
-136.877955336828
 21
4506.79737694997
 31
0.0
  0
LINE
  5
4F
330
A
100
AcDbEntity
  8
0
  6
Continuous
 62
     3
100
AcDbLine
 10
-150.790087346628
 20
4506.79737694997
 30
0.0
 11
-150.790087346628
 21
4504.88524504437
 31
0.0
  0
LINE
  5
4E
330
A
100
AcDbEntity
  8
0
  6
Continuous
 62
     3
100
AcDbLine
 10
-136.877955336828
 20
4506.79737694997
 30
0.0
 11
-138.702219751428
 21
4504.97310974137
 31
0.0
  0
LINE
  5
4D
330
A
100
AcDbEntity
  8
0
  6
Continuous
 62
     3
100
AcDbLine
 10
-138.702219751428
 20
4574.79737379877
 30
0.0
 11
-136.877955336828
 21
4572.973109711571
 31
0.0
  0
LINE
  5
4C
330
A
100
AcDbEntity
  8
0
  6
Continuous
 62
     3
100
AcDbLine
 10
-138.914351415628
 20
4574.885241766371
 30
0.0
 11
-150.790087346628
 21
4574.885241766371
 31
0.0
  0
LINE
  5
4B
330
A
100
AcDbEntity
  8
0
  6
Continuous
 62
     3
100
AcDbLine
 10
-150.790087346628
 20
4504.88524504437
 30
0.0
 11
-138.912948993186
 21
4504.88524504437
 31
0.0
  0
LINE
  5
4A
330
A
100
AcDbEntity
  8
1
  6
DOT_CENTER
 62
     1
100
AcDbLine
 10
193.059259368599
 20
4697.45605001009
 30
0.0
 11
193.059259368599
 21
4629.676815560139
 31
0.0
  0
LINE
  5
49
330
A
100
AcDbEntity
  8
1
  6
DOT_CENTER
 62
     1
100
AcDbLine
 10
-215.247547867222
 20
4526.885989051878
 30
0.0
 11
-208.402769465737
 21
4526.885989051878
 31
0.0
  0
LINE
  5
48
330
A
100
AcDbEntity
  8
1
  6
DOT_CENTER
 62
     1
100
AcDbLine
 10
-211.833716723018
 20
4530.63936250514
 30
0.0
 11
-211.833716723018
 21
4523.56533315241
 31
0.0
  0
LINE
  5
47
330
A
100
AcDbEntity
  8
0
  6
DOTTED
 62
     1
100
AcDbLine
 10
-206.933716723018
 20
4536.614467557153
 30
0.0
 11
-214.438135799153
 21
4529.721390567259
 31
0.0
  0
LINE
  5
46
330
A
100
AcDbEntity
  8
1
  6
DOTTED
 62
     1
100
AcDbLine
 10
-206.933717155015
 20
4507.00950583537
 30
0.0
 11
-206.933716723018
 21
4507.00950583537
 31
0.0
  0
LINE
  5
45
330
A
100
AcDbEntity
  8
0
  6
Continuous
 62
     3
100
AcDbLine
 10
-206.933716723018
 20
4572.76097771217
 30
0.0
 11
-206.933716723018
 21
4507.00950583537
 31
0.0
  0
LINE
  5
44
330
A
100
AcDbEntity
  8
0
  6
Continuous
 62
     3
100
AcDbLine
 10
-206.933716723018
 20
4525.102534903973
 30
0.0
 11
-185.132580251681
 21
4551.084117616326
 31
0.0
  0
LINE
  5
43
330
A
100
AcDbEntity
  8
1
  6
Continuous
 62
     3
100
AcDbLine
 10
-103.690086914428
 20
4520.38524206437
 30
0.0
 11
-136.790086914428
 21
4520.38524206437
 31
0.0
  0
LINE
  5
42
330
A
100
AcDbEntity
  8
1
  6
Continuous
 62
     3
100
AcDbLine
 10
-103.690086914428
 20
4513.38524206437
 30
0.0
 11
-136.790086914428
 21
4513.38524206437
 31
0.0
  0
LINE
  5
41
330
A
100
AcDbEntity
  8
1
  6
DOT_CENTER
 62
     1
100
AcDbLine
 10
-103.690086914428
 20
4523.093604594171
 30
0.0
 11
-103.690086914428
 21
4510.643604594171
 31
0.0
  0
LINE
  5
40
330
A
100
AcDbEntity
  8
1
  6
DOT_CENTER
 62
     1
100
AcDbLine
 10
-141.690086914428
 20
4523.419404558201
 30
0.0
 11
-141.690086914428
 21
4510.74343783736
 31
0.0
  0
LINE
  5
3F
330
A
100
AcDbEntity
  8
1
  6
DOTTED
 62
     1
100
AcDbLine
 10
-136.790086914428
 20
4520.38524206437
 30
0.0
 11
-146.690086914428
 21
4520.38524206437
 31
0.0
  0
LINE
  5
3E
330
A
100
AcDbEntity
  8
1
  6
DOTTED
 62
     1
100
AcDbLine
 10
-147.690086914428
 20
4519.38524206437
 30
0.0
 11
-147.690086914428
 21
4514.385242064371
 31
0.0
  0
LINE
  5
3D
330
A
100
AcDbEntity
  8
1
  6
DOTTED
 62
     1
100
AcDbLine
 10
-146.690086914428
 20
4513.38524206437
 30
0.0
 11
-136.790086914428
 21
4513.38524206437
 31
0.0
  0
LINE
  5
3C
330
A
100
AcDbEntity
  8
1
  6
DOTTED
 62
     1
100
AcDbLine
 10
-147.690086914428
 20
4519.38524206437
 30
0.0
 11
-146.690086914428
 21
4520.38524206437
 31
0.0
  0
LINE
  5
3B
330
A
100
AcDbEntity
  8
1
  6
DOTTED
 62
     1
100
AcDbLine
 10
-146.690086914428
 20
4513.38524206437
 30
0.0
 11
-147.690086914428
 21
4514.385242064371
 31
0.0
  0
LINE
  5
3A
330
A
100
AcDbEntity
  8
1
  6
DOTTED
 62
     1
100
AcDbLine
 10
-136.790087346424
 20
4507.00950583537
 30
0.0
 11
-136.790086914428
 21
4507.00950583537
 31
0.0
  0
LINE
  5
39
330
A
100
AcDbEntity
  8
0
  6
Continuous
 62
     3
100
AcDbLine
 10
-136.790086914428
 20
4572.76097771217
 30
0.0
 11
-136.790086914428
 21
4507.00950583537
 31
0.0
  0
LINE
  5
38
330
A
100
AcDbEntity
  8
1
  6
PHANTOM
 62
     1
100
AcDbLine
 10
50.05925847459899
 20
4645.045072609627
 30
0.0
 11
336.059260262599
 21
4645.045072609627
 31
0.0
  0
LINE
  5
37
330
A
100
AcDbEntity
  8
1
  6
DOT_CENTER
 62
     1
100
AcDbLine
 10
336.059260262599
 20
4641.545072609626
 30
0.0
 11
50.05925847459899
 21
4641.545072609626
 31
0.0
  0
LINE
  5
36
330
A
100
AcDbEntity
  8
1
  6
PHANTOM
 62
     1
100
AcDbLine
 10
336.059260262599
 20
4638.045072609627
 30
0.0
 11
50.05925847459899
 21
4638.045072609627
 31
0.0
  0
LINE
  5
35
330
A
100
AcDbEntity
  8
1
  6
PHANTOM
 62
     1
100
AcDbLine
 10
344.559260262599
 20
4653.545072609627
 30
0.0
 11
344.559260262599
 21
4674.645072177431
 31
0.0
  0
LINE
  5
34
330
A
100
AcDbEntity
  8
1
  6
PHANTOM
 62
     1
100
AcDbLine
 10
351.559260262599
 20
4674.645072177431
 30
0.0
 11
351.559260262599
 21
4653.545072609627
 31
0.0
  0
LINE
  5
33
330
A
100
AcDbEntity
  8
1
  6
DOT_CENTER
 62
     1
100
AcDbLine
 10
348.059260262599
 20
4687.059814839047
 30
0.0
 11
348.059260262599
 21
4653.545072609627
 31
0.0
  0
LINE
  5
32
330
A
100
AcDbEntity
  8
1
  6
PHANTOM
 62
     1
100
AcDbLine
 10
41.559258474599
 20
4674.645072177431
 30
0.0
 11
41.559258474599
 21
4653.545072609627
 31
0.0
  0
LINE
  5
31
330
A
100
AcDbEntity
  8
1
  6
PHANTOM
 62
     1
100
AcDbLine
 10
34.559258474599
 20
4653.545072609627
 30
0.0
 11
34.559258474599
 21
4674.645072177431
 31
0.0
  0
LINE
  5
30
330
A
100
AcDbEntity
  8
1
  6
DOT_CENTER
 62
     1
100
AcDbLine
 10
38.059258474599
 20
4653.545072609627
 30
0.0
 11
38.059258474599
 21
4687.059814839047
 31
0.0
  0
LINE
  5
2F
330
A
100
AcDbEntity
  8
1
  6
PHANTOM
 62
     1
100
AcDbLine
 10
11.059256079099
 20
4674.645072177431
 30
0.0
 11
11.059256079099
 21
4641.54507260963
 31
0.0
  0
LINE
  5
2E
330
A
100
AcDbEntity
  8
1
  6
PHANTOM
 62
     1
100
AcDbLine
 10
11.059256079099
 20
4641.54507260963
 30
0.0
 11
26.059255743899
 21
4641.54507260963
 31
0.0
  0
LINE
  5
2D
330
A
100
AcDbEntity
  8
1
  6
PHANTOM
 62
     1
100
AcDbLine
 10
26.059255743899
 20
4641.54507260963
 30
0.0
 11
26.059255743899
 21
4674.645072177431
 31
0.0
  0
LINE
  5
2C
330
A
100
AcDbEntity
  8
1
  6
PHANTOM
 62
     1
100
AcDbLine
 10
3.059259367709
 20
4674.645072609629
 30
0.0
 11
3.059259367709
 21
4674.645072177431
 31
0.0
  0
LINE
  5
2B
330
A
100
AcDbEntity
  8
1
  6
PHANTOM
 62
     1
100
AcDbLine
 10
360.059262993099
 20
4674.645072177431
 30
0.0
 11
360.059262993099
 21
4641.54507260963
 31
0.0
  0
LINE
  5
2A
330
A
100
AcDbEntity
  8
1
  6
PHANTOM
 62
     1
100
AcDbLine
 10
360.059262993099
 20
4641.54507260963
 30
0.0
 11
375.059262657899
 21
4641.54507260963
 31
0.0
  0
LINE
  5
29
330
A
100
AcDbEntity
  8
1
  6
PHANTOM
 62
     1
100
AcDbLine
 10
375.059262657899
 20
4641.54507260963
 30
0.0
 11
375.059262657899
 21
4674.645072177431
 31
0.0
  0
LINE
  5
28
330
A
100
AcDbEntity
  8
1
  6
DOT_CENTER
 62
     1
100
AcDbLine
 10
390.05926286698
 20
4564.779180907072
 30
0.0
 11
394.725717491064
 21
4564.779180907072
 31
0.0
  0
ENDSEC
  0
SECTION
  2
OBJECTS
  0
DICTIONARY
  5
19
330
0
100
AcDbDictionary
281
     1
  3
ACAD_COLOR
350
17D
  3
ACAD_GROUP
350
1A
  3
ACAD_LAYOUT
350
180
  3
ACAD_MATERIAL
350
17C
  3
ACAD_MLINESTYLE
350
1B
  3
ACAD_PLOTSETTINGS
350
181
  3
ACAD_PLOTSTYLENAME
350
17A
  3
ACAD_TABLESTYLE
350
17E
  3
ACDBHEADERROUNDTRIPXREC
350
2B3
  3
AcDbVariableDictionary
350
2AC
  3
AcmDictionary
350
246
  3
AMG
350
185
  3
AMGSNAPSETTINGS
350
29C
  3
ASE_INDEX_DICTIONARY
350
2A4
  3
DWGPROPS
350
2B2
  3
MAPISURF_MODULE
350
212
  0
DICTIONARY
  5
2A7
330
A
100
AcDbDictionary
280
     1
281
     1
  3
ACAD_INDEX
360
2A8
  0
DICTIONARY
  5
17D
102
{ACAD_REACTORS
330
19
102
}
330
19
100
AcDbDictionary
281
     1
  0
DICTIONARY
  5
1A
102
{ACAD_REACTORS
330
19
102
}
330
19
100
AcDbDictionary
281
     1
  0
DICTIONARY
  5
180
102
{ACAD_REACTORS
330
19
102
}
330
19
100
AcDbDictionary
281
     1
  3
Model
350
182
  3
レイアウト1
350
183
  0
DICTIONARY
  5
17C
102
{ACAD_REACTORS
330
19
102
}
330
19
100
AcDbDictionary
281
     1
  0
DICTIONARY
  5
1B
102
{ACAD_REACTORS
330
19
102
}
330
19
100
AcDbDictionary
281
     1
  3
STANDARD
350
1C
  0
DICTIONARY
  5
181
102
{ACAD_REACTORS
330
19
102
}
330
19
100
AcDbDictionary
281
     1
  0
ACDBDICTIONARYWDFLT
  5
17A
102
{ACAD_REACTORS
330
19
102
}
330
19
100
AcDbDictionary
281
     1
  3
Normal
350
17B
100
AcDbDictionaryWithDefault
340
17B
  0
DICTIONARY
  5
17E
102
{ACAD_REACTORS
330
19
102
}
330
19
100
AcDbDictionary
281
     1
  3
Standard
350
17F
  0
DICTIONARY
  5
2B3
102
{ACAD_REACTORS
330
19
102
}
330
19
100
AcDbDictionary
281
     1
  0
DICTIONARY
  5
2AC
102
{ACAD_REACTORS
330
19
102
}
330
19
100
AcDbDictionary
281
     1
  3
CTABLESTYLE
350
2AD
  3
DIMASSOC
350
2AF
  3
INDEXCTL
350
2AE
  3
PROJECTNAME
350
2B0
  0
DICTIONARY
  5
246
102
{ACAD_REACTORS
330
19
102
}
330
19
100
AcDbDictionary
281
     1
  3
AcmStdDictionary
350
252
  3
AMDTSECTSYM_ARROWCOLOR
350
271
  0
DICTIONARY
  5
185
102
{ACAD_REACTORS
330
19
102
}
330
19
100
AcDbDictionary
281
     1
  3
AcMgSettings
350
186
  0
DICTIONARY
  5
29C
102
{ACAD_REACTORS
330
19
102
}
330
19
100
AcDbDictionary
281
     1
  3
DIMENSION
350
2A1
  3
FEA
350
2A0
  3
HATCH (1)
350
29D
  3
HATCH (2)
350
29E
  3
SIMPLE WELD
350
2A2
  3
SYMBOLS
350
29F
  0
DICTIONARY
  5
2A4
102
{ACAD_REACTORS
330
19
102
}
330
19
100
AcDbDictionary
281
     1
  3
ASEBlockHierarchyIndexRecord
350
2A6
1001
DCO15
1040
1955685306.746
  0
XRECORD
  5
2B2
102
{ACAD_REACTORS
330
19
102
}
330
19
100
AcDbXrecord
280
     1
  1
DWGPROPS COOKIE
  2

  3

  4

  6

  7

  8

  9

300
AmdtFileType=84
301
=
302
=
303
=
304
=
305
=
306
=
307
=
308
=
309
=
 40
0.0003018518518519
 41
2305814.417176053
 42
2458438.458457709
  1

 90
        1
  0
DICTIONARY
  5
2A8
102
{ACAD_REACTORS
330
2A7
102
}
330
2A7
100
AcDbDictionary
281
     1
  3
*A1
350
2A9
  0
LAYOUT
  5
182
102
{ACAD_XDICTIONARY
360
2B4
102
}
102
{ACAD_REACTORS
330
180
102
}
330
180
100
AcDbPlotSettings
  1

  2
Adobe PDF#:3
  4

  6

 40
0.0
 41
0.0
 42
0.0
 43
0.0
 44
0.0
 45
0.0
 46
0.0
 47
0.0
 48
0.0
 49
0.0
140
0.0
141
0.0
142
1.0
143
1.0
 70
  1712
 72
     0
 73
     0
 74
     0
  7

 75
     0
147
1.0
148
0.0
149
0.0
100
AcDbLayout
  1
Model
 70
     1
 71
     0
 10
0.0
 20
0.0
 11
12.0
 21
9.0
 12
0.0
 22
0.0
 32
0.0
 14
0.0
 24
0.0
 34
0.0
 15
0.0
 25
0.0
 35
0.0
146
0.0
 13
0.0
 23
0.0
 33
0.0
 16
1.0
 26
0.0
 36
0.0
 17
0.0
 27
1.0
 37
0.0
 76
     0
330
A
  0
LAYOUT
  5
183
102
{ACAD_XDICTIONARY
360
2B6
102
}
102
{ACAD_REACTORS
330
180
102
}
330
180
100
AcDbPlotSettings
  1

  2
Adobe PDF#:3
  4

  6

 40
0.0
 41
0.0
 42
0.0
 43
0.0
 44
0.0
 45
0.0
 46
0.0
 47
0.0
 48
0.0
 49
0.0
140
0.0
141
0.0
142
1.0
143
1.0
 70
   688
 72
     0
 73
     0
 74
     5
  7

 75
    16
147
1.0
148
0.0
149
0.0
100
AcDbLayout
  1
レイアウト1
 70
     0
 71
     1
 10
0.0
 20
0.0
 11
12.0
 21
9.0
 12
0.0
 22
0.0
 32
0.0
 14
1.000000000000000E+20
 24
1.000000000000000E+20
 34
1.000000000000000E+20
 15
-1.000000000000000E+20
 25
-1.000000000000000E+20
 35
-1.000000000000000E+20
146
0.0
 13
0.0
 23
0.0
 33
0.0
 16
1.0
 26
0.0
 36
0.0
 17
0.0
 27
1.0
 37
0.0
 76
     0
330
B
  0
MLINESTYLE
  5
1C
102
{ACAD_REACTORS
330
1B
102
}
330
1B
100
AcDbMlineStyle
  2
STANDARD
 70
     0
  3

 62
     0
 51
90.0
 52
90.0
 71
     2
 49
0.5
 62
   256
  6
BYLAYER
 49
-0.5
 62
   256
  6
BYLAYER
  0
ACDBPLACEHOLDER
  5
17B
102
{ACAD_REACTORS
330
17A
102
}
330
17A
  0
TABLESTYLE
  5
17F
102
{ACAD_REACTORS
330
17E
102
}
330
17E
100
AcDbTableStyle
  3
Standard
 70
     0
 71
     0
 40
1.5
 41
1.5
280
     0
281
     0
  7
STANDARD
140
4.5
170
     2
 62
     0
 63
     7
283
     0
274
    -2
284
     1
 64
     0
275
    -2
285
     1
 65
     0
276
    -2
286
     1
 66
     0
277
    -2
287
     1
 67
     0
278
    -2
288
     1
 68
     0
279
    -2
289
     1
 69
     0
  7
STANDARD
140
6.0
170
     5
 62
     0
 63
     7
283
     0
274
    -2
284
     1
 64
     0
275
    -2
285
     1
 65
     0
276
    -2
286
     1
 66
     0
277
    -2
287
     1
 67
     0
278
    -2
288
     1
 68
     0
279
    -2
289
     1
 69
     0
  7
STANDARD
140
4.5
170
     5
 62
     0
 63
     7
283
     0
274
    -2
284
     1
 64
     0
275
    -2
285
     1
 65
     0
276
    -2
286
     1
 66
     0
277
    -2
287
     1
 67
     0
278
    -2
288
     1
 68
     0
279
    -2
289
     1
 69
     0
  0
DICTIONARYVAR
  5
2AD
102
{ACAD_REACTORS
330
2AC
102
}
330
2AC
100
DictionaryVariables
280
     0
  1
STANDARD
  0
DICTIONARYVAR
  5
2AF
102
{ACAD_REACTORS
330
2AC
102
}
330
2AC
100
DictionaryVariables
280
     0
  1
1
  0
DICTIONARYVAR
  5
2AE
102
{ACAD_REACTORS
330
2AC
102
}
330
2AC
100
DictionaryVariables
280
     0
  1
1
  0
DICTIONARYVAR
  5
2B0
102
{ACAD_REACTORS
330
2AC
102
}
330
2AC
100
DictionaryVariables
280
     0
  1

  0
DICTIONARY
  5
252
102
{ACAD_REACTORS
330
246
102
}
330
246
100
AcDbDictionary
281
     1
  0
XRECORD
  5
271
102
{ACAD_REACTORS
330
246
102
}
330
246
100
AcDbXrecord
280
     1
 90
-1023410169
  0
DICTIONARY
  5
186
102
{ACAD_REACTORS
330
185
102
}
330
185
100
AcDbDictionary
281
     1
  3
DWGSETTINGS
350
187
  3
TRANSSETTINGS
350
18B
  0
ACAMGFILTERDAT
  5
2A1
102
{ACAD_REACTORS
330
29C
102
}
330
29C
100
AcAmgFilterDat
 70
    15
  1
DIMENSION,AMDT_*_DIM
  2
*
  3
*
  4
*
  5
*
290
     1
  0
ACAMGFILTERDAT
  5
2A0
102
{ACAD_REACTORS
330
29C
102
}
330
29C
100
AcAmgFilterDat
 70
    15
  1
*
  2
AM_FEA-AM_*
  3
*
  4
*
  5
*
290
     1
  0
ACAMGFILTERDAT
  5
29D
102
{ACAD_REACTORS
330
29C
102
}
330
29C
100
AcAmgFilterDat
 70
    15
  1
HATCH
  2
*
  3
*
  4
*
  5
*
290
     1
  0
ACAMGFILTERDAT
  5
29E
102
{ACAD_REACTORS
330
29C
102
}
330
29C
100
AcAmgFilterDat
 70
    15
  1
LINE
  2
8,8N,*-8,*-8N,AM_8,AM_8N,*-AM_8,*-AM_8N
  3
*
  4
*
  5
INSERT,STDPART2D
290
     1
  0
ACAMGFILTERDAT
  5
2A2
102
{ACAD_REACTORS
330
29C
102
}
330
29C
100
AcAmgFilterDat
 70
    15
  1
ARC
  2
AM_5
  3
*
  4
2
  5
INSERT
290
     0
  0
ACAMGFILTERDAT
  5
29F
102
{ACAD_REACTORS
330
29C
102
}
330
29C
100
AcAmgFilterDat
 70
    15
  1
ACMFCFRAME,ACMDATUMTARGET,ACMDATUMID,ACMWELDSYM,ACMSURFSYM,ACMFEATID,ACMPARTREF,ACMBALLOON,AMDTEDGESYM,AMGSCREWCALCTABLE
  2
*
  3
*
  4
*
  5
*
290
     1
  0
XRECORD
  5
2A6
102
{ACAD_REACTORS
330
2A4
102
}
330
2A4
100
AcDbXrecord
280
     1
  0
LAYER_INDEX
  5
2A9
102
{ACAD_REACTORS
330
2A8
102
}
330
2A8
100
AcDbIndex
 40
2458438.458457709
100
AcDbLayerIndex
  8
0
360
2AA
 90
      251
  8
1
360
2AB
 90
       82
  0
DICTIONARY
  5
2B4
330
182
100
AcDbDictionary
280
     1
281
     1
  3
ACAD_XREC_ROUNDTRIP
360
2B5
  0
DICTIONARY
  5
2B6
330
183
100
AcDbDictionary
280
     1
281
     1
  3
ACAD_XREC_ROUNDTRIP
360
2B7
  0
IDBUFFER
  5
2AA
330
0
100
AcDbIdBuffer
330
51
330
50
330
4F
330
4E
330
4D
330
4C
330
4B
330
47
330
45
330
44
330
39
330
167
330
166
330
165
330
164
330
163
330
162
330
161
330
160
330
15F
330
15E
330
15D
330
15C
330
15B
330
15A
330
159
330
158
330
157
330
156
330
155
330
154
330
153
330
152
330
151
330
150
330
14F
330
14E
330
14D
330
14C
330
14B
330
14A
330
149
330
148
330
147
330
146
330
145
330
144
330
143
330
142
330
141
330
140
330
13F
330
13E
330
13D
330
13C
330
13B
330
13A
330
139
330
138
330
137
330
136
330
135
330
134
330
133
330
132
330
131
330
130
330
12F
330
12E
330
12D
330
12C
330
12B
330
12A
330
129
330
128
330
127
330
126
330
125
330
124
330
123
330
122
330
121
330
120
330
11B
330
11A
330
119
330
118
330
117
330
116
330
115
330
114
330
113
330
112
330
111
330
110
330
10F
330
10E
330
10D
330
10C
330
10B
330
10A
330
109
330
108
330
107
330
106
330
105
330
104
330
103
330
102
330
101
330
100
330
FF
330
FE
330
FD
330
FC
330
FB
330
FA
330
F9
330
F8
330
F7
330
F6
330
F5
330
F4
330
F3
330
F2
330
F1
330
F0
330
EF
330
EE
330
ED
330
EC
330
EB
330
EA
330
E9
330
E8
330
E7
330
E6
330
E5
330
E4
330
E3
330
E2
330
E1
330
E0
330
DF
330
DE
330
DD
330
DC
330
DB
330
DA
330
D9
330
D8
330
D7
330
D4
330
D3
330
D0
330
CF
330
CE
330
CD
330
CC
330
CB
330
CA
330
C9
330
C8
330
C7
330
C6
330
C5
330
C4
330
C3
330
C2
330
C1
330
C0
330
BB
330
BA
330
B9
330
B8
330
B7
330
B6
330
B5
330
B4
330
B3
330
B2
330
B1
330
AD
330
A4
330
9C
330
9B
330
9A
330
99
330
98
330
97
330
96
330
95
330
94
330
93
330
92
330
8C
330
8B
330
8A
330
89
330
88
330
87
330
86
330
85
330
84
330
83
330
82
330
81
330
80
330
7F
330
7E
330
7D
330
7C
330
7B
330
7A
330
79
330
78
330
77
330
76
330
75
330
74
330
73
330
72
330
71
330
70
330
6F
330
6E
330
6D
330
6C
330
6B
330
6A
330
69
330
68
330
67
330
66
330
65
330
64
330
63
330
62
330
61
330
60
330
5F
330
5E
330
5D
330
5C
330
5A
330
59
330
58
330
57
330
56
330
55
330
52
  0
IDBUFFER
  5
2AB
330
0
100
AcDbIdBuffer
330
5B
330
54
330
53
330
4A
330
49
330
48
330
46
330
43
330
42
330
41
330
40
330
3F
330
3E
330
3D
330
3C
330
3B
330
3A
330
38
330
37
330
36
330
35
330
34
330
33
330
32
330
31
330
30
330
2F
330
2E
330
2D
330
2C
330
2B
330
2A
330
29
330
28
330
175
330
173
330
172
330
171
330
170
330
16F
330
16E
330
16D
330
16C
330
16B
330
16A
330
169
330
168
330
11F
330
11E
330
11D
330
11C
330
D6
330
D5
330
D2
330
D1
330
BF
330
BE
330
BD
330
BC
330
B0
330
AF
330
AE
330
AC
330
AB
330
AA
330
A9
330
A8
330
A7
330
A6
330
A5
330
A3
330
A2
330
A1
330
A0
330
9F
330
9E
330
9D
330
91
330
90
330
8F
330
8E
330
8D
  0
XRECORD
  5
2B5
102
{ACAD_REACTORS
330
2B4
102
}
330
2B4
100
AcDbXrecord
280
     1
102
SHADEPLOT
 70
     0
102
SHADEPLOTRESLEVEL
 70
     2
102
SHADEPLOTCUSTOMDPI
 70
   300
  0
XRECORD
  5
2B7
102
{ACAD_REACTORS
330
2B6
102
}
330
2B6
100
AcDbXrecord
280
     1
102
SHADEPLOT
 70
     0
102
SHADEPLOTRESLEVEL
 70
     2
102
SHADEPLOTCUSTOMDPI
 70
   300
  0
ENDSEC
  0
EOF
