  0
SECTION
  2
HEADER
  9
$ACADVER
  1
AC1015
  9
$ACADMAINTVER
 70
    20
  9
$DWGCODEPAGE
  3
ANSI_932
  9
$INSBASE
 10
0.0
 20
0.0
 30
0.0
  9
$EXTMIN
 10
39.768166414353
 20
445.562621766261
 30
0.0
  9
$EXTMAX
 10
443.2523631358869
 20
597.934924874664
 30
0.0
  9
$LIMMIN
 10
0.0
 20
0.0
  9
$LIMMAX
 10
0.0
 20
0.0
  9
$ORTHOMODE
 70
     0
  9
$REGENMODE
 70
     1
  9
$FILLMODE
 70
     1
  9
$QTEXTMODE
 70
     0
  9
$MIRRTEXT
 70
     1
  9
$LTSCALE
 40
1.0
  9
$ATTMODE
 70
     1
  9
$TEXTSIZE
 40
0.0
  9
$TRACEWID
 40
0.05
  9
$TEXTSTYLE
  7
STANDARD
  9
$CLAYER
  8
0
  9
$CELTYPE
  6
CONTINUOUS
  9
$CECOLOR
 62
   256
  9
$CELTSCALE
 40
1.0
  9
$DISPSILH
 70
     0
  9
$DIMSCALE
 40
1.0
  9
$DIMASZ
 40
0.18
  9
$DIMEXO
 40
0.0625
  9
$DIMDLI
 40
0.38
  9
$DIMRND
 40
0.0
  9
$DIMDLE
 40
0.0
  9
$DIMEXE
 40
0.18
  9
$DIMTP
 40
0.0
  9
$DIMTM
 40
0.0
  9
$DIMTXT
 40
0.18
  9
$DIMCEN
 40
0.09
  9
$DIMTSZ
 40
0.0
  9
$DIMTOL
 70
     0
  9
$DIMLIM
 70
     0
  9
$DIMTIH
 70
     1
  9
$DIMTOH
 70
     1
  9
$DIMSE1
 70
     0
  9
$DIMSE2
 70
     0
  9
$DIMTAD
 70
     0
  9
$DIMZIN
 70
     0
  9
$DIMBLK
  1

  9
$DIMASO
 70
     1
  9
$DIMSHO
 70
     1
  9
$DIMPOST
  1

  9
$DIMAPOST
  1

  9
$DIMALT
 70
     0
  9
$DIMALTD
 70
     2
  9
$DIMALTF
 40
25.4
  9
$DIMLFAC
 40
1.0
  9
$DIMTOFL
 70
     0
  9
$DIMTVP
 40
0.0
  9
$DIMTIX
 70
     0
  9
$DIMSOXD
 70
     0
  9
$DIMSAH
 70
     0
  9
$DIMBLK1
  1

  9
$DIMBLK2
  1

  9
$DIMSTYLE
  2
STANDARD
  9
$DIMCLRD
 70
     0
  9
$DIMCLRE
 70
     0
  9
$DIMCLRT
 70
     0
  9
$DIMTFAC
 40
1.0
  9
$DIMGAP
 40
0.09
  9
$DIMJUST
 70
     0
  9
$DIMSD1
 70
     0
  9
$DIMSD2
 70
     0
  9
$DIMTOLJ
 70
     1
  9
$DIMTZIN
 70
     0
  9
$DIMALTZ
 70
     0
  9
$DIMALTTZ
 70
     0
  9
$DIMUPT
 70
     0
  9
$DIMDEC
 70
     4
  9
$DIMTDEC
 70
     4
  9
$DIMALTU
 70
     2
  9
$DIMALTTD
 70
     2
  9
$DIMTXSTY
  7
STANDARD
  9
$DIMAUNIT
 70
     0
  9
$DIMADEC
 70
     0
  9
$DIMALTRND
 40
0.0
  9
$DIMAZIN
 70
     0
  9
$DIMDSEP
 70
    46
  9
$DIMATFIT
 70
     3
  9
$DIMFRAC
 70
     0
  9
$DIMLDRBLK
  1

  9
$DIMLUNIT
 70
     2
  9
$DIMLWD
 70
    -2
  9
$DIMLWE
 70
    -2
  9
$DIMTMOVE
 70
     0
  9
$LUNITS
 70
     2
  9
$LUPREC
 70
     2
  9
$SKETCHINC
 40
0.1
  9
$FILLETRAD
 40
0.0
  9
$AUNITS
 70
     0
  9
$AUPREC
 70
     0
  9
$MENU
  1
acad
  9
$ELEVATION
 40
0.0
  9
$PELEVATION
 40
0.0
  9
$THICKNESS
 40
0.0
  9
$LIMCHECK
 70
     0
  9
$CHAMFERA
 40
0.0
  9
$CHAMFERB
 40
0.0
  9
$CHAMFERC
 40
0.0
  9
$CHAMFERD
 40
0.0
  9
$SKPOLY
 70
     0
  9
$TDCREATE
 40
2305814.417176053
  9
$TDUCREATE
 40
6.0000000000
  9
$TDUPDATE
 40
2458197.687411899
  9
$TDUUPDATE
 40
2458197.312411898
  9
$TDINDWG
 40
0.0003027431
  9
$TDUSRTIMER
 40
0.0003021991
  9
$USRTIMER
 70
     1
  9
$ANGBASE
 50
0.0
  9
$ANGDIR
 70
     0
  9
$PDMODE
 70
     0
  9
$PDSIZE
 40
0.0
  9
$PLINEWID
 40
0.0
  9
$SPLFRAME
 70
     0
  9
$SPLINETYPE
 70
     6
  9
$SPLINESEGS
 70
     8
  9
$HANDSEED
  5
40B
  9
$SURFTAB1
 70
     6
  9
$SURFTAB2
 70
     6
  9
$SURFTYPE
 70
     6
  9
$SURFU
 70
     6
  9
$SURFV
 70
     6
  9
$UCSBASE
  2

  9
$UCSNAME
  2

  9
$UCSORG
 10
0.0
 20
0.0
 30
0.0
  9
$UCSXDIR
 10
1.0
 20
0.0
 30
0.0
  9
$UCSYDIR
 10
0.0
 20
1.0
 30
0.0
  9
$UCSORTHOREF
  2

  9
$UCSORTHOVIEW
 70
     0
  9
$UCSORGTOP
 10
0.0
 20
0.0
 30
0.0
  9
$UCSORGBOTTOM
 10
0.0
 20
0.0
 30
0.0
  9
$UCSORGLEFT
 10
0.0
 20
0.0
 30
0.0
  9
$UCSORGRIGHT
 10
0.0
 20
0.0
 30
0.0
  9
$UCSORGFRONT
 10
0.0
 20
0.0
 30
0.0
  9
$UCSORGBACK
 10
0.0
 20
0.0
 30
0.0
  9
$PUCSBASE
  2

  9
$PUCSNAME
  2

  9
$PUCSORG
 10
0.0
 20
0.0
 30
0.0
  9
$PUCSXDIR
 10
1.0
 20
0.0
 30
0.0
  9
$PUCSYDIR
 10
0.0
 20
1.0
 30
0.0
  9
$PUCSORTHOREF
  2

  9
$PUCSORTHOVIEW
 70
     0
  9
$PUCSORGTOP
 10
0.0
 20
0.0
 30
0.0
  9
$PUCSORGBOTTOM
 10
0.0
 20
0.0
 30
0.0
  9
$PUCSORGLEFT
 10
0.0
 20
0.0
 30
0.0
  9
$PUCSORGRIGHT
 10
0.0
 20
0.0
 30
0.0
  9
$PUCSORGFRONT
 10
0.0
 20
0.0
 30
0.0
  9
$PUCSORGBACK
 10
0.0
 20
0.0
 30
0.0
  9
$USERI1
 70
     0
  9
$USERI2
 70
     0
  9
$USERI3
 70
     0
  9
$USERI4
 70
     0
  9
$USERI5
 70
     0
  9
$USERR1
 40
0.0
  9
$USERR2
 40
0.0
  9
$USERR3
 40
0.0
  9
$USERR4
 40
0.0
  9
$USERR5
 40
0.0
  9
$WORLDVIEW
 70
     1
  9
$SHADEDGE
 70
     3
  9
$SHADEDIF
 70
    70
  9
$TILEMODE
 70
     1
  9
$MAXACTVP
 70
    16
  9
$PINSBASE
 10
0.0
 20
0.0
 30
0.0
  9
$PLIMCHECK
 70
     0
  9
$PEXTMIN
 10
1.000000000000000E+20
 20
1.000000000000000E+20
 30
1.000000000000000E+20
  9
$PEXTMAX
 10
-1.000000000000000E+20
 20
-1.000000000000000E+20
 30
-1.000000000000000E+20
  9
$PLIMMIN
 10
0.0
 20
0.0
  9
$PLIMMAX
 10
12.0
 20
9.0
  9
$UNITMODE
 70
     0
  9
$VISRETAIN
 70
     0
  9
$PLINEGEN
 70
     1
  9
$PSLTSCALE
 70
     0
  9
$TREEDEPTH
 70
  3020
  9
$CMLSTYLE
  2
STANDARD
  9
$CMLJUST
 70
     0
  9
$CMLSCALE
 40
1.0
  9
$PROXYGRAPHICS
 70
     0
  9
$MEASUREMENT
 70
     1
  9
$CELWEIGHT
370
    -1
  9
$ENDCAPS
280
     0
  9
$JOINSTYLE
280
     0
  9
$LWDISPLAY
290
     0
  9
$INSUNITS
 70
     0
  9
$HYPERLINKBASE
  1

  9
$STYLESHEET
  1

  9
$XEDIT
290
     1
  9
$CEPSNTYPE
380
     0
  9
$PSTYLEMODE
290
     1
  9
$FINGERPRINTGUID
  2
{731370D4-790A-4E79-BBA2-4588DA3994FF}
  9
$VERSIONGUID
  2
{8CB3406A-8D2A-4D02-B1A8-A14622457278}
  9
$EXTNAMES
290
     1
  9
$PSVPSCALE
 40
0.0
  9
$OLESTARTUP
290
     0
  0
ENDSEC
  0
SECTION
  2
CLASSES
  0
CLASS
  1
IMAGE
  2
AcDbRasterImage
  3
ISM
 90
    32895
280
     0
281
     1
  0
CLASS
  1
DICTIONARYVAR
  2
AcDbDictionaryVar
  3
ObjectDBX Classes
 90
        0
280
     0
281
     0
  0
CLASS
  1
RASTERVARIABLES
  2
AcDbRasterVariables
  3
ISM
 90
    32768
280
     0
281
     0
  0
CLASS
  1
IMAGEDEF
  2
AcDbRasterImageDef
  3
ISM
 90
    32768
280
     0
281
     0
  0
CLASS
  1
IMAGEDEF_REACTOR
  2
AcDbRasterImageDefReactor
  3
ISM
 90
    32769
280
     0
281
     0
  0
CLASS
  1
IDBUFFER
  2
AcDbIdBuffer
  3
ObjectDBX Classes
 90
        0
280
     0
281
     0
  0
CLASS
  1
SPATIAL_FILTER
  2
AcDbSpatialFilter
  3
ObjectDBX Classes
 90
    32768
280
     0
281
     0
  0
CLASS
  1
SORTENTSTABLE
  2
AcDbSortentsTable
  3
ObjectDBX Classes
 90
    32768
280
     0
281
     0
  0
CLASS
  1
LAYER_INDEX
  2
AcDbLayerIndex
  3
ObjectDBX Classes
 90
        0
280
     0
281
     0
  0
CLASS
  1
SPATIAL_INDEX
  2
AcDbSpatialIndex
  3
ObjectDBX Classes
 90
    32768
280
     0
281
     0
  0
CLASS
  1
OBJECT_PTR
  2
CAseDLPNTableRecord
  3
ASE-LPNTableRecord
 90
    32769
280
     0
281
     0
  0
CLASS
  1
LAYOUT
  2
AcDbLayout
  3
ObjectDBX Classes
 90
        0
280
     0
281
     0
  0
CLASS
  1
PLOTSETTINGS
  2
AcDbPlotSettings
  3
ObjectDBX Classes
 90
    32768
280
     0
281
     0
  0
CLASS
  1
ACDBDICTIONARYWDFLT
  2
AcDbDictionaryWithDefault
  3
ObjectDBX Classes
 90
        0
280
     0
281
     0
  0
CLASS
  1
ACDBPLACEHOLDER
  2
AcDbPlaceHolder
  3
ObjectDBX Classes
 90
        0
280
     0
281
     0
  0
CLASS
  1
VBA_PROJECT
  2
AcDbVbaProject
  3
acad
 90
    32768
280
     0
281
     0
  0
CLASS
  1
WIPEOUT
  2
AcDbWipeout
  3
"WipeOut|Product Desc: Object Enabler for WipeOut entity^I^I^I^I^I^I|Company: Autodesk, Inc.^I^I^I^I^I^I|WEB Address: www.autodesk.com"
 90
    32895
280
     0
281
     1
  0
CLASS
  1
WIPEOUTVARIABLES
  2
AcDbWipeoutVariables
  3
"WipeOut|Product Desc:     WipeOut Dbx Application|Company:          Autodesk, Inc.|WEB Address:      www.autodesk.com"
 90
    32768
280
     0
281
     0
  0
CLASS
  1
RTEXT
  2
RText
  3
RText|AutoCAD Express Tool|expresstools@autodesk.com
 90
    32768
280
     0
281
     1
  0
CLASS
  1
ARCALIGNEDTEXT
  2
AcDbArcAlignedText
  3
ATEXT|AutoCAD Express Tool|expresstools@autodesk.com
 90
    32768
280
     0
281
     1
  0
CLASS
  1
TABLESTYLE
  2
AcDbTableStyle
  3
ObjectDBX Classes
 90
     2047
280
     0
281
     0
  0
CLASS
  1
AMGSETTINGSOBJ
  2
AmgSettingsObj
  3
"AcadM|Product Description: AutoCAD Mechanical 2000|Company: Autodesk"
 90
        0
280
     0
281
     0
  0
CLASS
  1
ACME_DOCUMENT
  2
AcMeDbDoc
  3
AcMeServices
 90
        0
280
     0
281
     0
  0
CLASS
  1
ACMESCOPE
  2
AcMeScope
  3
AcMeServices
 90
        0
280
     0
281
     0
  0
CLASS
  1
ACMECOMMANDHISTORY
  2
AcMeCommandHistory
  3
AcMeServices
 90
        0
280
     0
281
     0
  0
CLASS
  1
ACIMSYSVARMAN
  2
AcImSysVarManager
  3
AcMeServices
 90
        0
280
     0
281
     0
  0
CLASS
  1
ACIMREALSYSVAR
  2
AcImRealSysVar
  3
AcMeServices
 90
        0
280
     0
281
     0
  0
CLASS
  1
ACIMINTSYSVAR
  2
AcImIntSysVar
  3
AcMeServices
 90
        0
280
     0
281
     0
  0
CLASS
  1
ACMEDRAWINGMAN
  2
AcMeDrawingMan
  3
AcMeServices
 90
        0
280
     0
281
     0
  0
CLASS
  1
ACMEVIEW
  2
AcMeView
  3
AcMeServices
 90
        0
280
     0
281
     0
  0
CLASS
  1
ACDBENTITYCACHE
  2
AcMeEntityCache
  3
AcMeServices
 90
        0
280
     0
281
     0
  0
CLASS
  1
GSMANAGER
  2
AcMeGSManager
  3
AcMeServices
 90
        0
280
     0
281
     0
  0
CLASS
  1
AMDTINTERNALREACTOR
  2
AmdtInternalReactor
  3
AcMeServices
 90
        0
280
     0
281
     0
  0
CLASS
  1
ACMESTATEMGR
  2
AcMeStateMgr
  3
AcMeServices
 90
        0
280
     0
281
     0
  0
CLASS
  1
ACGREFMASTER
  2
AcGrefMaster
  3
AcAttribServices
 90
        0
280
     0
281
     0
  0
CLASS
  1
AM_DRAWING_MGR
  2
AcDmDwgMgr
  3
AcMechDwgViewMgmt
 90
        0
280
     0
281
     0
  0
CLASS
  1
AM_DWG_DOCUMENT
  2
AcDmDwgDocument
  3
AcMechDwgViewMgmt
 90
        0
280
     0
281
     0
  0
CLASS
  1
AM_DWG_SHEET
  2
AcDmSheet
  3
AcMechDwgViewMgmt
 90
        0
280
     0
281
     0
  0
CLASS
  1
AM_VIEWDIMPARMAP
  2
AcDmViewDimParMap
  3
AcMechDwgViewMgmt
 90
        0
280
     0
281
     0
  0
CLASS
  1
AM_DWGMGR_NAME
  2
AcDmDwgMgrName
  3
AcMechDwgViewMgmt
 90
        0
280
     0
281
     0
  0
CLASS
  1
ACME_DATABASE
  2
AcMeDbDatabase
  3
AcMeServices
 90
        0
280
     0
281
     0
  0
CLASS
  1
ACRFINSADJUSTERMGR
  2
AcRfInsAdjusterMgr
  3
AcMeServices
 90
        0
280
     0
281
     0
  0
CLASS
  1
ACGREFACADMASTER
  2
AcGrefacadMaster
  3
AcGrefServices
 90
        0
280
     0
281
     0
  0
CLASS
  1
AMDTMENUSTATEMGR
  2
AmdtMenuStateMgr
  3
McadcomServices
 90
        0
280
     0
281
     0
  0
CLASS
  1
AMDTMCOMMENUSTATE
  2
AmdtMcomMenuState
  3
McadcomServices
 90
        0
280
     0
281
     0
  0
CLASS
  1
AMIMASTER
  2
AmiMaster
  3
AmiServices
 90
        0
280
     0
281
     0
  0
CLASS
  1
ASAPP
  2
AcAsAppObject
  3
AutoSurfServices
 90
        0
280
     0
281
     0
  0
CLASS
  1
IM_STATIC_MAN
  2
AcImStaticVarManager
  3
AcMeServices
 90
        0
280
     0
281
     0
  0
CLASS
  1
ACIMSTRSYSVAR
  2
AcImStrSysVar
  3
AcMeServices
 90
        0
280
     0
281
     0
  0
CLASS
  1
ACIMDBLSTATICVAR
  2
AcImDblStaticVar
  3
AcMeServices
 90
        0
280
     0
281
     0
  0
CLASS
  1
ACIMSTRSTATICVAR
  2
AcImStrStaticVar
  3
AcMeServices
 90
        0
280
     0
281
     0
  0
CLASS
  1
ACIMINTSTATICVAR
  2
AcImIntStaticVar
  3
AcMeServices
 90
        0
280
     0
281
     0
  0
CLASS
  1
ACASGREFMASTER
  2
AcAsGrefMaster
  3
AutoSurfResolverServices
 90
        0
280
     0
281
     0
  0
CLASS
  1
ACADGREFMODULE
  2
AcAdGrefModule
  3
AdGrefServices
 90
        0
280
     0
281
     0
  0
CLASS
  1
AMDTMAPISURFMOUDULE
  2
AmdtMApiSurfModule
  3
MApiSurfServices
 90
        0
280
     0
281
     0
  0
CLASS
  1
MAPIAMMOUDLE
  2
MApiAmModule
  3
MApiAmServices
 90
        0
280
     0
281
     0
  0
CLASS
  1
AMDTADMENUSTATE
  2
AmdtAdMenuState
  3
DesignerServices
 90
        0
280
     0
281
     0
  0
CLASS
  1
ADAPPL
  2
AcAdAppl
  3
DesignerServices
 90
        0
280
     0
281
     0
  0
CLASS
  1
DEPMGR
  2
AcAdDepMgr
  3
DesignerServices
 90
        0
280
     0
281
     0
  0
CLASS
  1
PARAMMGR
  2
AcAdParamMgr
  3
DesignerServices
 90
        0
280
     0
281
     0
  0
CLASS
  1
PARAMSCOPE
  2
AcAdParamScope
  3
DesignerServices
 90
        0
280
     0
281
     0
  0
CLASS
  1
NAMEDAPPL
  2
AcAdNamedAppl
  3
DesignerServices
 90
        0
280
     0
281
     0
  0
CLASS
  1
AMDTDMMENUSTATE
  2
AmdtDmMenuState
  3
AcMechDwgViewMgmt
 90
        0
280
     0
281
     0
  0
CLASS
  1
MAPIADMODULE
  2
MApiAdModule
  3
MApiAdServices
 90
        0
280
     0
281
     0
  0
CLASS
  1
AMDTAMMENUSTATE
  2
AmdtAmMenuState
  3
DesignerAssemblies
 90
        0
280
     0
281
     0
  0
CLASS
  1
ACAMPROJECT
  2
AcAmProject
  3
DesignerAssemblies
 90
        0
280
     0
281
     0
  0
CLASS
  1
ACAMGRCOMPDEF
  2
AcAmGrCompDef
  3
DesignerAssemblies
 90
        0
280
     0
281
     0
  0
CLASS
  1
ACCMCONTEXT
  2
AcCmContext
  3
DesignerAssemblies
 90
        0
280
     0
281
     0
  0
CLASS
  1
ACAMCOMPDEF
  2
AcAmCompDef
  3
DesignerAssemblies
 90
        0
280
     0
281
     0
  0
CLASS
  1
ACAMCOMPDEFMGR
  2
AcAmCompDefMgr
  3
DesignerAssemblies
 90
        0
280
     0
281
     0
  0
CLASS
  1
AMCONTEXTMGR
  2
AcAmContextMgr
  3
DesignerAssemblies
 90
        0
280
     0
281
     0
  0
CLASS
  1
ACAMCONTEXTMODELER
  2
AcAmContextModeler
  3
DesignerAssemblies
 90
        0
280
     0
281
     0
  0
CLASS
  1
ACMDATADICTIONARY
  2
AcmDataDictionary
  3
"AcmSymBB|Product Description: AutoCAD Mechanical 2004 DX|Company: Autodesk"
 90
        0
280
     0
281
     0
  0
CLASS
  1
ACMDATAENTRYBLOCK
  2
AcmDataEntryBlock
  3
"AcmSymBB|Product Description: AutoCAD Mechanical 2004 DX|Company: Autodesk"
 90
        0
280
     0
281
     0
  0
CLASS
  1
CATALOGSTATE
  2
AcAmCatalogState
  3
DesignerAssemblies
 90
        0
280
     0
281
     0
  0
CLASS
  1
ACAMGRCOMPDEFSET
  2
AcAmGrCompDefSet
  3
DesignerAssemblies
 90
        0
280
     0
281
     0
  0
CLASS
  1
AMDTBROWSERDBTAB
  2
AmdtBrowserDbTab
  3
McadcomServices
 90
        0
280
     0
281
     0
  0
CLASS
  1
CBROWSERAPPOBJECT
  2
CBrowserAppObject
  3
McadcomServices
 90
        0
280
     0
281
     0
  0
CLASS
  1
DM_PLACEHOLDER
  2
AcDmSelsetPlaceholder
  3
AcMechDwgViewMgmt
 90
        0
280
     0
281
     0
  0
CLASS
  1
ACMSTANDARDISO
  2
AcmStandardISO
  3
"Amdt_StdImp|Product Description: AutoCAD Mechanical 2004 DX|Company: Autodesk"
 90
        0
280
     0
281
     0
  0
CLASS
  1
AMGOBJPROPCFG
  2
AmgObjPropCfg
  3
"AmgLay|Product Description: AutoCAD Mechanical 2000|Company: Autodesk"
 90
        1
280
     0
281
     0
  0
CLASS
  1
AMDTEDGESTANDARDISO13715
  2
AmdtEdgeStdISO13715
  3
"Amdt_StdImp|Product Description: AutoCAD Mechanical 2004 DX|Company: Autodesk"
 90
        0
280
     0
281
     0
  0
CLASS
  1
ACMSURFSTANDARDISO
  2
AcmSurfTextStdISO
  3
"Amdt_StdImp|Product Description: AutoCAD Mechanical 2004 DX|Company: Autodesk"
 90
        0
280
     0
281
     0
  0
CLASS
  1
ACMFCFSTANDARDISO
  2
AcmFCFStdISO
  3
"Amdt_StdImp|Product Description: AutoCAD Mechanical 2004 DX|Company: Autodesk"
 90
        0
280
     0
281
     0
  0
CLASS
  1
ACMWELDSTANDARDISO
  2
AcmWeldingStdISO
  3
"Amdt_StdImp|Product Description: AutoCAD Mechanical 2004 DX|Company: Autodesk"
 90
        0
280
     0
281
     0
  0
CLASS
  1
ACMIDSTANDARDISO
  2
AcmIdStdISO
  3
"Amdt_StdImp|Product Description: AutoCAD Mechanical 2004 DX|Company: Autodesk"
 90
        0
280
     0
281
     0
  0
CLASS
  1
ACMDATUMSTANDARDISO
  2
AcmDatumStdISO
  3
"Amdt_StdImp|Product Description: AutoCAD Mechanical 2004 DX|Company: Autodesk"
 90
        0
280
     0
281
     0
  0
CLASS
  1
ACMBOMSTANDARDISO
  2
AcmBOMStdISO
  3
"Amdt_StdImp|Product Description: AutoCAD Mechanical 2004 DX|Company: Autodesk"
 90
        0
280
     0
281
     0
  0
CLASS
  1
ACMDETAILSTANDARDISO
  2
AmdtDetailSymStdISO
  3
"Amdt_StdImp|Product Description: AutoCAD Mechanical 2004 DX|Company: Autodesk"
 90
        0
280
     0
281
     0
  0
CLASS
  1
ACMSECTIONSTANDARDISO
  2
AmdtSectionSymStdISO
  3
"Amdt_StdImp|Product Description: AutoCAD Mechanical 2004 DX|Company: Autodesk"
 90
        0
280
     0
281
     0
  0
CLASS
  1
ACMCENTERLINESTANDARDISO
  2
AmdtCenterLineStdISO
  3
"Amdt_StdImp|Product Description: AutoCAD Mechanical 2004 DX|Company: Autodesk"
 90
        0
280
     0
281
     0
  0
CLASS
  1
ACMTHREADLINESTANDARDISO
  2
AmdtThreadLineStdISO
  3
"Amdt_StdImp|Product Description: AutoCAD Mechanical 2004 DX|Company: Autodesk"
 90
        0
280
     0
281
     0
  0
CLASS
  1
ACMNOTESTANDARDISO
  2
AmdtNoteStdISO
  3
"Amdt_StdImp|Product Description: AutoCAD Mechanical 2004 DX|Company: Autodesk"
 90
        0
280
     0
281
     0
  0
CLASS
  1
AMDTNOTETEMPLATEDB
  2
AmdtNoteTemplateDB
  3
AMDT_STDIMP_MODULE_NAME
 90
        0
280
     0
281
     0
  0
CLASS
  1
ACAMGLAYSTD
  2
AcAmgLayStd
  3
"AcAmgLayStd|Product Description: AutoCAD Mechanical 2000|Company: Autodesk"
 90
        0
280
     0
281
     0
  0
CLASS
  1
ACAMGDIMSTD
  2
AcAmgDimStd
  3
"AcAmgDimStd|Product Description: AutoCAD Mechanical 2000|Company: Autodesk"
 90
        0
280
     0
281
     0
  0
CLASS
  1
ACAMGHOLECHARTSTDISO
  2
AcAmgHoleChartStdISO
  3
ACMSYMBB_MODULE_NAME
 90
        0
280
     0
281
     0
  0
CLASS
  1
ACAMGTITLESTD
  2
AcAmgTitleStd
  3
"TITLEAPP"
 90
        0
280
     0
281
     0
  0
CLASS
  1
ACAMGFILTERDAT
  2
AcAmgFilterDat
  3
"AcadM|Product Description: AutoCAD Mechanical 2000|Company: Autodesk"
 90
        0
280
     0
281
     0
  0
ENDSEC
  0
SECTION
  2
TABLES
  0
TABLE
  2
VPORT
  5
7
330
0
100
AcDbSymbolTable
 70
     3
  0
VPORT
  5
404
330
7
100
AcDbSymbolTableRecord
100
AcDbViewportTableRecord
  2
*Active
 70
     0
 10
0.0
 20
0.0
 11
1.0
 21
1.0
 12
232.9736218530839
 22
517.1695893204624
 13
0.0
 23
0.0
 14
1.0
 24
1.0
 15
0.0
 25
0.0
 16
0.0
 26
0.0
 36
1.0
 17
8.53664292203609
 27
4.579183999999999
 37
0.0
 40
364.7455418924486
 41
1.113389626055488
 42
50.0
 43
0.0
 44
0.0
 50
0.0
 51
0.0
 71
     0
 72
   100
 73
     1
 74
     1
 75
     0
 76
     0
 77
     0
 78
     0
281
     0
 65
     0
110
0.0
120
0.0
130
0.0
111
1.0
121
0.0
131
0.0
112
0.0
122
1.0
132
0.0
 79
     0
146
0.0
  0
ENDTAB
  0
TABLE
  2
LTYPE
  5
4
330
0
100
AcDbSymbolTable
 70
    23
  0
LTYPE
  5
11
330
4
100
AcDbSymbolTableRecord
100
AcDbLinetypeTableRecord
  2
BYBLOCK
 70
     0
  3

 72
    65
 73
     0
 40
0.0
  0
LTYPE
  5
12
330
4
100
AcDbSymbolTableRecord
100
AcDbLinetypeTableRecord
  2
BYLAYER
 70
     0
  3

 72
    65
 73
     0
 40
0.0
  0
LTYPE
  5
13
330
4
100
AcDbSymbolTableRecord
100
AcDbLinetypeTableRecord
  2
CONTINUOUS
 70
     0
  3
Solid line
 72
    65
 73
     0
 40
0.0
  0
LTYPE
  5
1D
330
4
100
AcDbSymbolTableRecord
100
AcDbLinetypeTableRecord
  2
DASHED
 70
     0
  3
Dashed
 72
    65
 73
     2
 40
15.0
 49
12.0
 74
     0
 49
-3.0
 74
     0
  0
LTYPE
  5
1E
330
4
100
AcDbSymbolTableRecord
100
AcDbLinetypeTableRecord
  2
DOTTED
 70
     0
  3
Dotted
 72
    65
 73
     2
 40
3.5
 49
0.5
 74
     0
 49
-3.0
 74
     0
  0
LTYPE
  5
1F
330
4
100
AcDbSymbolTableRecord
100
AcDbLinetypeTableRecord
  2
DOT_CENTER
 70
     0
  3
Dot_Center
 72
    65
 73
     4
 40
2.0
 49
1.25
 74
     0
 49
-0.25
 74
     0
 49
0.25
 74
     0
 49
-0.25
 74
     0
  0
LTYPE
  5
20
330
4
100
AcDbSymbolTableRecord
100
AcDbLinetypeTableRecord
  2
LONG_DASHED
 70
     0
  3
Long_Dashed
 72
    65
 73
     2
 40
2.0
 49
1.5
 74
     0
 49
-0.5
 74
     0
  0
LTYPE
  5
21
330
4
100
AcDbSymbolTableRecord
100
AcDbLinetypeTableRecord
  2
DASH_CENTER
 70
     0
  3
Dash_Center
 72
    65
 73
     4
 40
36.0
 49
24.0
 74
     0
 49
-3.0
 74
     0
 49
6.0
 74
     0
 49
-3.0
 74
     0
  0
LTYPE
  5
22
330
4
100
AcDbSymbolTableRecord
100
AcDbLinetypeTableRecord
  2
PHANTOM
 70
     0
  3
Phantom
 72
    65
 73
     6
 40
2.5
 49
1.25
 74
     0
 49
-0.25
 74
     0
 49
0.25
 74
     0
 49
-0.25
 74
     0
 49
0.25
 74
     0
 49
-0.25
 74
     0
  0
LTYPE
  5
23
330
4
100
AcDbSymbolTableRecord
100
AcDbLinetypeTableRecord
  2
CENTER_DASH_DASH
 70
     0
  3
Center_Dash_Dash
 72
    65
 73
     6
 40
22.0
 49
12.0
 74
     0
 49
-3.0
 74
     0
 49
0.5
 74
     0
 49
-3.0
 74
     0
 49
0.5
 74
     0
 49
-3.0
 74
     0
  0
LTYPE
  5
30E
330
4
100
AcDbSymbolTableRecord
100
AcDbLinetypeTableRecord
  2
HIDDEN
 70
     0
  3
Hidden __ __ __ __ __ __ __ __ __ __ __ __ __ _
 72
    65
 73
     2
 40
9.524999999999998
 49
6.349999999999999
 74
     0
 49
-3.174999999999999
 74
     0
  0
LTYPE
  5
30F
330
4
100
AcDbSymbolTableRecord
100
AcDbLinetypeTableRecord
  2
PHANTOM2
 70
     0
  3
Phantom (.5x) ___ _ _ ___ _ _ ___ _ _ ___ _ _
 72
    65
 73
     6
 40
31.75
 49
15.875
 74
     0
 49
-3.174999999999999
 74
     0
 49
3.174999999999999
 74
     0
 49
-3.174999999999999
 74
     0
 49
3.174999999999999
 74
     0
 49
-3.174999999999999
 74
     0
  0
LTYPE
  5
310
330
4
100
AcDbSymbolTableRecord
100
AcDbLinetypeTableRecord
  2
CENTER
 70
     0
  3
Center ____ _ ____ _ ____ _ ____ _ ____ _ ____
 72
    65
 73
     4
 40
50.8
 49
31.75
 74
     0
 49
-6.349999999999999
 74
     0
 49
6.349999999999999
 74
     0
 49
-6.349999999999999
 74
     0
  0
LTYPE
  5
35F
330
4
100
AcDbSymbolTableRecord
100
AcDbLinetypeTableRecord
  2
ASULTYPE
 70
     0
  3
実線
 72
    65
 73
     2
 40
3.0
 49
2.5
 74
     0
 49
0.5
 74
     0
  0
LTYPE
  5
360
330
4
100
AcDbSymbolTableRecord
100
AcDbLinetypeTableRecord
  2
ASVLTYPE
 70
     0
  3
__ __ __ __ __ __ __ __ __ __ __ __ __ __ __ __ __ __ __ __ __
 72
    65
 73
     2
 40
0.75
 49
0.5
 74
     0
 49
-0.25
 74
     0
  0
LTYPE
  5
3A7
330
4
100
AcDbSymbolTableRecord
100
AcDbLinetypeTableRecord
  2
AM_ISO02W050
 70
     0
  3
__ __ __ __ __ __ __ __ __ __ __ __ __ __ __
 72
    65
 73
     2
 40
7.5
 49
6.0
 74
     0
 49
-1.5
 74
     0
  0
LTYPE
  5
3A8
330
4
100
AcDbSymbolTableRecord
100
AcDbLinetypeTableRecord
  2
AM_ISO08W050
 70
     0
  3
____ . ____ . ____ . ____ . ____ . ____ . ____
 72
    65
 73
     4
 40
18.0
 49
12.0
 74
     0
 49
-1.5
 74
     0
 49
3.0
 74
     0
 49
-1.5
 74
     0
  0
LTYPE
  5
3A9
330
4
100
AcDbSymbolTableRecord
100
AcDbLinetypeTableRecord
  2
AM_ISO09W050
 70
     0
  3
_____ . . _____ . . _____ . . ____ .. ____
 72
    65
 73
     6
 40
22.5
 49
12.0
 74
     0
 49
-1.5
 74
     0
 49
3.0
 74
     0
 49
-1.5
 74
     0
 49
3.0
 74
     0
 49
-1.5
 74
     0
  0
LTYPE
  5
3AA
330
4
100
AcDbSymbolTableRecord
100
AcDbLinetypeTableRecord
  2
Amconstr
 70
     0
  3
_______________________
 72
    65
 73
     2
 40
9999.0
 49
9999.0
 74
     0
 49
0.0
 74
     0
  0
LTYPE
  5
3AB
330
4
100
AcDbSymbolTableRecord
100
AcDbLinetypeTableRecord
  2
AM_ISO08W050x2
 70
     0
  3
__ . __ . __ . __ . __ . __
 72
    65
 73
     4
 40
9.0
 49
6.0
 74
     0
 49
-0.75
 74
     0
 49
1.5
 74
     0
 49
-0.75
 74
     0
  0
LTYPE
  5
3AC
330
4
100
AcDbSymbolTableRecord
100
AcDbLinetypeTableRecord
  2
AM_ISO02W050x2
 70
     0
  3
 _ _ _ _ _ _ _ _ _ _ _ _
 72
    65
 73
     2
 40
3.75
 49
3.0
 74
     0
 49
-0.75
 74
     0
  0
LTYPE
  5
3AF
330
4
100
AcDbSymbolTableRecord
100
AcDbLinetypeTableRecord
  2
Amzigzag
 70
     0
  3
/\/-/\/-/\/-/\/-/\/-/\/
 72
    65
 73
     2
 40
11.0001
 49
0.0001
 74
     4
 75
   136
340
3AE
 46
0.04
 50
0.0
 44
0.0
 45
0.0
 49
-11.0
 74
     0
  0
LTYPE
  5
3BE
330
4
100
AcDbSymbolTableRecord
100
AcDbLinetypeTableRecord
  2
ACISOWELD
 70
     0
  3
_ _ _ _ _
 72
    65
 73
     2
 40
2.0
 49
2.0
 74
     0
 49
-1.0
 74
     0
  0
LTYPE
  5
3BF
330
4
100
AcDbSymbolTableRecord
100
AcDbLinetypeTableRecord
  2
ACISOTGB
 70
     0
  3
__ . . __ . .
 72
    65
 73
     6
 40
9.0
 49
4.0
 74
     0
 49
-1.0
 74
     0
 49
1.0
 74
     0
 49
-1.0
 74
     0
 49
1.0
 74
     0
 49
-1.0
 74
     0
  0
LTYPE
  5
3C0
330
4
100
AcDbSymbolTableRecord
100
AcDbLinetypeTableRecord
  2
ACISOTGL
 70
     0
  3
_ _ _ _ _
 72
    65
 73
     2
 40
3.0
 49
2.0
 74
     0
 49
-1.0
 74
     0
  0
ENDTAB
  0
TABLE
  2
LAYER
  5
2
330
0
100
AcDbSymbolTable
 70
     3
  0
LAYER
  5
14
330
2
100
AcDbSymbolTableRecord
100
AcDbLayerTableRecord
  2
0
 70
     0
 62
     7
  6
CONTINUOUS
370
    -3
390
2CC
  0
LAYER
  5
24
330
2
100
AcDbSymbolTableRecord
100
AcDbLayerTableRecord
  2
FORMAT
 70
     0
 62
     7
  6
CONTINUOUS
370
    -3
390
2CC
  0
LAYER
  5
25
330
2
100
AcDbSymbolTableRecord
100
AcDbLayerTableRecord
  2
1
 70
     0
 62
     7
  6
CONTINUOUS
370
    -3
390
2CC
  0
ENDTAB
  0
TABLE
  2
STYLE
  5
3
330
0
100
AcDbSymbolTable
 70
     5
  0
STYLE
  5
17
330
3
100
AcDbSymbolTableRecord
100
AcDbTextStyleTableRecord
  2
STANDARD
 70
     0
 40
0.0
 41
1.0
 50
0.0
 71
     0
 42
0.0
  3
txt
  4

  0
STYLE
  5
2C6
330
3
100
AcDbSymbolTableRecord
100
AcDbTextStyleTableRecord
  2
CONVERTER_1
 70
     0
 40
0.0
 41
0.9
 50
0.0
 71
     0
 42
0.0
  3
txt
  4

  0
STYLE
  5
3AE
330
3
100
AcDbSymbolTableRecord
100
AcDbTextStyleTableRecord
  2

 70
     1
 40
0.0
 41
1.0
 50
0.0
 71
     0
 42
0.2
  3
genltshp.shx
  4

  0
STYLE
  5
3B0
330
3
100
AcDbSymbolTableRecord
100
AcDbTextStyleTableRecord
  2
ACISOTS
 70
     0
 40
1.0
 41
1.0
 50
0.0
 71
     0
 42
0.2
  3
isocp.shx
  4
extfont.shx
  0
STYLE
  5
3BD
330
3
100
AcDbSymbolTableRecord
100
AcDbTextStyleTableRecord
  2
ACISOGDT
 70
     0
 40
0.0
 41
1.0
 50
0.0
 71
     0
 42
0.2
  3
AMGDT
  4

  0
ENDTAB
  0
TABLE
  2
VIEW
  5
5
330
0
100
AcDbSymbolTable
 70
     0
  0
ENDTAB
  0
TABLE
  2
UCS
  5
6
330
0
100
AcDbSymbolTable
 70
     0
  0
ENDTAB
  0
TABLE
  2
APPID
  5
8
330
0
100
AcDbSymbolTable
 70
    16
  0
APPID
  5
16
330
8
100
AcDbSymbolTableRecord
100
AcDbRegAppTableRecord
  2
ACAD
 70
     0
  0
APPID
  5
2DA
330
8
100
AcDbSymbolTableRecord
100
AcDbRegAppTableRecord
  2
GENIUS_GENDIM_13
 70
     0
  0
APPID
  5
2DB
330
8
100
AcDbSymbolTableRecord
100
AcDbRegAppTableRecord
  2
GENIUS_GENDTOL_13
 70
     0
  0
APPID
  5
2DC
330
8
100
AcDbSymbolTableRecord
100
AcDbRegAppTableRecord
  2
GENIUS_GE3DTOL_13
 70
     0
  0
APPID
  5
2DF
330
8
100
AcDbSymbolTableRecord
100
AcDbRegAppTableRecord
  2
MCAD_NO_VIS
 70
     0
  0
APPID
  5
2E0
330
8
100
AcDbSymbolTableRecord
100
AcDbRegAppTableRecord
  2
ACAD_TEMP_GRAPHIC
 70
     0
  0
APPID
  5
312
330
8
100
AcDbSymbolTableRecord
100
AcDbRegAppTableRecord
  2
AD_DRAW
 70
     0
  0
APPID
  5
315
330
8
100
AcDbSymbolTableRecord
100
AcDbRegAppTableRecord
  2
ACATTRIBSERVICES
 70
     0
  0
APPID
  5
361
330
8
100
AcDbSymbolTableRecord
100
AcDbRegAppTableRecord
  2
ASURF_PCURVE_APPNAME
 70
     0
  0
APPID
  5
366
330
8
100
AcDbSymbolTableRecord
100
AcDbRegAppTableRecord
  2
AMG_3D2D_5.0
 70
     0
  0
APPID
  5
397
330
8
100
AcDbSymbolTableRecord
100
AcDbRegAppTableRecord
  2
DESIGNERASSEMBLIES
 70
     0
  0
APPID
  5
39E
330
8
100
AcDbSymbolTableRecord
100
AcDbRegAppTableRecord
  2
ACADM_DIM_EDIT
 70
     0
  0
APPID
  5
39F
330
8
100
AcDbSymbolTableRecord
100
AcDbRegAppTableRecord
  2
AMDT_DM_ADJ
 70
     0
  0
APPID
  5
3CD
330
8
100
AcDbSymbolTableRecord
100
AcDbRegAppTableRecord
  2
ACAD_DSTYLE_DIMARC_LENGTH_SYMBOL
 70
     0
  0
APPID
  5
3CE
330
8
100
AcDbSymbolTableRecord
100
AcDbRegAppTableRecord
  2
ACAD_DSTYLE_DIMJOGGED_JOGANGLE_SYMBOL
 70
     0
  0
APPID
  5
3F7
330
8
100
AcDbSymbolTableRecord
100
AcDbRegAppTableRecord
  2
DCO15
 70
     0
  0
ENDTAB
  0
TABLE
  2
DIMSTYLE
  5
9
330
0
100
AcDbSymbolTable
 70
     8
100
AcDbDimStyleTable
 71
     0
  0
DIMSTYLE
105
18
330
9
100
AcDbSymbolTableRecord
100
AcDbDimStyleTableRecord
  2
STANDARD
 70
     0
340
17
  0
DIMSTYLE
105
3CC
330
9
100
AcDbSymbolTableRecord
100
AcDbDimStyleTableRecord
  2
AM_ISO
 70
     0
  4
"
 41
2.5
 42
1.0
 43
10.0
 44
1.0
 47
0.1
 48
0.1
 73
     0
 74
     0
 77
     1
 78
     8
 79
     2
140
3.5
141
0.0
143
0.0393701
146
0.71
147
1.5
172
     1
176
   256
177
   256
178
     2
271
     2
272
     3
274
     4
283
     0
284
     8
340
17
371
    -1
372
    -1
1001
ACAD_DSTYLE_DIMARC_LENGTH_SYMBOL
1070
   379
1070
     1
1001
ACAD_DSTYLE_DIMJOGGED_JOGANGLE_SYMBOL
1070
   384
1040
0.7853981633974483
  0
DIMSTYLE
105
3D5
330
9
100
AcDbSymbolTableRecord
100
AcDbDimStyleTableRecord
  2
AM_ISO$3
 70
     0
  4
"
 41
2.5
 42
1.0
 43
10.0
 44
1.0
 47
0.1
 48
0.1
 73
     0
 77
     1
 78
     8
 79
     2
140
3.5
141
0.0
143
0.0393701
146
0.71
147
1.5
176
   256
177
   256
178
     2
271
     2
272
     3
274
     4
283
     0
284
     8
288
     1
289
     0
340
17
371
    -1
372
    -1
1001
ACAD_DSTYLE_DIMARC_LENGTH_SYMBOL
1070
   379
1070
     1
1001
ACAD_DSTYLE_DIMJOGGED_JOGANGLE_SYMBOL
1070
   384
1040
0.7853981633974483
  0
DIMSTYLE
105
3D8
330
9
100
AcDbSymbolTableRecord
100
AcDbDimStyleTableRecord
  2
AM_ISO$4
 70
     0
  4
"
 41
2.5
 42
1.0
 43
10.0
 44
1.0
 47
0.1
 48
0.1
 73
     0
 77
     1
 78
     8
 79
     2
140
3.5
141
0.0
143
0.0393701
146
0.71
147
1.5
176
   256
177
   256
178
     2
271
     2
272
     3
274
     4
283
     0
284
     8
288
     1
289
     0
340
17
371
    -1
372
    -1
1001
ACAD_DSTYLE_DIMARC_LENGTH_SYMBOL
1070
   379
1070
     1
1001
ACAD_DSTYLE_DIMJOGGED_JOGANGLE_SYMBOL
1070
   384
1040
0.7853981633974483
  0
DIMSTYLE
105
3DB
330
9
100
AcDbSymbolTableRecord
100
AcDbDimStyleTableRecord
  2
AM_ISO$6
 70
     0
  4
"
 41
2.5
 42
1.0
 43
10.0
 44
1.0
 47
0.1
 48
0.1
 73
     0
 74
     0
 78
     8
 79
     2
140
3.5
141
0.0
143
0.0393701
146
0.71
147
1.5
172
     1
176
   256
177
   256
178
     2
271
     2
272
     3
274
     4
283
     0
284
     8
340
17
371
    -1
372
    -1
1001
ACAD_DSTYLE_DIMARC_LENGTH_SYMBOL
1070
   379
1070
     1
1001
ACAD_DSTYLE_DIMJOGGED_JOGANGLE_SYMBOL
1070
   384
1040
0.7853981633974483
  0
DIMSTYLE
105
3DE
330
9
100
AcDbSymbolTableRecord
100
AcDbDimStyleTableRecord
  2
AM_ISO$7
 70
     0
  4
"
 41
2.5
 42
1.0
 43
10.0
 44
1.0
 47
0.1
 48
0.1
 73
     0
 74
     0
 77
     1
 78
     8
 79
     2
140
5.0
141
0.0
143
0.0393701
146
0.71
147
1.5
172
     1
176
   256
177
   256
178
     2
271
     2
272
     3
274
     4
283
     0
284
     8
340
17
371
    -1
372
    -1
1001
ACAD_DSTYLE_DIMARC_LENGTH_SYMBOL
1070
   379
1070
     1
1001
ACAD_DSTYLE_DIMJOGGED_JOGANGLE_SYMBOL
1070
   384
1040
0.7853981633974483
  0
DIMSTYLE
105
3E1
330
9
100
AcDbSymbolTableRecord
100
AcDbDimStyleTableRecord
  2
AM_ISO$SF
 70
     0
  4
"
 41
2.5
 42
1.0
 43
10.0
 44
1.0
 47
0.1
 48
0.1
 73
     0
 74
     0
 75
     1
 76
     1
 77
     1
 78
     8
 79
     2
140
3.5
141
0.0
143
0.0393701
146
0.71
147
1.5
172
     1
176
   256
177
   256
178
     2
271
     2
272
     3
274
     4
283
     0
284
     8
340
17
371
    -1
372
    -1
1001
ACAD_DSTYLE_DIMARC_LENGTH_SYMBOL
1070
   379
1070
     1
1001
ACAD_DSTYLE_DIMJOGGED_JOGANGLE_SYMBOL
1070
   384
1040
0.7853981633974483
  0
DIMSTYLE
105
3E8
330
9
100
AcDbSymbolTableRecord
100
AcDbDimStyleTableRecord
  2
AM_ISO$SH
 70
     0
  4
"
 41
2.5
 42
1.0
 43
10.0
 44
1.0
 47
0.1
 48
0.1
 73
     0
 74
     0
 75
     1
 76
     1
 77
     1
 78
     8
 79
     2
140
3.5
141
0.0
143
0.0393701
144
2.0
146
0.71
147
1.5
172
     1
173
     1
176
   256
177
   256
178
     2
271
     2
272
     3
274
     4
283
     0
284
     8
340
17
343
3E2
371
    -1
372
    -1
1001
ACAD_DSTYLE_DIMARC_LENGTH_SYMBOL
1070
   379
1070
     1
1001
ACAD_DSTYLE_DIMJOGGED_JOGANGLE_SYMBOL
1070
   384
1040
0.7853981633974483
  0
ENDTAB
  0
TABLE
  2
BLOCK_RECORD
  5
1
330
0
100
AcDbSymbolTable
 70
     2
  0
BLOCK_RECORD
  5
A
102
{ACAD_XDICTIONARY
360
3F9
102
}
330
1
100
AcDbSymbolTableRecord
100
AcDbBlockTableRecord
  2
*MODEL_SPACE
340
2D3
  0
BLOCK_RECORD
  5
B
330
1
100
AcDbSymbolTableRecord
100
AcDbBlockTableRecord
  2
*PAPER_SPACE
340
2D4
  0
BLOCK_RECORD
  5
3E2
330
1
100
AcDbSymbolTableRecord
100
AcDbBlockTableRecord
  2
GENAXEH
340
0
  0
ENDTAB
  0
ENDSEC
  0
SECTION
  2
BLOCKS
  0
BLOCK
  5
D
330
A
100
AcDbEntity
  8
0
100
AcDbBlockBegin
  2
*MODEL_SPACE
 70
     0
 10
0.0
 20
0.0
 30
0.0
  3
*MODEL_SPACE
  1

  0
ENDBLK
  5
E
330
A
100
AcDbEntity
  8
0
100
AcDbBlockEnd
  0
BLOCK
  5
F
330
B
100
AcDbEntity
 67
     1
  8
0
100
AcDbBlockBegin
  2
*PAPER_SPACE
 70
     0
 10
0.0
 20
0.0
 30
0.0
  3
*PAPER_SPACE
  1

  0
ENDBLK
  5
10
330
B
100
AcDbEntity
 67
     1
  8
0
100
AcDbBlockEnd
  0
BLOCK
  5
3E4
330
3E2
100
AcDbEntity
  8
0
100
AcDbBlockBegin
  2
GENAXEH
 70
     0
 10
0.0
 20
0.0
 30
0.0
  3
GENAXEH
  1

  0
LINE
  5
3E3
330
3E2
100
AcDbEntity
  8
0
100
AcDbLine
 10
-1.0
 20
0.0
 30
0.0
 11
1.0
 21
0.0
 31
0.0
  0
ENDBLK
  5
3E5
330
3E2
100
AcDbEntity
  8
0
100
AcDbBlockEnd
  0
ENDSEC
  0
SECTION
  2
ENTITIES
  0
MTEXT
  5
2C7
330
A
100
AcDbEntity
  8
1
 62
     1
100
AcDbMText
 10
404.080180170503
 20
459.6374148632669
 30
0.0
 40
3.174999999999999
 41
0.0
 71
     2
 72
     1
  1
LARGO S50  N Strike
  7
CONVERTER_1
 73
     1
 44
1.0
1001
ACAD
1000
MTEXTBEGIN
1070
    73
1070
     1
1070
    44
1040
1.0
1070
    74
1070
     0
1000
MTEXTEND
  0
SPLINE
  5
2C5
330
A
100
AcDbEntity
  8
0
  6
Continuous
 62
     6
100
AcDbSpline
210
0.0
220
0.0
230
1.0
 70
     8
 71
     3
 72
    21
 73
    17
 74
    15
 42
0.0000000001
 43
0.0000000001
 44
0.00000000001
 40
0.0
 40
0.0
 40
0.0
 40
0.0
 40
0.0908607808991371
 40
0.1736698311029913
 40
0.2376622519953289
 40
0.2997637527093857
 40
0.3435966534785442
 40
0.3876134228341308
 40
0.4324653767214141
 40
0.4773505799157649
 40
0.519875671719598
 40
0.5622186418599476
 40
0.6193818518996781
 40
0.6780586733709897
 40
0.7527075734158144
 40
0.8343929139778193
 40
0.8343929139778193
 40
0.8343929139778193
 40
0.8343929139778193
 10
392.4760325936871
 20
557.21534376457
 30
0.0
 10
392.4457043458368
 20
557.2142949165315
 30
0.0
 10
392.3877354220648
 20
557.2122901653076
 30
0.0
 10
392.3100581840001
 20
557.1946776129583
 30
0.0
 10
392.244295924208
 20
557.1715766846049
 30
0.0
 10
392.1928044991264
 20
557.1477458165666
 30
0.0
 10
392.1493076469655
 20
557.123027097231
 30
0.0
 10
392.1128378516944
 20
557.0978907270268
 30
0.0
 10
392.0783629204376
 20
557.0695470440139
 30
0.0
 10
392.0465248709384
 20
557.0389797167323
 30
0.0
 10
392.01804800711
 20
557.0063417302017
 30
0.0
 10
391.9903381105937
 20
556.9678890905406
 30
0.0
 10
391.963579815788
 20
556.9223176283337
 30
0.0
 10
391.9377035360226
 20
556.8642497813238
 30
0.0
 10
391.9175132244442
 20
556.7948613537188
 30
0.0
 10
391.9151894633218
 20
556.7426332057051
 30
0.0
 10
391.9139752877329
 20
556.7153437645639
 30
0.0
 11
392.4760325936871
 21
557.21534376457
 31
0.0
 11
392.3853781982206
 21
557.2092231364803
 31
0.0
 11
392.3044706193011
 21
557.1915793707526
 31
0.0
 11
392.2440831341237
 21
557.1704043485424
 31
0.0
 11
392.1877400953787
 21
557.1442881011872
 31
0.0
 11
392.1496944628313
 21
557.1225199355799
 31
0.0
 11
392.1134396783065
 21
557.0975586338597
 31
0.0
 11
392.0787532594557
 21
557.0691236182133
 31
0.0
 11
392.0464465233583
 21
557.0379634470242
 31
0.0
 11
392.0185273638929
 21
557.0058869140496
 31
0.0
 11
391.9936968325825
 21
556.9715886366126
 31
0.0
 11
391.9647757256934
 21
556.9222814144402
 31
0.0
 11
391.9409561959733
 21
556.8686567989927
 31
0.0
 11
391.9209912975135
 21
556.7967272424295
 31
0.0
 11
391.9139752877329
 21
556.7153437645639
 31
0.0
  0
SPLINE
  5
2C4
330
A
100
AcDbEntity
  8
0
  6
Continuous
 62
     6
100
AcDbSpline
210
0.0
220
0.0
230
1.0
 70
     8
 71
     3
 72
    21
 73
    17
 74
    15
 42
0.0000000001
 43
0.0000000001
 44
0.00000000001
 40
0.0
 40
0.0
 40
0.0
 40
0.0
 40
0.081685340562005
 40
0.1563342406066746
 40
0.21501106207764
 40
0.2721742721170999
 40
0.3145172422579257
 40
0.3570423340621057
 40
0.4019275372566962
 40
0.4467794911439515
 40
0.4907962604994268
 40
0.5346291612686417
 40
0.5967306619826506
 40
0.6607230828750259
 40
0.7435321330788316
 40
0.8343929139779685
 40
0.8343929139779685
 40
0.8343929139779685
 40
0.8343929139779685
 10
391.9139752877329
 20
539.715343764564
 30
0.0
 10
391.9151894633219
 20
539.6880543234226
 30
0.0
 10
391.9175132244442
 20
539.6358261754093
 30
0.0
 10
391.9377035360225
 20
539.5664377478042
 30
0.0
 10
391.9635798157875
 20
539.5083699007946
 30
0.0
 10
391.9903381105929
 20
539.4627984385876
 30
0.0
 10
392.0180480071095
 20
539.4243457989264
 30
0.0
 10
392.0465248709382
 20
539.3917078123955
 30
0.0
 10
392.0783629204375
 20
539.361140485114
 30
0.0
 10
392.1128378516945
 20
539.3327968021009
 30
0.0
 10
392.1493076469656
 20
539.3076604318967
 30
0.0
 10
392.1928044991263
 20
539.2829417125609
 30
0.0
 10
392.2442959242079
 20
539.259110844523
 30
0.0
 10
392.3100581840001
 20
539.2360099161692
 30
0.0
 10
392.3877354220648
 20
539.2183973638204
 30
0.0
 10
392.4457043458368
 20
539.2163926125966
 30
0.0
 10
392.4760325936871
 20
539.215343764558
 30
0.0
 11
391.9139752877329
 21
539.715343764564
 31
0.0
 11
391.9209912975135
 21
539.6339602866984
 31
0.0
 11
391.9409561959731
 21
539.5620307301352
 31
0.0
 11
391.9647757256929
 21
539.508406114688
 31
0.0
 11
391.9936968325816
 21
539.4590988925157
 31
0.0
 11
392.0185273638923
 21
539.4248006150783
 31
0.0
 11
392.0464465233582
 21
539.3927240821036
 31
0.0
 11
392.0787532594557
 21
539.3615639109143
 31
0.0
 11
392.1134396783066
 21
539.333128895268
 31
0.0
 11
392.1496944628313
 21
539.3081675935479
 31
0.0
 11
392.1877400953787
 21
539.2863994279405
 31
0.0
 11
392.2440831341237
 21
539.2602831805854
 31
0.0
 11
392.3044706193011
 21
539.2391081583751
 31
0.0
 11
392.3853781982206
 21
539.2214643926477
 31
0.0
 11
392.4760325936871
 21
539.215343764558
 31
0.0
  0
SPLINE
  5
2C3
330
A
100
AcDbEntity
  8
0
  6
Continuous
 62
     6
100
AcDbSpline
210
0.0
220
0.0
230
1.0
 70
     8
 71
     3
 72
    21
 73
    17
 74
    15
 42
0.0000000001
 43
0.0000000001
 44
0.00000000001
 40
0.0
 40
0.0
 40
0.0
 40
0.0
 40
0.0424733313880841
 40
0.0819425405219168
 40
0.1151776311714137
 40
0.1480200174895658
 40
0.1768027240629548
 40
0.2057953744300857
 40
0.2391192384307971
 40
0.2722431567006879
 40
0.3070850961803137
 40
0.3417225538114346
 40
0.3945919098453353
 40
0.4493534786739771
 40
0.5219108803994859
 40
0.6017472722889533
 40
0.6017472722889533
 40
0.6017472722889533
 40
0.6017472722889533
 10
202.5023693955
 20
557.2153437645639
 30
0.0
 10
202.488113197912
 20
557.2140234337023
 30
0.0
 10
202.4606091380615
 20
557.2114761584686
 30
0.0
 10
202.4265331554933
 20
557.1919957475883
 30
0.0
 10
202.3993774881421
 20
557.1696403785518
 30
0.0
 10
202.3778859303265
 20
557.1462983535182
 30
0.0
 10
202.3596548508013
 20
557.1221792523486
 30
0.0
 10
202.3435075089298
 20
557.0964197445635
 30
0.0
 10
202.3286838409245
 20
557.0682421083132
 30
0.0
 10
202.3148407232414
 20
557.0374265545263
 30
0.0
 10
202.3027369856811
 20
557.0054136537589
 30
0.0
 10
202.2906320071256
 20
556.966451368126
 30
0.0
 10
202.2789865561011
 20
556.9204484751065
 30
0.0
 10
202.2676485989703
 20
556.861442181001
 30
0.0
 10
202.2592490181772
 20
556.7927841113547
 30
0.0
 10
202.2582991465585
 20
556.7419663065948
 30
0.0
 10
202.25780152575
 20
556.7153437645639
 30
0.0
 11
202.5023693955
 21
557.2153437645639
 31
0.0
 11
202.4604768912333
 21
557.2083436241746
 31
0.0
 11
202.4255151868481
 21
557.1900270279806
 31
0.0
 11
202.3997900672161
 21
557.1689844646767
 31
0.0
 11
202.377410283382
 21
557.1449476675812
 31
0.0
 11
202.3600403168155
 21
557.121997102029
 31
0.0
 11
202.3445710462552
 21
557.097476183538
 31
0.0
 11
202.3289644657336
 21
557.0680327707541
 31
0.0
 11
202.3153774379979
 21
557.0378237217976
 31
0.0
 11
202.303045326065
 21
557.0052372251774
 31
0.0
 11
202.2926700522901
 21
556.9721901804496
 31
0.0
 11
202.2796331250706
 21
556.9209534032665
 31
0.0
 11
202.2692953896468
 21
556.8671764505182
 31
0.0
 11
202.2607295767679
 21
556.7951264443081
 31
0.0
 11
202.25780152575
 21
556.7153437645639
 31
0.0
  0
SPLINE
  5
2C2
330
A
100
AcDbEntity
  8
0
  6
Continuous
 62
     6
100
AcDbSpline
210
0.0
220
0.0
230
1.0
 70
     8
 71
     3
 72
     9
 73
     5
 74
     3
 42
0.0000000001
 43
0.0000000001
 44
0.00000000001
 40
0.0
 40
0.0
 40
0.0
 40
0.0
 40
0.0556625245609004
 40
0.111059050678123
 40
0.111059050678123
 40
0.111059050678123
 40
0.111059050678123
 10
191.602369398026
 20
557.1716368432039
 30
0.0
 10
191.5877251624971
 20
557.1836631819713
 30
0.0
 10
191.5585066728835
 20
557.2076583883898
 30
0.0
 10
191.5210519185647
 20
557.212786066287
 30
0.0
 10
191.5023693955
 20
557.2153437645639
 30
0.0
 11
191.602369398026
 21
557.1716368432039
 31
0.0
 11
191.5563677500784
 21
557.2029763554305
 31
0.0
 11
191.5023693955
 21
557.2153437645639
 31
0.0
  0
SPLINE
  5
2C1
330
A
100
AcDbEntity
  8
0
  6
Continuous
 62
     6
100
AcDbSpline
210
0.0
220
0.0
230
1.0
 70
     8
 71
     3
 72
    21
 73
    17
 74
    15
 42
0.0000000001
 43
0.0000000001
 44
0.00000000001
 40
0.0
 40
0.0
 40
0.0
 40
0.0
 40
0.0798363918892434
 40
0.152393793614742
 40
0.2071553624434954
 40
0.2600247184773821
 40
0.2946621761087455
 40
0.3295041155882649
 40
0.3626280338581441
 40
0.3959518978587817
 40
0.4249445482260087
 40
0.4537272547994026
 40
0.4865696411170147
 40
0.5198047317659937
 40
0.559273940900463
 40
0.6017472722890144
 40
0.6017472722890144
 40
0.6017472722890144
 40
0.6017472722890144
 10
202.25780152575
 20
539.715343764564
 30
0.0
 10
202.2582991465585
 20
539.6887212225331
 30
0.0
 10
202.2592490181773
 20
539.6379034177733
 30
0.0
 10
202.2676485989702
 20
539.569245348127
 30
0.0
 10
202.278986556101
 20
539.5102390540214
 30
0.0
 10
202.2906320071255
 20
539.4642361610019
 30
0.0
 10
202.302736985681
 20
539.425273875369
 30
0.0
 10
202.3148407232415
 20
539.3932609746014
 30
0.0
 10
202.3286838409244
 20
539.3624454208145
 30
0.0
 10
202.34350750893
 20
539.3342677845644
 30
0.0
 10
202.3596548508014
 20
539.308508276779
 30
0.0
 10
202.3778859303262
 20
539.2843891756099
 30
0.0
 10
202.3993774881417
 20
539.2610471505763
 30
0.0
 10
202.4265331554926
 20
539.2386917815397
 30
0.0
 10
202.4606091380611
 20
539.2192113706592
 30
0.0
 10
202.4881131979118
 20
539.2166640954256
 30
0.0
 10
202.5023693955
 20
539.2153437645639
 30
0.0
 11
202.25780152575
 21
539.715343764564
 31
0.0
 11
202.260729576768
 21
539.63556108482
 31
0.0
 11
202.2692953896468
 21
539.5635110786098
 31
0.0
 11
202.2796331250706
 21
539.5097341258615
 31
0.0
 11
202.29267005229
 21
539.4584973486784
 31
0.0
 11
202.303045326065
 21
539.4254503039503
 31
0.0
 11
202.3153774379979
 21
539.3928638073303
 31
0.0
 11
202.3289644657336
 21
539.3626547583737
 31
0.0
 11
202.3445710462553
 21
539.33321134559
 31
0.0
 11
202.3600403168156
 21
539.3086904270989
 31
0.0
 11
202.377410283382
 21
539.2857398615465
 31
0.0
 11
202.3997900672156
 21
539.2617030644514
 31
0.0
 11
202.4255151868471
 21
539.2406605011476
 31
0.0
 11
202.4604768912328
 21
539.2223439049534
 31
0.0
 11
202.5023693955
 21
539.2153437645639
 31
0.0
  0
SPLINE
  5
2C0
330
A
100
AcDbEntity
  8
0
  6
Continuous
 62
     6
100
AcDbSpline
210
0.0
220
0.0
230
1.0
 70
     8
 71
     3
 72
    21
 73
    17
 74
    15
 42
0.0000000001
 43
0.0000000001
 44
0.00000000001
 40
0.0
 40
0.0
 40
0.0
 40
0.0
 40
0.0424733313881589
 40
0.0819425405219137
 40
0.1151776311713885
 40
0.1480200174895737
 40
0.1768027240634919
 40
0.2057953744309213
 40
0.2391192384311243
 40
0.2722431567006096
 40
0.3070850961804078
 40
0.3417225538117712
 40
0.3945919098455337
 40
0.4493534786743032
 40
0.5219108803995863
 40
0.6017472722890548
 40
0.6017472722890548
 40
0.6017472722890548
 40
0.6017472722890548
 10
191.5023693955
 20
539.2153437645639
 30
0.0
 10
191.516625593088
 20
539.2166640954256
 30
0.0
 10
191.5441296529383
 20
539.2192113706591
 30
0.0
 10
191.5782056355068
 20
539.2386917815396
 30
0.0
 10
191.6053613028578
 20
539.261047150576
 30
0.0
 10
191.6268528606738
 20
539.2843891756098
 30
0.0
 10
191.6450839401992
 20
539.3085082767794
 30
0.0
 10
191.6612312820707
 20
539.3342677845645
 30
0.0
 10
191.6760549500761
 20
539.3624454208147
 30
0.0
 10
191.6898980677586
 20
539.3932609746014
 30
0.0
 10
191.7020018053189
 20
539.425273875369
 30
0.0
 10
191.7141067838744
 20
539.4642361610018
 30
0.0
 10
191.7257522348988
 20
539.5102390540217
 30
0.0
 10
191.7370901920297
 20
539.5692453481269
 30
0.0
 10
191.7454897728228
 20
539.637903417773
 30
0.0
 10
191.7464396444415
 20
539.688721222533
 30
0.0
 10
191.74693726525
 20
539.715343764564
 30
0.0
 11
191.5023693955
 21
539.2153437645639
 31
0.0
 11
191.5442618997667
 21
539.2223439049534
 31
0.0
 11
191.5792236041518
 21
539.2406605011472
 31
0.0
 11
191.6049487237838
 21
539.2617030644511
 31
0.0
 11
191.6273285076181
 21
539.2857398615465
 31
0.0
 11
191.644698474185
 21
539.3086904270991
 31
0.0
 11
191.6601677447455
 21
539.3332113455904
 31
0.0
 11
191.6757743252669
 21
539.3626547583737
 31
0.0
 11
191.6893613530022
 21
539.39286380733
 31
0.0
 11
191.7016934649349
 21
539.4254503039504
 31
0.0
 11
191.71206873871
 21
539.4584973486785
 31
0.0
 11
191.7251056659293
 21
539.5097341258615
 31
0.0
 11
191.7354434013532
 21
539.5635110786098
 31
0.0
 11
191.7440092142321
 21
539.6355610848197
 31
0.0
 11
191.74693726525
 21
539.715343764564
 31
0.0
  0
SPLINE
  5
2BF
330
A
100
AcDbEntity
  8
0
  6
Continuous
 62
     6
100
AcDbSpline
210
0.0
220
0.0
230
1.0
 70
     8
 71
     3
 72
    21
 73
    17
 74
    15
 42
0.0000000001
 43
0.0000000001
 44
0.00000000001
 40
0.0
 40
0.0
 40
0.0
 40
0.0
 40
0.0448397348286488
 40
0.0863939725555667
 40
0.1210726191317605
 40
0.1552859717318476
 40
0.1846712834143836
 40
0.2142568371897876
 40
0.2479990506268483
 40
0.2815633070221224
 40
0.3166727951151121
 40
0.3515845528153906
 40
0.4045983207463796
 40
0.4594920453946078
 40
0.5321131423836788
 40
0.6120078581139482
 40
0.6120078581139482
 40
0.6120078581139482
 40
0.6120078581139482
 10
207.7023693955
 20
557.2153437645639
 30
0.0
 10
207.6873284085599
 20
557.2140679320923
 30
0.0
 10
207.6583485178922
 20
557.2116097499474
 30
0.0
 10
207.6219656951809
 20
557.1923237806114
 30
0.0
 10
207.5927977158579
 20
557.1698485740561
 30
0.0
 10
207.5697453208658
 20
557.1464190044853
 30
0.0
 10
207.5502230998277
 20
557.1222186294091
 30
0.0
 10
207.5330229812319
 20
557.0964971023778
 30
0.0
 10
207.517207227269
 20
557.0683053949775
 30
0.0
 10
207.5024438567244
 20
557.0375010126404
 30
0.0
 10
207.4895222613261
 20
557.0054533323498
 30
0.0
 10
207.4766150682245
 20
556.9665063182188
 30
0.0
 10
207.4641961086358
 20
556.920511957006
 30
0.0
 10
207.4521089473125
 20
556.8615359246157
 30
0.0
 10
207.4431386968924
 20
556.7928485302501
 30
0.0
 10
207.4421241095309
 20
556.7419872271625
 30
0.0
 10
207.44159262255
 20
556.7153437645639
 30
0.0
 11
207.7023693955
 21
557.2153437645639
 31
0.0
 11
207.6580594509451
 21
557.2084713099045
 31
0.0
 11
207.6207243222025
 21
557.1902273291207
 31
0.0
 11
207.5931902773095
 21
557.1691445185827
 31
0.0
 11
207.5690741324335
 21
557.1448759163884
 31
0.0
 11
207.5506162062079
 21
557.1220110634012
 31
0.0
 11
207.5341022009735
 21
557.0974633013175
 31
0.0
 11
207.5175009248646
 21
557.0680875528303
 31
0.0
 11
207.5029849789572
 21
557.037824594915
 31
0.0
 11
207.4898468058287
 21
557.0052659622502
 31
0.0
 11
207.4787629263907
 21
556.972160397124
 31
0.0
 11
207.4648805225785
 21
556.9209965577974
 31
0.0
 11
207.4538560540663
 21
556.8672212651457
 31
0.0
 11
207.4447187435888
 21
556.7951772974237
 31
0.0
 11
207.44159262255
 21
556.7153437645639
 31
0.0
  0
SPLINE
  5
2BE
330
A
100
AcDbEntity
  8
0
  6
Continuous
 62
     6
100
AcDbSpline
210
0.0
220
0.0
230
1.0
 70
     8
 71
     3
 72
    21
 73
    17
 74
    15
 42
0.0000000001
 43
0.0000000001
 44
0.00000000001
 40
0.0
 40
0.0
 40
0.0
 40
0.0
 40
0.0798947157298151
 40
0.1525158127193372
 40
0.2074095373676767
 40
0.2604233052983366
 40
0.2953350629988396
 40
0.3304445510918613
 40
0.3640088074867787
 40
0.3977510209241084
 40
0.4273365746993863
 40
0.4567218863819937
 40
0.4909352389821609
 40
0.5256138855584465
 40
0.5671681232850393
 40
0.6120078581136803
 40
0.6120078581136803
 40
0.6120078581136803
 40
0.6120078581136803
 10
207.44159262255
 20
539.715343764564
 30
0.0
 10
207.4421241095309
 20
539.6887003019656
 30
0.0
 10
207.4431386968924
 20
539.6378389988775
 30
0.0
 10
207.4521089473125
 20
539.5691516045125
 30
0.0
 10
207.4641961086357
 20
539.5101755721218
 30
0.0
 10
207.4766150682247
 20
539.464181210909
 30
0.0
 10
207.4895222613262
 20
539.425234196778
 30
0.0
 10
207.5024438567242
 20
539.3931865164877
 30
0.0
 10
207.5172072272693
 20
539.3623821341504
 30
0.0
 10
207.5330229812317
 20
539.3341904267503
 30
0.0
 10
207.5502230998275
 20
539.3084688997184
 30
0.0
 10
207.5697453208658
 20
539.2842685246428
 30
0.0
 10
207.592797715858
 20
539.2608389550721
 30
0.0
 10
207.6219656951808
 20
539.2383637485161
 30
0.0
 10
207.6583485178925
 20
539.2190777791816
 30
0.0
 10
207.68732840856
 20
539.2166195970359
 30
0.0
 10
207.7023693955
 20
539.2153437645639
 30
0.0
 11
207.44159262255
 21
539.715343764564
 31
0.0
 11
207.4447187435888
 21
539.6355102317046
 31
0.0
 11
207.4538560540663
 21
539.5634662639821
 31
0.0
 11
207.4648805225785
 21
539.5096909713303
 31
0.0
 11
207.4787629263907
 21
539.458527132004
 31
0.0
 11
207.4898468058287
 21
539.4254215668776
 31
0.0
 11
207.5029849789573
 21
539.3928629342128
 31
0.0
 11
207.5175009248646
 21
539.3625999762979
 31
0.0
 11
207.5341022009734
 21
539.3332242278103
 31
0.0
 11
207.5506162062077
 21
539.3086764657267
 31
0.0
 11
207.5690741324335
 21
539.2858116127395
 31
0.0
 11
207.5931902773096
 21
539.2615430105453
 31
0.0
 11
207.6207243222027
 21
539.2404602000071
 31
0.0
 11
207.6580594509452
 21
539.222216219224
 31
0.0
 11
207.7023693955
 21
539.2153437645639
 31
0.0
  0
SPLINE
  5
2BD
330
A
100
AcDbEntity
  8
0
  6
Continuous
 62
     6
100
AcDbSpline
210
0.0
220
0.0
230
1.0
 70
     8
 71
     3
 72
    21
 73
    17
 74
    15
 42
0.0000000001
 43
0.0000000001
 44
0.00000000001
 40
0.0
 40
0.0
 40
0.0
 40
0.0
 40
0.0798947157308186
 40
0.1525158127207363
 40
0.2074095373682019
 40
0.26042330529862
 40
0.2953350629987907
 40
0.3304445510919071
 40
0.3640088074871812
 40
0.3977510209243549
 40
0.4273365746997272
 40
0.4567218863821926
 40
0.4909352389822596
 40
0.5256138855582955
 40
0.567168123284907
 40
0.6120078581141176
 40
0.6120078581141176
 40
0.6120078581141176
 40
0.6120078581141176
 10
186.56314616845
 20
556.7153437645639
 30
0.0
 10
186.5626146814694
 20
556.7419872271627
 30
0.0
 10
186.5616000941084
 20
556.7928485302511
 30
0.0
 10
186.5526298436877
 20
556.8615359246165
 30
0.0
 10
186.5405426823641
 20
556.9205119570065
 30
0.0
 10
186.5281237227754
 20
556.9665063182191
 30
0.0
 10
186.5152165296739
 20
557.00545333235
 30
0.0
 10
186.5022949342757
 20
557.03750101264
 30
0.0
 10
186.4875315637308
 20
557.0683053949777
 30
0.0
 10
186.4717158097681
 20
557.0964971023776
 30
0.0
 10
186.4545156911724
 20
557.1222186294091
 30
0.0
 10
186.4349934701341
 20
557.1464190044854
 30
0.0
 10
186.4119410751422
 20
557.1698485740557
 30
0.0
 10
186.3827730958193
 20
557.1923237806114
 30
0.0
 10
186.3463902731081
 20
557.2116097499477
 30
0.0
 10
186.3174103824402
 20
557.2140679320923
 30
0.0
 10
186.3023693955
 20
557.2153437645639
 30
0.0
 11
186.56314616845
 21
556.7153437645639
 31
0.0
 11
186.5600200474117
 21
556.7951772974242
 31
0.0
 11
186.5508827369337
 21
556.867221265147
 31
0.0
 11
186.5398582684214
 21
556.920996557798
 31
0.0
 11
186.5259758646093
 21
556.972160397124
 31
0.0
 11
186.5148919851713
 21
557.0052659622501
 31
0.0
 11
186.5017538120428
 21
557.037824594915
 31
0.0
 11
186.4872378661354
 21
557.0680875528303
 31
0.0
 11
186.4706365900265
 21
557.0974633013177
 31
0.0
 11
186.4541225847921
 21
557.1220110634014
 31
0.0
 11
186.4356646585665
 21
557.1448759163884
 31
0.0
 11
186.4115485136905
 21
557.1691445185827
 31
0.0
 11
186.3840144687977
 21
557.1902273291207
 31
0.0
 11
186.3466793400554
 21
557.2084713099045
 31
0.0
 11
186.3023693955
 21
557.2153437645639
 31
0.0
  0
SPLINE
  5
2BC
330
A
100
AcDbEntity
  8
0
  6
Continuous
 62
     6
100
AcDbSpline
210
0.0
220
0.0
230
1.0
 70
     8
 71
     3
 72
    21
 73
    17
 74
    15
 42
0.0000000001
 43
0.0000000001
 44
0.00000000001
 40
0.0
 40
0.0
 40
0.0
 40
0.0
 40
0.0448397348292241
 40
0.0863939725557102
 40
0.1210726191316543
 40
0.1552859717317815
 40
0.1846712834143532
 40
0.2142568371896311
 40
0.2479990506269178
 40
0.2815633070219745
 40
0.3166727951150803
 40
0.3515845528154756
 40
0.4045983207458936
 40
0.4594920453934421
 40
0.5321131423835352
 40
0.612007858113807
 40
0.612007858113807
 40
0.612007858113807
 40
0.612007858113807
 10
186.3023693955
 20
539.2153437645639
 30
0.0
 10
186.3174103824402
 20
539.2166195970357
 30
0.0
 10
186.346390273108
 20
539.2190777791809
 30
0.0
 10
186.3827730958193
 20
539.2383637485165
 30
0.0
 10
186.4119410751422
 20
539.2608389550722
 30
0.0
 10
186.4349934701341
 20
539.2842685246427
 30
0.0
 10
186.4545156911724
 20
539.3084688997189
 30
0.0
 10
186.4717158097681
 20
539.3341904267503
 30
0.0
 10
186.4875315637308
 20
539.3623821341503
 30
0.0
 10
186.5022949342758
 20
539.3931865164878
 30
0.0
 10
186.5152165296739
 20
539.4252341967781
 30
0.0
 10
186.5281237227754
 20
539.4641812109089
 30
0.0
 10
186.5405426823642
 20
539.5101755721214
 30
0.0
 10
186.5526298436875
 20
539.5691516045117
 30
0.0
 10
186.5616000941075
 20
539.6378389988772
 30
0.0
 10
186.5626146814691
 20
539.6887003019653
 30
0.0
 10
186.56314616845
 20
539.715343764564
 30
0.0
 11
186.3023693955
 21
539.2153437645639
 31
0.0
 11
186.3466793400554
 21
539.2222162192238
 31
0.0
 11
186.3840144687976
 21
539.2404602000074
 31
0.0
 11
186.4115485136904
 21
539.2615430105453
 31
0.0
 11
186.4356646585665
 21
539.2858116127395
 31
0.0
 11
186.4541225847921
 21
539.3086764657267
 31
0.0
 11
186.4706365900265
 21
539.3332242278103
 31
0.0
 11
186.4872378661354
 21
539.3625999762978
 31
0.0
 11
186.5017538120428
 21
539.3928629342128
 31
0.0
 11
186.5148919851713
 21
539.4254215668777
 31
0.0
 11
186.5259758646093
 21
539.458527132004
 31
0.0
 11
186.5398582684214
 21
539.50969097133
 31
0.0
 11
186.5508827369336
 21
539.5634662639811
 31
0.0
 11
186.5600200474111
 21
539.6355102317041
 31
0.0
 11
186.56314616845
 21
539.715343764564
 31
0.0
  0
SPLINE
  5
2BB
330
A
100
AcDbEntity
  8
0
  6
Continuous
 62
     3
100
AcDbSpline
210
0.0
220
0.0
230
1.0
 70
     8
 71
     3
 72
    13
 73
     9
 74
     7
 42
0.0000000001
 43
0.0000000001
 44
0.00000000001
 40
0.0
 40
0.0
 40
0.0
 40
0.0
 40
0.8973233881415533
 40
1.647395404840161
 40
2.20990119201559
 40
2.868753869212262
 40
3.286810244365793
 40
3.572759535722166
 40
3.572759535722166
 40
3.572759535722166
 40
3.572759535722166
 10
392.233430166454
 20
560.715344241357
 30
0.0
 10
392.2325992380537
 20
560.4162375989244
 30
0.0
 10
392.2310737371624
 20
559.8671079152311
 30
0.0
 10
392.229152504354
 20
559.1304766874517
 30
0.0
 10
392.2270478399803
 20
558.4733364824788
 30
0.0
 10
392.2247245715811
 20
557.926869740742
 30
0.0
 10
392.2226908199365
 20
557.4725881878746
 30
0.0
 10
392.2216505211358
 20
557.2379219374496
 30
0.0
 10
392.221227978081
 20
557.142606443262
 30
0.0
 11
392.233430166454
 21
560.715344241357
 31
0.0
 11
392.2309650613636
 21
559.8180242392603
 31
0.0
 11
392.2289044816764
 21
559.0679550529544
 31
0.0
 11
392.2270601415147
 21
558.5054522893921
 31
0.0
 11
392.2243530447723
 21
557.8466051736843
 31
0.0
 11
392.2224973011114
 21
557.428552917355
 31
0.0
 11
392.221227978081
 21
557.142606443262
 31
0.0
  0
SPLINE
  5
2BA
330
A
100
AcDbEntity
  8
0
  6
Continuous
 62
     3
100
AcDbSpline
210
0.0
220
0.0
230
1.0
 70
     8
 71
     3
 72
    17
 73
    13
 74
    11
 42
0.0000000001
 43
0.0000000001
 44
0.00000000001
 40
0.0
 40
0.0
 40
0.0
 40
0.0
 40
0.0469490592649908
 40
0.1164700941541223
 40
0.297164378523603
 40
0.4901259842700375
 40
0.7414402132057943
 40
1.001602331719806
 40
1.153603829800388
 40
1.265299452161126
 40
1.307653729180045
 40
1.358036774345717
 40
1.358036774345717
 40
1.358036774345717
 40
1.358036774345717
 10
391.910091383108
 20
549.679324469066
 30
0.0
 10
391.90383230035
 20
549.6649809249007
 30
0.0
 10
391.8883049187675
 20
549.6293978063975
 30
0.0
 10
391.8484037333084
 20
549.5387355068942
 30
0.0
 10
391.7919487780531
 20
549.4021813772226
 30
0.0
 10
391.7140489966187
 20
549.2091034902577
 30
0.0
 10
391.652327167168
 20
548.9803882701028
 30
0.0
 10
391.6530014431819
 20
548.7574358902036
 30
0.0
 10
391.6676708159171
 20
548.583593793616
 30
0.0
 10
391.669228050419
 20
548.481470107622
 30
0.0
 10
391.6672002643935
 20
548.4133582282347
 30
0.0
 10
391.6664717159674
 20
548.3824540401027
 30
0.0
 10
391.6660759045789
 20
548.3656641752481
 30
0.0
 11
391.910091383108
 21
549.679324469066
 31
0.0
 11
391.8912960302286
 21
549.6363018136853
 31
0.0
 11
391.8634643248923
 21
549.5725949029917
 31
0.0
 11
391.7937510154274
 21
549.4058901373512
 31
0.0
 11
391.7244255850312
 21
549.225811915479
 31
0.0
 11
391.6640473360672
 21
548.98185841844
 31
0.0
 11
391.6575429660194
 21
548.721777621225
 31
0.0
 11
391.6667917848304
 21
548.5700577650118
 31
0.0
 11
391.6683654917502
 21
548.458373229372
 31
0.0
 11
391.6673198090949
 21
548.4160318627244
 31
0.0
 11
391.6660759045789
 21
548.3656641752481
 31
0.0
  0
SPLINE
  5
2B9
330
A
100
AcDbEntity
  8
0
  6
Continuous
 62
     3
100
AcDbSpline
210
0.0
220
0.0
230
1.0
 70
     8
 71
     3
 72
    23
 73
    19
 74
    17
 42
0.0000000001
 43
0.0000000001
 44
0.00000000001
 40
0.0
 40
0.0
 40
0.0
 40
0.0
 40
0.1533160302804604
 40
0.3250192206608355
 40
0.7222816790013625
 40
1.158077658933661
 40
1.911035141456134
 40
2.65751951668384
 40
3.651648289792981
 40
4.660003146000266
 40
5.813406297692038
 40
6.952538213007279
 40
8.133619574390749
 40
9.364220948601719
 40
10.33129144713607
 40
11.19934777833162
 40
11.81318961897424
 40
12.45000219647602
 40
12.45000219647602
 40
12.45000219647602
 40
12.45000219647602
 10
391.666172878542
 20
560.715344241357
 30
0.0
 10
391.6661716753259
 20
560.6642388979423
 30
0.0
 10
391.6661691245922
 20
560.555899157748
 30
0.0
 10
391.6661614014976
 20
560.3151385982457
 30
0.0
 10
391.6661696003662
 20
559.9802180546038
 30
0.0
 10
391.6662503818027
 20
559.4515460867244
 30
0.0
 10
391.6663461829309
 20
558.8064668139484
 30
0.0
 10
391.6663665764581
 20
557.9752766025579
 30
0.0
 10
391.6663520255249
 20
557.0589539345801
 30
0.0
 10
391.6663290736364
 20
556.0069916752096
 30
0.0
 10
391.6663425189936
 20
554.906695030332
 30
0.0
 10
391.6665500707456
 20
553.7488229060715
 30
0.0
 10
391.6666914882219
 20
552.5652180216379
 30
0.0
 10
391.6664948800819
 20
551.4389669509336
 30
0.0
 10
391.6662618916315
 20
550.4170575768401
 30
0.0
 10
391.6661875985793
 20
549.6007346877397
 30
0.0
 10
391.6661611563315
 20
548.8944977720372
 30
0.0
 10
391.6661409225085
 20
548.4776129664457
 30
0.0
 10
391.6661306197799
 20
548.2653421075109
 30
0.0
 11
391.666172878542
 21
560.715344241357
 31
0.0
 11
391.6661690631622
 21
560.562028211124
 31
0.0
 11
391.6661647902048
 21
560.3903250207967
 31
0.0
 11
391.6661773891
 21
559.993062562656
 31
0.0
 11
391.6662339991754
 21
559.5572665864006
 31
0.0
 11
391.6663308781875
 21
558.8043091101106
 31
0.0
 11
391.6663602382966
 21
558.0578247354602
 31
0.0
 11
391.6663511238842
 21
557.0636959623929
 31
0.0
 11
391.6663354650939
 21
556.0553411063072
 31
0.0
 11
391.6663748864024
 21
554.901937955289
 31
0.0
 11
391.666536421288
 21
553.7628060514271
 31
0.0
 11
391.6666328219004
 21
552.5817246939777
 31
0.0
 11
391.6664672739997
 21
551.351123330902
 31
0.0
 11
391.6662776368817
 21
550.3840528509611
 31
0.0
 11
391.6661889661634
 21
549.5159965242943
 31
0.0
 11
391.6661603287948
 21
548.9021546843197
 31
0.0
 11
391.6661306197799
 21
548.2653421075109
 31
0.0
  0
SPLINE
  5
2B8
330
A
100
AcDbEntity
  8
0
  6
Continuous
 62
     3
100
AcDbSpline
210
0.0
220
0.0
230
1.0
 70
     8
 71
     3
 72
    21
 73
    17
 74
    15
 42
0.0000000001
 43
0.0000000001
 44
0.00000000001
 40
0.0
 40
0.0
 40
0.0
 40
0.0
 40
0.0064229153522883
 40
0.0117663950671124
 40
0.0153850067634013
 40
0.0183801733909203
 40
0.0270137062418319
 40
0.0387999392094739
 40
0.0640339787628595
 40
0.0883612309975865
 40
0.1210679151137924
 40
0.1572262509400979
 40
0.1851690320936967
 40
0.2073149118335118
 40
0.2199245506093811
 40
0.2340292369812539
 40
0.2340292369812539
 40
0.2340292369812539
 40
0.2340292369812539
 10
198.498582652349
 20
462.0489888662134
 30
0.0
 10
198.4972437950066
 20
462.0473180882241
 30
0.0
 10
198.4947910887875
 20
462.0442573233201
 30
0.0
 10
198.4915878857809
 20
462.0402533049579
 30
0.0
 10
198.489088434922
 20
462.0371464639766
 30
0.0
 10
198.4856531525832
 20
462.0333991599282
 30
0.0
 10
198.4809226607112
 20
462.0271584371154
 30
0.0
 10
198.4732647295273
 20
462.0140077648524
 30
0.0
 10
198.4644154271625
 20
461.9953462675355
 30
0.0
 10
198.4595819486903
 20
461.9682787919857
 30
0.0
 10
198.4523849068737
 20
461.9377832088541
 30
0.0
 10
198.4348447616459
 20
461.9101792718984
 30
0.0
 10
198.4167233588971
 20
461.8878151032443
 30
0.0
 10
198.4006019610519
 20
461.874266670182
 30
0.0
 10
198.3866799345161
 20
461.8658018215982
 30
0.0
 10
198.3792028312852
 20
461.8609660422052
 30
0.0
 10
198.375255054373
 20
461.8584128370868
 30
0.0
 11
198.498582652349
 21
462.0489888662134
 31
0.0
 11
198.4945669470244
 21
462.0439760873065
 31
0.0
 11
198.491226121439
 21
462.0398057563999
 31
0.0
 11
198.4889258985506
 21
462.0370123131354
 31
0.0
 11
198.4869414556877
 21
462.0347688761181
 31
0.0
 11
198.4816847640862
 21
462.0279201475576
 31
0.0
 11
198.4756085991552
 21
462.0178208650436
 31
0.0
 11
198.4653830636099
 21
461.9947515092877
 31
0.0
 11
198.4598825572904
 21
461.9710542598371
 31
0.0
 11
198.4510366302025
 21
461.9395665358827
 31
0.0
 11
198.4327662556097
 21
461.9083636728415
 31
0.0
 11
198.4147724671912
 21
461.8869855860013
 31
0.0
 11
198.3977575186828
 21
461.8728105545478
 31
0.0
 11
198.387135953476
 21
461.8660145746614
 31
0.0
 11
198.375255054373
 21
461.8584128370868
 31
0.0
  0
SPLINE
  5
2B7
330
A
100
AcDbEntity
  8
0
  6
Continuous
 62
     3
100
AcDbSpline
210
0.0
220
0.0
230
1.0
 70
     8
 71
     3
 72
    21
 73
    17
 74
    15
 42
0.0000000001
 43
0.0000000001
 44
0.00000000001
 40
0.0
 40
0.0
 40
0.0
 40
0.0
 40
0.0981453730919056
 40
0.1849619492349652
 40
0.2687962345525557
 40
0.3638369253645242
 40
0.4540099521059914
 40
0.5358961768238892
 40
0.5951173585007818
 40
0.6545499623916849
 40
0.7140015114913597
 40
0.7804546530546251
 40
0.825998794752172
 40
0.8610490338389451
 40
0.886824418948392
 40
0.9190093349193563
 40
0.9190093349193563
 40
0.9190093349193563
 40
0.9190093349193563
 10
198.498582652349
 20
462.0489888662134
 30
0.0
 10
198.4738824010969
 20
462.070441068883
 30
0.0
 10
198.4273330175217
 20
462.1108692734549
 30
0.0
 10
198.3590391088723
 20
462.1688691594513
 30
0.0
 10
198.294044091284
 20
462.2291231194513
 30
0.0
 10
198.2331318918848
 20
462.2950374133676
 30
0.0
 10
198.1751459241748
 20
462.3626003792852
 30
0.0
 10
198.1268996668724
 20
462.4227751510268
 30
0.0
 10
198.0880865033849
 20
462.4772388022441
 30
0.0
 10
198.056446483685
 20
462.5275173789235
 30
0.0
 10
198.0277847262268
 20
462.5823745365756
 30
0.0
 10
198.0048477999623
 20
462.6345330532703
 30
0.0
 10
197.9885895967451
 20
462.6814522457386
 30
0.0
 10
197.9906331056109
 20
462.7177055313417
 30
0.0
 10
198.0006877941768
 20
462.7470836214703
 30
0.0
 10
198.0058618202872
 20
462.7656974175751
 30
0.0
 10
198.008734917778
 20
462.7760335174982
 30
0.0
 11
198.498582652349
 21
462.0489888662134
 31
0.0
 11
198.4243567487444
 21
462.1131996869014
 31
0.0
 11
198.3586986478166
 21
462.1699987333349
 31
0.0
 11
198.2975016191179
 21
462.2272971719975
 31
0.0
 11
198.2324836239571
 21
462.2966181155519
 31
0.0
 11
198.1737481069694
 21
462.3650382426777
 31
0.0
 11
198.1228873531548
 21
462.4292140755119
 31
0.0
 11
198.0885972576464
 21
462.4774980035753
 31
0.0
 11
198.0571332547525
 21
462.5279187426332
 31
0.0
 11
198.0294531940018
 21
462.5805333881912
 31
0.0
 11
198.0029660372188
 21
462.6414796805245
 31
0.0
 11
197.9907693999636
 21
462.6853603241231
 31
0.0
 11
197.9926066612977
 21
462.7203623773604
 31
0.0
 11
197.9997790191734
 21
462.7451197552516
 31
0.0
 11
198.008734917778
 21
462.7760335174982
 31
0.0
  0
SPLINE
  5
2B6
330
A
100
AcDbEntity
  8
0
  6
Continuous
 62
     3
100
AcDbSpline
210
0.0
220
0.0
230
1.0
 70
     8
 71
     3
 72
    17
 73
    13
 74
    11
 42
0.0000000001
 43
0.0000000001
 44
0.00000000001
 40
0.0
 40
0.0
 40
0.0
 40
0.0
 40
0.0020416041454178
 40
0.0039899653585342
 40
0.0070177334460146
 40
0.010039582071492
 40
0.0173942263095142
 40
0.0263250369202098
 40
0.0376273565712576
 40
0.0469806700121707
 40
0.0575462551960675
 40
0.070207673719832
 40
0.070207673719832
 40
0.070207673719832
 40
0.070207673719832
 10
197.941970265049
 20
462.7543802676384
 30
0.0
 10
197.9426019886409
 20
462.754633358255
 30
0.0
 10
197.9438365841199
 20
462.7551279804841
 30
0.0
 10
197.9460061580425
 20
462.7560025753727
 30
0.0
 10
197.9484897774042
 20
462.7569723769251
 30
0.0
 10
197.9526957571398
 20
462.7584813893896
 30
0.0
 10
197.9588073900977
 20
462.7605004621238
 30
0.0
 10
197.9675883797109
 20
462.7632318921832
 30
0.0
 10
197.9770212715878
 20
462.7661099067641
 30
0.0
 10
197.9869572841812
 20
462.7692056475119
 30
0.0
 10
197.9973190617224
 20
462.7724576211871
 30
0.0
 10
198.0047074091181
 20
462.7747719429576
 30
0.0
 10
198.008734917778
 20
462.7760335174982
 30
0.0
 11
197.941970265049
 21
462.7543802676384
 31
0.0
 11
197.9438651546233
 21
462.7551402288136
 31
0.0
 11
197.9456735019261
 21
462.7558654814932
 31
0.0
 11
197.9484965380914
 21
462.7569599431877
 31
0.0
 11
197.9513386495214
 21
462.7579865744431
 31
0.0
 11
197.9583142669866
 21
462.7603171436543
 31
0.0
 11
197.9668356426828
 21
462.7629902568968
 31
0.0
 11
197.9776390805784
 21
462.7663111241225
 31
0.0
 11
197.9865705725565
 21
462.7690883391609
 31
0.0
 11
197.9966527717256
 21
462.7722475875197
 31
0.0
 11
198.008734917778
 21
462.7760335174982
 31
0.0
  0
SPLINE
  5
2B5
330
A
100
AcDbEntity
  8
0
  6
Continuous
 62
     3
100
AcDbSpline
210
0.0
220
0.0
230
1.0
 70
     8
 71
     3
 72
    13
 73
     9
 74
     7
 42
0.0000000001
 43
0.0000000001
 44
0.00000000001
 40
0.0
 40
0.0
 40
0.0
 40
0.0
 40
0.0473724335443037
 40
0.0948618177979199
 40
0.1383840768648111
 40
0.1809927069501297
 40
0.2206014801898819
 40
0.2603496706863764
 40
0.2603496706863764
 40
0.2603496706863764
 40
0.2603496706863764
 10
198.008734917778
 20
462.7760335174982
 30
0.0
 10
198.0229049111124
 20
462.7830075321075
 30
0.0
 10
198.0512798799566
 20
462.7969727784269
 30
0.0
 10
198.0929818167703
 20
462.8166201392422
 30
0.0
 10
198.1321059338711
 20
462.8382746925113
 30
0.0
 10
198.164286218761
 20
462.8654100686495
 30
0.0
 10
198.1933397141394
 20
462.8938171832109
 30
0.0
 10
198.2125820554349
 20
462.9119733181501
 30
0.0
 10
198.222220128912
 20
462.9210673343052
 30
0.0
 11
198.008734917778
 21
462.7760335174982
 31
0.0
 11
198.0512976594814
 21
462.7968316058382
 31
0.0
 11
198.093965477966
 21
462.8176810394649
 31
0.0
 11
198.1315625382644
 21
462.8396047273664
 31
0.0
 11
198.1646627388163
 21
462.866435159364
 31
0.0
 11
198.1933908743856
 21
462.8937032569189
 31
0.0
 11
198.222220128912
 21
462.9210673343052
 31
0.0
  0
SPLINE
  5
2B4
330
A
100
AcDbEntity
  8
0
  6
Continuous
 62
     3
100
AcDbSpline
210
0.0
220
0.0
230
1.0
 70
     8
 71
     3
 72
    17
 73
    13
 74
    11
 42
0.0000000001
 43
0.0000000001
 44
0.00000000001
 40
0.0
 40
0.0
 40
0.0
 40
0.0
 40
0.2761686085709424
 40
0.5391388519270352
 40
0.8515037351039277
 40
1.1959132714841
 40
1.570994595975887
 40
1.937320127435699
 40
2.183549979194685
 40
2.404239417608451
 40
2.553657593071704
 40
2.712084899751106
 40
2.712084899751106
 40
2.712084899751106
 40
2.712084899751106
 10
197.942029869694
 20
462.7543796855617
 30
0.0
 10
197.8499820184422
 20
462.7556199649384
 30
0.0
 10
197.6702853718789
 20
462.7580412495395
 30
0.0
 10
197.3864746933709
 20
462.7617222801879
 30
0.0
 10
197.0799277000848
 20
462.7663746143981
 30
0.0
 10
196.7360406872808
 20
462.7730924923419
 30
0.0
 10
196.374183672379
 20
462.7807843781356
 30
0.0
 10
196.0450525077556
 20
462.7880933489645
 30
0.0
 10
195.7673771442655
 20
462.7944570578176
 30
0.0
 10
195.5619860205853
 20
462.7991975877383
 30
0.0
 10
195.3858553712253
 20
462.8032951785899
 30
0.0
 10
195.2832678802884
 20
462.8056780146846
 30
0.0
 10
195.23047301783
 20
462.8069042997096
 30
0.0
 11
197.942029869694
 21
462.7543796855617
 31
0.0
 11
197.6658860085164
 21
462.7580767511515
 31
0.0
 11
197.4029393298519
 21
462.7615971303968
 31
0.0
 11
197.0906118088286
 21
462.7664282641725
 31
0.0
 11
196.7462647351787
 21
462.7729873508791
 31
0.0
 11
196.3712670182905
 21
462.7809064613801
 31
0.0
 11
196.0050316591295
 21
462.7890339886511
 31
0.0
 11
195.7588660696957
 21
462.7946591531755
 31
0.0
 11
195.5382354451693
 21
462.7997538316224
 31
0.0
 11
195.3888575818038
 21
462.8032244360564
 31
0.0
 11
195.23047301783
 21
462.8069042997096
 31
0.0
  0
SPLINE
  5
2B3
330
A
100
AcDbEntity
  8
0
  6
Continuous
 62
     3
100
AcDbSpline
210
0.0
220
0.0
230
1.0
 70
     8
 71
     3
 72
    17
 73
    13
 74
    11
 42
0.0000000001
 43
0.0000000001
 44
0.00000000001
 40
0.0
 40
0.0
 40
0.0
 40
0.0
 40
0.0016221241613378
 40
0.0043603096232705
 40
0.0110966263006796
 40
0.0175267662751203
 40
0.0275456310867917
 40
0.0390327010133974
 40
0.0481798171905884
 40
0.0549787173512229
 40
0.0596450144196443
 40
0.06559431317352
 40
0.06559431317352
 40
0.06559431317352
 40
0.06559431317352
 10
192.190084791321
 20
460.0117033883591
 30
0.0
 10
192.1899860187049
 20
460.0111717750862
 30
0.0
 10
192.1897205154845
 20
460.0097427855398
 30
0.0
 10
192.1890594866824
 20
460.0061035883166
 30
0.0
 10
192.1879666853455
 20
460.0009127443434
 30
0.0
 10
192.1858637863683
 20
459.9934694935176
 30
0.0
 10
192.1825800122762
 20
459.9847417908671
 30
0.0
 10
192.1783197660185
 20
459.9754524555678
 30
0.0
 10
192.174127545961
 20
459.9673117312643
 30
0.0
 10
192.170214091211
 20
459.9616362887521
 30
0.0
 10
192.1663816465256
 20
459.957272803241
 30
0.0
 10
192.1641107158432
 20
459.9545593702449
 30
0.0
 10
192.162838018078
 20
459.953038680892
 30
0.0
 11
192.190084791321
 21
460.0117033883591
 31
0.0
 11
192.1897892704424
 21
460.010108410552
 31
0.0
 11
192.1892904239345
 21
460.0074160488033
 31
0.0
 11
192.1878698599254
 21
460.0008312207665
 31
0.0
 11
192.1861218002489
 21
459.9946432495758
 31
0.0
 11
192.1826525390899
 21
459.9852442135015
 31
0.0
 11
192.1779060899169
 21
459.9747836209874
 31
0.0
 11
192.1735743291724
 21
459.9667272208476
 31
0.0
 11
192.1696873870249
 21
459.9611489841964
 31
0.0
 11
192.1666766101667
 21
459.9575839384687
 31
0.0
 11
192.162838018078
 21
459.953038680892
 31
0.0
  0
SPLINE
  5
2B2
330
A
100
AcDbEntity
  8
0
  6
Continuous
 62
     3
100
AcDbSpline
210
0.0
220
0.0
230
1.0
 70
    24
 71
     3
 72
    41
 73
    37
 74
    35
 42
0.0000000001
 43
0.0000000001
 44
0.00000000001
 40
0.0
 40
0.0
 40
0.0
 40
0.0
 40
0.0697219948610837
 40
0.1354635988624295
 40
0.2195286896899233
 40
0.3126366542675214
 40
0.4247495759867093
 40
0.5274483826552796
 40
0.6458190278732446
 40
0.7696838644257014
 40
0.9345198746981395
 40
1.099308386345057
 40
1.303112540262191
 40
1.511663433303795
 40
1.731902913721114
 40
1.938817775270706
 40
2.171592657914004
 40
2.416221934985401
 40
2.72286337077287
 40
3.038510326242032
 40
3.343687146166928
 40
3.641894511227746
 40
3.853384847951531
 40
4.056704561974413
 40
4.178632367740135
 40
4.297071814388118
 40
4.376874805387274
 40
4.461086655739336
 40
4.52390743306887
 40
4.585947300562054
 40
4.627121981010986
 40
4.670061071499901
 40
4.685600820011529
 40
4.694907812508006
 40
4.696846119682732
 40
4.70000000030302
 40
4.70000000030302
 40
4.70000000030302
 40
4.70000000030302
 10
274.202369395036
 20
467.1247188137505
 30
0.0
 10
274.2256100599897
 20
467.1247188137505
 30
0.0
 10
274.2707645929439
 20
467.1247188137506
 30
0.0
 10
274.3439408228404
 20
467.1247188137503
 30
0.0
 10
274.424912375976
 20
467.1247188137505
 30
0.0
 10
274.5213410350174
 20
467.1247188137506
 30
0.0
 10
274.6239809326724
 20
467.1247188137503
 30
0.0
 10
274.7350417238743
 20
467.1247188137505
 30
0.0
 10
274.8500198200208
 20
467.1247188137506
 30
0.0
 10
274.9857103173683
 20
467.1247188137503
 30
0.0
 10
275.136873436859
 20
467.1247188137505
 30
0.0
 10
275.3146829954711
 20
467.1247188137505
 30
0.0
 10
275.5070641816731
 20
467.1247188137506
 30
0.0
 10
275.7179290241317
 20
467.1247188137504
 30
0.0
 10
275.9298307691346
 20
467.1247188137506
 30
0.0
 10
276.1498071773379
 20
467.1247188137503
 30
0.0
 10
276.3779135177593
 20
467.1247188137504
 30
0.0
 10
276.6392620495934
 20
467.1247188137504
 30
0.0
 10
276.9282346057027
 20
467.1247188137505
 30
0.0
 10
277.2373896760966
 20
467.1247188137505
 30
0.0
 10
277.5437333895817
 20
467.1247188137506
 30
0.0
 10
277.8153582301513
 20
467.1247188137503
 30
0.0
 10
278.0530307020872
 20
467.1247188137506
 30
0.0
 10
278.2319433209246
 20
467.1247188137504
 30
0.0
 10
278.3798389764036
 20
467.1247188137503
 30
0.0
 10
278.4865623908745
 20
467.1247188137505
 30
0.0
 10
278.5807138202075
 20
467.1247188137504
 30
0.0
 10
278.6563256931011
 20
467.1247188137505
 30
0.0
 10
278.726016524826
 20
467.1247188137505
 30
0.0
 10
278.78136163325
 20
467.1247188137505
 30
0.0
 10
278.830079512727
 20
467.1247188137506
 30
0.0
 10
278.8632973525434
 20
467.1247188137504
 30
0.0
 10
278.8858926297092
 20
467.1247188137503
 30
0.0
 10
278.8948209791032
 20
467.1247188137506
 30
0.0
 10
278.8996207058673
 20
467.1247188137505
 30
0.0
 10
278.901318101799
 20
467.1247188137506
 30
0.0
 10
278.902369395339
 20
467.1247188137505
 30
0.0
 11
274.202369395036
 21
467.1247188137505
 31
0.0
 11
274.272091389897
 21
467.1247188137505
 31
0.0
 11
274.3378329938984
 21
467.1247188137505
 31
0.0
 11
274.4218980847259
 21
467.1247188137505
 31
0.0
 11
274.5150060493035
 21
467.1247188137505
 31
0.0
 11
274.6271189710227
 21
467.1247188137505
 31
0.0
 11
274.7298177776912
 21
467.1247188137505
 31
0.0
 11
274.8481884229093
 21
467.1247188137505
 31
0.0
 11
274.9720532594617
 21
467.1247188137505
 31
0.0
 11
275.1368892697341
 21
467.1247188137505
 31
0.0
 11
275.301677781381
 21
467.1247188137505
 31
0.0
 11
275.5054819352982
 21
467.1247188137505
 31
0.0
 11
275.7140328283398
 21
467.1247188137505
 31
0.0
 11
275.9342723087571
 21
467.1247188137505
 31
0.0
 11
276.1411871703067
 21
467.1247188137505
 31
0.0
 11
276.37396205295
 21
467.1247188137505
 31
0.0
 11
276.6185913300214
 21
467.1247188137505
 31
0.0
 11
276.9252327658088
 21
467.1247188137505
 31
0.0
 11
277.240879721278
 21
467.1247188137505
 31
0.0
 11
277.5460565412029
 21
467.1247188137505
 31
0.0
 11
277.8442639062637
 21
467.1247188137505
 31
0.0
 11
278.0557542429875
 21
467.1247188137505
 31
0.0
 11
278.2590739570104
 21
467.1247188137505
 31
0.0
 11
278.3810017627761
 21
467.1247188137505
 31
0.0
 11
278.4994412094241
 21
467.1247188137505
 31
0.0
 11
278.5792442004233
 21
467.1247188137505
 31
0.0
 11
278.6634560507753
 21
467.1247188137505
 31
0.0
 11
278.7262768281049
 21
467.1247188137505
 31
0.0
 11
278.788316695598
 21
467.1247188137505
 31
0.0
 11
278.829491376047
 21
467.1247188137505
 31
0.0
 11
278.8724304665359
 21
467.1247188137505
 31
0.0
 11
278.8879702150475
 21
467.1247188137505
 31
0.0
 11
278.897277207544
 21
467.1247188137505
 31
0.0
 11
278.8992155147187
 21
467.1247188137505
 31
0.0
 11
278.902369395339
 21
467.1247188137505
 31
0.0
  0
SPLINE
  5
2B1
330
A
100
AcDbEntity
  8
0
  6
Continuous
 62
     3
100
AcDbSpline
210
0.0
220
0.0
230
1.0
 70
     8
 71
     3
 72
    15
 73
    11
 74
     9
 42
0.0000000001
 43
0.0000000001
 44
0.00000000001
 40
0.0
 40
0.0
 40
0.0
 40
0.0
 40
0.0630844957192445
 40
0.1114982698286246
 40
0.1655712985824641
 40
0.2383202763028425
 40
0.3109939586354379
 40
0.3649952891832673
 40
0.4132254790595106
 40
0.4760692849119885
 40
0.4760692849119885
 40
0.4760692849119885
 40
0.4760692849119885
 10
279.202369394947
 20
466.8247188139268
 30
0.0
 10
279.2018495391546
 20
466.8457309653682
 30
0.0
 10
279.2009307235128
 20
466.8828687518304
 30
0.0
 10
279.1905917137847
 20
466.937790754596
 30
0.0
 10
279.1600902371339
 20
466.9887025341806
 30
0.0
 10
279.1150750049709
 20
467.0377871273652
 30
0.0
 10
279.0659368067259
 20
467.0827102770817
 30
0.0
 10
279.0150629260548
 20
467.1130577892262
 30
0.0
 10
278.9602971087807
 20
467.1232907816585
 30
0.0
 10
278.9233011109606
 20
467.1242028060492
 30
0.0
 10
278.902369395224
 20
467.1247188141697
 30
0.0
 11
279.202369394947
 21
466.8247188139268
 31
0.0
 11
279.198875156607
 21
466.8877064627047
 31
0.0
 11
279.1883924414908
 21
466.9349717375617
 31
0.0
 11
279.1621516578771
 21
466.9822508419732
 31
0.0
 11
279.1143026533656
 21
467.0370494416508
 31
0.0
 11
279.0594820548761
 21
467.0847586240482
 31
0.0
 11
279.0122177139866
 21
467.1108780762096
 31
0.0
 11
278.9651178697641
 21
467.1212586296497
 31
0.0
 11
278.902369395224
 21
467.1247188141697
 31
0.0
  0
SPLINE
  5
2B0
330
A
100
AcDbEntity
  8
0
  6
Continuous
 62
     3
100
AcDbSpline
210
0.0
220
0.0
230
1.0
 70
    24
 71
     3
 72
    31
 73
    27
 74
    25
 42
0.0000000001
 43
0.0000000001
 44
0.00000000001
 40
0.0
 40
0.0
 40
0.0
 40
0.0
 40
0.0046707259687651
 40
0.0186829038751171
 40
0.1212607773995273
 40
0.2644600608168162
 40
0.4176014508917092
 40
0.516910859953839
 40
0.6135078374887258
 40
0.7562141458811312
 40
0.9188063640090717
 40
1.035433264559117
 40
1.1745898112963
 40
1.36859576615592
 40
1.576690847070892
 40
1.726105321931697
 40
1.891993669378052
 40
2.123033742494328
 40
2.357906716906029
 40
2.514972100591705
 40
2.73472624902098
 40
3.062578831476287
 40
3.496073057248963
 40
3.824692333047721
 40
4.204222927550688
 40
4.70000000030302
 40
4.70000000030302
 40
4.70000000030302
 40
4.70000000030302
 10
278.902369395339
 20
456.1247188133647
 30
0.0
 10
278.9008124866827
 20
456.1247188133647
 30
0.0
 10
278.8945848520577
 20
456.1247188133647
 30
0.0
 10
278.8541645929245
 20
456.1247188133649
 30
0.0
 10
278.7675681479753
 20
456.1247188133647
 30
0.0
 10
278.6345952989695
 20
456.1247188133647
 30
0.0
 10
278.5027119381183
 20
456.1247188133648
 30
0.0
 10
278.3863626792275
 20
456.1247188133645
 30
0.0
 10
278.2734917808978
 20
456.1247188133648
 30
0.0
 10
278.1395266128793
 20
456.1247188133647
 30
0.0
 10
277.9988848038559
 20
456.1247188133645
 30
0.0
 10
277.8594262487175
 20
456.1247188133647
 30
0.0
 10
277.709496448002
 20
456.1247188133648
 30
0.0
 10
277.5290772538313
 20
456.1247188133648
 30
0.0
 10
277.3452387502861
 20
456.1247188133648
 30
0.0
 10
277.1707727825456
 20
456.1247188133648
 30
0.0
 10
276.9886584840709
 20
456.1247188133648
 30
0.0
 10
276.7780580190795
 20
456.1247188133647
 30
0.0
 10
276.5703985420083
 20
456.1247188133645
 30
0.0
 10
276.3665010398328
 20
456.1247188133648
 30
0.0
 10
276.131610334976
 20
456.1247188133648
 30
0.0
 10
275.8045766827569
 20
456.1247188133646
 30
0.0
 10
275.441254654748
 20
456.1247188133647
 30
0.0
 10
275.0607066227233
 20
456.1247188133648
 30
0.0
 10
274.6593976417052
 20
456.1247188133647
 30
0.0
 10
274.3676284192868
 20
456.1247188133647
 30
0.0
 10
274.202369395036
 20
456.1247188133647
 30
0.0
 11
278.902369395339
 21
456.1247188133647
 31
0.0
 11
278.8976986693703
 21
456.1247188133647
 31
0.0
 11
278.8836864914639
 21
456.1247188133648
 31
0.0
 11
278.7811086179395
 21
456.1247188133647
 31
0.0
 11
278.6379093345222
 21
456.1247188133647
 31
0.0
 11
278.4847679444473
 21
456.1247188133647
 31
0.0
 11
278.3854585353852
 21
456.1247188133647
 31
0.0
 11
278.2888615578503
 21
456.1247188133647
 31
0.0
 11
278.1461552494579
 21
456.1247188133647
 31
0.0
 11
277.98356303133
 21
456.1247188133647
 31
0.0
 11
277.8669361307799
 21
456.1247188133647
 31
0.0
 11
277.7277795840427
 21
456.1247188133647
 31
0.0
 11
277.5337736291831
 21
456.1247188133647
 31
0.0
 11
277.3256785482681
 21
456.1247188133648
 31
0.0
 11
277.1762640734073
 21
456.1247188133647
 31
0.0
 11
277.0103757259609
 21
456.1247188133648
 31
0.0
 11
276.7793356528447
 21
456.1247188133647
 31
0.0
 11
276.544462678433
 21
456.1247188133647
 31
0.0
 11
276.3873972947473
 21
456.1247188133647
 31
0.0
 11
276.167643146318
 21
456.1247188133648
 31
0.0
 11
275.8397905638627
 21
456.1247188133647
 31
0.0
 11
275.4062963380901
 21
456.1247188133647
 31
0.0
 11
275.0776770622913
 21
456.1247188133647
 31
0.0
 11
274.6981464677883
 21
456.1247188133647
 31
0.0
 11
274.202369395036
 21
456.1247188133647
 31
0.0
  0
SPLINE
  5
2AF
330
A
100
AcDbEntity
  8
0
  6
Continuous
 62
     3
100
AcDbSpline
210
0.0
220
0.0
230
1.0
 70
     8
 71
     3
 72
    15
 73
    11
 74
     9
 42
0.0000000001
 43
0.0000000001
 44
0.00000000001
 40
0.0
 40
0.0
 40
0.0
 40
0.0
 40
0.0628438058524811
 40
0.1110739957287732
 40
0.1650753262764927
 40
0.2377490086092373
 40
0.3104979863296531
 40
0.3645710150833159
 40
0.4129847891926405
 40
0.4760692849119986
 40
0.4760692849119986
 40
0.4760692849119986
 40
0.4760692849119986
 10
278.902369395224
 20
456.1247188133314
 30
0.0
 10
278.9233011109607
 20
456.1252348214517
 30
0.0
 10
278.9602971087806
 20
456.1261468458424
 30
0.0
 10
279.0150629260547
 20
456.1363798382751
 30
0.0
 10
279.065936806726
 20
456.166727350419
 30
0.0
 10
279.1150750049707
 20
456.2116505001361
 30
0.0
 10
279.1600902371339
 20
456.2607350933206
 30
0.0
 10
279.1905917137846
 20
456.3116468729052
 30
0.0
 10
279.2009307235129
 20
456.3665688756706
 30
0.0
 10
279.2018495391546
 20
456.4037066621329
 30
0.0
 10
279.202369394947
 20
456.4247188135744
 30
0.0
 11
278.902369395224
 21
456.1247188133314
 31
0.0
 11
278.9651178697641
 21
456.1281789978514
 31
0.0
 11
279.0122177139866
 21
456.1385595512916
 31
0.0
 11
279.0594820548761
 21
456.1646790034528
 31
0.0
 11
279.1143026533656
 21
456.2123881858505
 31
0.0
 11
279.1621516578772
 21
456.267186785528
 31
0.0
 11
279.1883924414908
 21
456.3144658899394
 31
0.0
 11
279.198875156607
 21
456.3617311647963
 31
0.0
 11
279.202369394947
 21
456.4247188135744
 31
0.0
  0
SPLINE
  5
2AE
330
A
100
AcDbEntity
  8
0
  6
Continuous
 62
     3
100
AcDbSpline
210
0.0
220
0.0
230
1.0
 70
     8
 71
     3
 72
    17
 73
    13
 74
    11
 42
0.0000000001
 43
0.0000000001
 44
0.00000000001
 40
0.0
 40
0.0
 40
0.0
 40
0.0
 40
0.0803424449516462
 40
0.1682365916797284
 40
0.2796727231047094
 40
0.3977362496317518
 40
0.4976881208597731
 40
0.5903554194716384
 40
0.6319594385683486
 40
0.669019614743566
 40
0.6762181674800464
 40
0.679493934758439
 40
0.679493934758439
 40
0.679493934758439
 40
0.679493934758439
 10
199.338082409043
 20
463.0747187953104
 30
0.0
 10
199.3646510530139
 20
463.0713070545539
 30
0.0
 10
199.4202856320949
 20
463.0641628901349
 30
0.0
 10
199.5129855235387
 20
463.0550336698489
 30
0.0
 10
199.6170857039482
 20
463.0305327088049
 30
0.0
 10
199.7127835361013
 20
462.9742325481873
 30
0.0
 10
199.794207949906
 20
462.9102261960565
 30
0.0
 10
199.8509206038375
 20
462.856304124076
 30
0.0
 10
199.8888648029739
 20
462.8135920483384
 30
0.0
 10
199.9066881832916
 20
462.7911738514585
 30
0.0
 10
199.9160687718992
 20
462.7784042157407
 30
0.0
 10
199.918144523189
 20
462.7755968290151
 30
0.0
 10
199.9187936992829
 20
462.7747188392688
 30
0.0
 11
199.338082409043
 21
463.0747187953104
 31
0.0
 11
199.4178177295273
 21
463.064860442097
 31
0.0
 11
199.5050476857761
 21
463.0540754635673
 31
0.0
 11
199.6128824957555
 21
463.0259744823805
 31
0.0
 11
199.7162291481982
 21
462.9688915100955
 31
0.0
 11
199.7950823083364
 21
462.9074703761252
 31
0.0
 11
199.8619630301757
 21
462.8433283674391
 31
0.0
 11
199.8895655555684
 21
462.8121996829674
 31
0.0
 11
199.9125691725561
 21
462.7831430096613
 31
0.0
 11
199.9168470238952
 21
462.7773534371882
 31
0.0
 11
199.9187936992829
 21
462.7747188392688
 31
0.0
  0
SPLINE
  5
2AD
330
A
100
AcDbEntity
  8
0
  6
Continuous
 62
     3
100
AcDbSpline
210
0.0
220
0.0
230
1.0
 70
     8
 71
     3
 72
    17
 73
    13
 74
    11
 42
0.0000000001
 43
0.0000000001
 44
0.00000000001
 40
0.0
 40
0.0
 40
0.0
 40
0.0
 40
0.0276148350468087
 40
0.0538221682620995
 40
0.0871887291007127
 40
0.1240085920484647
 40
0.1714521837610614
 40
0.2193259253946577
 40
0.2576845452374584
 40
0.2918078532581889
 40
0.3197263059784419
 40
0.3500058270022181
 40
0.3500058270022181
 40
0.3500058270022181
 40
0.3500058270022181
 10
198.498582652349
 20
462.7747188392688
 30
0.0
 10
198.4977459257916
 20
462.7838866437169
 30
0.0
 10
198.4961151198321
 20
462.8017549783556
 30
0.0
 10
198.4942165193116
 20
462.8307489576039
 30
0.0
 10
198.488381854138
 20
462.8625610589889
 30
0.0
 10
198.4727640316819
 20
462.8987780620799
 30
0.0
 10
198.4502478689228
 20
462.9367379431936
 30
0.0
 10
198.4230509543889
 20
462.9721388288701
 30
0.0
 10
198.3948639163213
 20
463.0009789931628
 30
0.0
 10
198.3667982160523
 20
463.0195677414365
 30
0.0
 10
198.3393585798513
 20
463.0334926501541
 30
0.0
 10
198.3222925622805
 20
463.0427200438405
 30
0.0
 10
198.313413372773
 20
463.0475209165025
 30
0.0
 11
198.498582652349
 21
462.7747188392688
 31
0.0
 11
198.4961932468685
 21
462.8022301070715
 31
0.0
 11
198.4939256271092
 21
462.8283391517665
 31
0.0
 11
198.4874449591104
 21
462.8610703039687
 31
0.0
 11
198.4735691418804
 21
462.8951754942437
 31
0.0
 11
198.4495406006496
 21
462.936084217041
 31
0.0
 11
198.420297951804
 21
462.9739888688201
 31
0.0
 11
198.3929516141721
 21
463.0008879679568
 31
0.0
 11
198.3647318840042
 21
463.0200725184995
 31
0.0
 11
198.3401136140317
 21
463.0332399322873
 31
0.0
 11
198.313413372773
 21
463.0475209165025
 31
0.0
  0
SPLINE
  5
2AC
330
A
100
AcDbEntity
  8
0
  6
Continuous
 62
     3
100
AcDbSpline
210
0.0
220
0.0
230
1.0
 70
     8
 71
     3
 72
    17
 73
    13
 74
    11
 42
0.0000000001
 43
0.0000000001
 44
0.00000000001
 40
0.0
 40
0.0
 40
0.0
 40
0.0
 40
0.0363702797324416
 40
0.0718983154174887
 40
0.1136322613667559
 40
0.159047262608352
 40
0.2055077346728209
 40
0.251668166537588
 40
0.2756351713522606
 40
0.2942601221932613
 40
0.3030975279520054
 40
0.3138661959669453
 40
0.3138661959669453
 40
0.3138661959669453
 40
0.3138661959669453
 10
198.498582652349
 20
462.7747188392688
 30
0.0
 10
198.4874801592457
 20
462.7795883737307
 30
0.0
 10
198.465532278808
 20
462.7892146765045
 30
0.0
 10
198.4307902479673
 20
462.8043041998345
 30
0.0
 10
198.3935379827837
 20
462.821179123232
 30
0.0
 10
198.3534782515034
 20
462.8406509557962
 30
0.0
 10
198.3125852735846
 20
462.8617561733118
 30
0.0
 10
198.2784963364136
 20
462.8804131958211
 30
0.0
 10
198.2530338893488
 20
462.8955254297848
 30
0.0
 10
198.2393059240647
 20
462.9058656863708
 30
0.0
 10
198.2298371966936
 20
462.9143970860321
 30
0.0
 10
198.2249205855861
 20
462.9187025507713
 30
0.0
 10
198.222220128912
 20
462.9210673343052
 30
0.0
 11
198.498582652349
 21
462.7747188392688
 31
0.0
 11
198.4652663765523
 21
462.7893072941168
 31
0.0
 11
198.4327216217661
 21
462.8035579171047
 31
0.0
 11
198.3947324070704
 21
462.8208362796227
 31
0.0
 11
198.3538720417016
 21
462.8406593187363
 31
0.0
 11
198.3125863596383
 21
462.8619681882752
 31
0.0
 11
198.2721742067336
 21
462.8842761099074
 31
0.0
 11
198.2517705430973
 21
462.896850203513
 31
0.0
 11
198.2369365955118
 21
462.9081126540839
 31
0.0
 11
198.2303031722074
 21
462.9139519550531
 31
0.0
 11
198.222220128912
 21
462.9210673343052
 31
0.0
  0
SPLINE
  5
2AB
330
A
100
AcDbEntity
  8
0
  6
Continuous
 62
     3
100
AcDbSpline
210
0.0
220
0.0
230
1.0
 70
    24
 71
     3
 72
    19
 73
    15
 74
    13
 42
0.0000000001
 43
0.0000000001
 44
0.00000000001
 40
0.0
 40
0.0
 40
0.0
 40
0.0
 40
0.4208905633189773
 40
0.7956032351098941
 40
1.13763588592306
 40
1.531665320460319
 40
1.818228241903852
 40
2.056957036947153
 40
2.146069580335876
 40
2.237028505576233
 40
2.262097627591685
 40
2.278472675478724
 40
2.282088660635139
 40
2.287909388541976
 40
2.287909388541976
 40
2.287909388541976
 40
2.287909388541976
 10
194.904441198844
 20
460.1747188321907
 30
0.0
 10
194.7641443444043
 20
460.1747188321907
 30
0.0
 10
194.4989432660343
 20
460.1747188321906
 30
0.0
 10
194.11973130406
 20
460.1747188321906
 30
0.0
 10
193.7494730516795
 20
460.1747188321909
 30
0.0
 10
193.4085980494149
 20
460.1747188321907
 30
0.0
 10
193.1021576657402
 20
460.1747188321906
 30
0.0
 10
192.8973562457817
 20
460.1747188321907
 30
0.0
 10
192.7577561578908
 20
460.1747188321906
 30
0.0
 10
192.6893759610094
 20
460.1747188321906
 30
0.0
 10
192.6452415959617
 20
460.1747188321907
 30
0.0
 10
192.6302215442755
 20
460.1747188321909
 30
0.0
 10
192.6216176239586
 20
460.1747188321906
 30
0.0
 10
192.6184720529376
 20
460.1747188321906
 30
0.0
 10
192.616531810302
 20
460.1747188321907
 30
0.0
 11
194.904441198844
 21
460.1747188321907
 31
0.0
 11
194.483550635525
 21
460.1747188321907
 31
0.0
 11
194.1088379637341
 21
460.1747188321907
 31
0.0
 11
193.7668053129209
 21
460.1747188321908
 31
0.0
 11
193.3727758783836
 21
460.1747188321907
 31
0.0
 11
193.0862129569401
 21
460.1747188321907
 31
0.0
 11
192.8474841618968
 21
460.1747188321907
 31
0.0
 11
192.7583716185081
 21
460.1747188321907
 31
0.0
 11
192.6674126932677
 21
460.1747188321907
 31
0.0
 11
192.6423435712523
 21
460.1747188321907
 31
0.0
 11
192.6259685233652
 21
460.1747188321907
 31
0.0
 11
192.6223525382088
 21
460.1747188321907
 31
0.0
 11
192.616531810302
 21
460.1747188321907
 31
0.0
  0
SPLINE
  5
2AA
330
A
100
AcDbEntity
  8
0
  6
Continuous
 62
     3
100
AcDbSpline
210
0.0
220
0.0
230
1.0
 70
     8
 71
     3
 72
    13
 73
     9
 74
     7
 42
0.0000000001
 43
0.0000000001
 44
0.00000000001
 40
0.0
 40
0.0
 40
0.0
 40
0.0
 40
0.0651975875836117
 40
0.1252780176021797
 40
0.2094017126304229
 40
0.3057918439847096
 40
0.4318590668815923
 40
0.5511994665486366
 40
0.5511994665486366
 40
0.5511994665486366
 40
0.5511994665486366
 10
197.983809000391
 20
462.6678612153638
 30
0.0
 10
197.9932705468015
 20
462.6482964009076
 30
0.0
 10
198.0114510320263
 20
462.610702353939
 30
0.0
 10
198.0418396679076
 20
462.5478640654201
 30
0.0
 10
198.0767548582816
 20
462.4756652953906
 30
0.0
 10
198.1212457510335
 20
462.3836647012277
 30
0.0
 10
198.1708471799169
 20
462.2810960310828
 30
0.0
 10
198.2064605658991
 20
462.2074526849531
 30
0.0
 10
198.223779162902
 20
462.1716403239999
 30
0.0
 11
197.983809000391
 21
462.6678612153638
 31
0.0
 11
198.0121936439143
 21
462.6091667740702
 31
0.0
 11
198.0383504643123
 21
462.5550790784465
 31
0.0
 11
198.0749747014809
 21
462.4793462499174
 31
0.0
 11
198.1169390143454
 21
462.3925703669296
 31
0.0
 11
198.1718233764599
 21
462.2790774090678
 31
0.0
 11
198.223779162902
 21
462.1716403239999
 31
0.0
  0
SPLINE
  5
2A9
330
A
100
AcDbEntity
  8
0
  6
Continuous
 62
     3
100
AcDbSpline
210
0.0
220
0.0
230
1.0
 70
     8
 71
     3
 72
    41
 73
    37
 74
    35
 42
0.0000000001
 43
0.0000000001
 44
0.00000000001
 40
0.0
 40
0.0
 40
0.0
 40
0.0
 40
0.0646715293948418
 40
0.1231342958846624
 40
0.168584809784671
 40
0.2183179146448685
 40
0.2503759712647036
 40
0.2782790069704213
 40
0.2865406846868192
 40
0.2931499127751449
 40
0.2952523323067378
 40
0.29799713189786
 40
0.3005551890882556
 40
0.3032714001003796
 40
0.3054579295172556
 40
0.3074697140421901
 40
0.3091210194020451
 40
0.3108068633639213
 40
0.3127782982264141
 40
0.3145597372647684
 40
0.3180014836889543
 40
0.3214684006924971
 40
0.33054145820162
 40
0.3388399151097754
 40
0.370084520279406
 40
0.4072063729753976
 40
0.5068729043101886
 40
0.6088082226365998
 40
0.7999683457715655
 40
1.005917196344574
 40
1.299152515245012
 40
1.595705095908665
 40
1.840070914055326
 40
2.060347316651976
 40
2.216093657687487
 40
2.374149762758149
 40
2.374149762758149
 40
2.374149762758149
 40
2.374149762758149
 10
195.23047301783
 20
462.8069042997096
 30
0.0
 10
195.2481467822658
 20
462.8192503770916
 30
0.0
 10
195.2817975488364
 20
462.842757251903
 30
0.0
 10
195.328702428753
 20
462.873696367099
 30
0.0
 10
195.3687516961844
 20
462.9059258184874
 30
0.0
 10
195.3963550062609
 20
462.9383979986557
 30
0.0
 10
195.417602844359
 20
462.9681637823881
 30
0.0
 10
195.4291140594289
 20
462.9878396183586
 30
0.0
 10
195.435318235966
 20
463.0006754667114
 30
0.0
 10
195.4376746677234
 20
463.005824717063
 30
0.0
 10
195.439006585746
 20
463.0094048477804
 30
0.0
 10
195.4397800529957
 20
463.0117495420999
 30
0.0
 10
195.4405030526264
 20
463.0143247437716
 30
0.0
 10
195.4409934440173
 20
463.0167649004487
 30
0.0
 10
195.441345108289
 20
463.0190431684316
 30
0.0
 10
195.4415564517331
 20
463.0209825021474
 30
0.0
 10
195.4416479881238
 20
463.0227641734753
 30
0.0
 10
195.4416327781014
 20
463.0245343663488
 30
0.0
 10
195.4415366010529
 20
463.0263455552207
 30
0.0
 10
195.4412791999551
 20
463.0287308010699
 30
0.0
 10
195.4407694434224
 20
463.03158654262
 30
0.0
 10
195.4394303254721
 20
463.0367444353634
 30
0.0
 10
195.4371843461661
 20
463.0433386535758
 30
0.0
 10
195.4300861970026
 20
463.0579317949442
 30
0.0
 10
195.4161270088055
 20
463.0794144172605
 30
0.0
 10
195.3836977436117
 20
463.1250622625816
 30
0.0
 10
195.3301616015077
 20
463.1845417291905
 30
0.0
 10
195.2282494384869
 20
463.2671686409898
 30
0.0
 10
195.0727820566616
 20
463.338626986693
 30
0.0
 10
194.8395082975561
 20
463.3425580320531
 30
0.0
 10
194.5760318860439
 20
463.319754069965
 30
0.0
 10
194.2974717530616
 20
463.3218011940559
 30
0.0
 10
194.0438739717173
 20
463.3252921947375
 30
0.0
 10
193.8370502151687
 20
463.3255883564711
 30
0.0
 10
193.6590294221079
 20
463.3250496007498
 30
0.0
 10
193.5544282763636
 20
463.3248296308101
 30
0.0
 10
193.501742741603
 20
463.3247188362885
 30
0.0
 11
195.23047301783
 21
462.8069042997096
 31
0.0
 11
195.2836621761593
 21
462.8436917996314
 31
0.0
 11
195.331744931775
 21
462.876947531138
 31
0.0
 11
195.3666864990549
 21
462.9060135953676
 31
0.0
 11
195.3994867179487
 21
462.9433971125851
 31
0.0
 11
195.4179796802128
 21
462.9695835468773
 31
0.0
 11
195.4319182539668
 21
462.9937557532992
 31
0.0
 11
195.4355293942536
 21
463.0011864319033
 31
0.0
 11
195.4381871731037
 21
463.0072377216425
 31
0.0
 11
195.4389211325789
 21
463.0092078666563
 31
0.0
 11
195.4397792584102
 21
463.011815076823
 31
0.0
 11
195.4404584825492
 21
463.0142813110289
 31
0.0
 11
195.4410058821827
 21
463.0169417914185
 31
0.0
 11
195.4413372222808
 21
463.0191030698898
 31
0.0
 11
195.4415484647686
 21
463.0211037331763
 31
0.0
 11
195.4416310727365
 21
463.0227529709745
 31
0.0
 11
195.4416220808434
 21
463.0244387909559
 31
0.0
 11
195.4415145036016
 21
463.0264072884932
 31
0.0
 11
195.4413246975012
 21
463.0281785870822
 31
0.0
 11
195.4407278299413
 21
463.0315681840442
 31
0.0
 11
195.439877072988
 21
463.0349290955449
 31
0.0
 11
195.4369197256781
 21
463.0435066516918
 31
0.0
 11
195.4333735996566
 21
463.0510092763856
 31
0.0
 11
195.4170413123242
 21
463.0776453748743
 31
0.0
 11
195.3954534728224
 21
463.1078446651511
 31
0.0
 11
195.3289352312608
 21
463.1820655584889
 31
0.0
 11
195.2495556640489
 21
463.2460162694433
 31
0.0
 11
195.0749617747676
 21
463.3238569175816
 31
0.0
 11
194.8695809321554
 21
463.3391421568752
 31
0.0
 11
194.5767171769436
 21
463.3243850184717
 31
0.0
 11
194.2801720964991
 21
463.3222759043403
 31
0.0
 11
194.035820096774
 21
463.3248746172588
 31
0.0
 11
193.8155443877608
 21
463.325427391772
 31
0.0
 11
193.6597984437554
 21
463.3250757217154
 31
0.0
 11
193.501742741603
 21
463.3247188362885
 31
0.0
  0
SPLINE
  5
2A8
330
A
100
AcDbEntity
  8
0
  6
Continuous
 62
     3
100
AcDbSpline
210
0.0
220
0.0
230
1.0
 70
     8
 71
     3
 72
    17
 73
    13
 74
    11
 42
0.0000000001
 43
0.0000000001
 44
0.00000000001
 40
0.0
 40
0.0
 40
0.0
 40
0.0
 40
0.3268539664404881
 40
0.6315710971846546
 40
0.9668113018809345
 40
1.349347452417361
 40
1.679873684013892
 40
1.975026942997756
 40
2.102676891034655
 40
2.218061454939638
 40
2.256811073030273
 40
2.290347896813667
 40
2.290347896813667
 40
2.290347896813667
 40
2.290347896813667
 10
193.501742741603
 20
461.3124311622825
 30
0.0
 10
193.5795663764941
 20
461.3886799201209
 30
0.0
 10
193.7299428856439
 20
461.5360133368493
 30
0.0
 10
193.9590661501157
 20
461.7626467013766
 30
0.0
 10
194.2061548142765
 20
461.9974691472775
 30
0.0
 10
194.4666774014516
 20
462.2304216972057
 30
0.0
 10
194.7227199035685
 20
462.4481742692927
 30
0.0
 10
194.9204584820401
 20
462.6031220303268
 30
0.0
 10
195.0665546346449
 20
462.7073325308026
 30
0.0
 10
195.1461054385042
 20
462.7573774356202
 30
0.0
 10
195.2000990300446
 20
462.7889678689836
 30
0.0
 10
195.2208470903968
 20
462.8012200022838
 30
0.0
 10
195.23047301783
 20
462.8069042997096
 30
0.0
 11
193.501742741603
 21
461.3124311622825
 31
0.0
 11
193.7350258009681
 21
461.5413689913784
 31
0.0
 11
193.9525093006334
 21
461.7548015501465
 31
0.0
 11
194.19580056527
 21
461.9854427333647
 31
0.0
 11
194.4807187248444
 21
462.2406985830763
 31
0.0
 11
194.7331924957032
 21
462.4540166198236
 31
0.0
 11
194.9662746595844
 21
462.63509160752
 31
0.0
 11
195.0706117537931
 21
462.7086326165279
 31
0.0
 11
195.168206105068
 21
462.770186984259
 31
0.0
 11
195.201584689304
 21
462.7898695404083
 31
0.0
 11
195.23047301783
 21
462.8069042997096
 31
0.0
  0
SPLINE
  5
2A7
330
A
100
AcDbEntity
  8
0
  6
Continuous
 62
     3
100
AcDbSpline
210
0.0
220
0.0
230
1.0
 70
     8
 71
     3
 72
    13
 73
     9
 74
     7
 42
0.0000000001
 43
0.0000000001
 44
0.00000000001
 40
0.0
 40
0.0
 40
0.0
 40
0.0
 40
0.0316939338954757
 40
0.05877149076914
 40
0.0794371797040043
 40
0.1030947448741132
 40
0.1194370809851425
 40
0.1316112299679658
 40
0.1316112299679658
 40
0.1316112299679658
 40
0.1316112299679658
 10
192.162838018078
 20
459.953038680892
 30
0.0
 10
192.1529002146636
 20
459.9494505958225
 30
0.0
 10
192.1344720976756
 20
459.9427970478838
 30
0.0
 10
192.1098534556969
 20
459.9330529623235
 30
0.0
 10
192.0868083699478
 20
459.9266749500801
 30
0.0
 10
192.066532295091
 20
459.9253788125772
 30
0.0
 10
192.0491576243465
 20
459.9250811251711
 30
0.0
 10
192.0396541777815
 20
459.9248271971809
 30
0.0
 10
192.035597002644
 20
459.9247187912125
 30
0.0
 11
192.162838018078
 21
459.953038680892
 31
0.0
 11
192.1330868564342
 21
459.9421128478977
 31
0.0
 11
192.107669097499
 21
459.9327784161015
 31
0.0
 11
192.0876634972893
 21
459.9275970398942
 31
0.0
 11
192.0641043249503
 21
459.9254416307727
 31
0.0
 11
192.0477672398845
 21
459.9250273831189
 31
0.0
 11
192.035597002644
 21
459.9247187912125
 31
0.0
  0
SPLINE
  5
2A6
330
A
100
AcDbEntity
  8
0
  6
Continuous
 62
     3
100
AcDbSpline
210
0.0
220
0.0
230
1.0
 70
     8
 71
     3
 72
    15
 73
    11
 74
     9
 42
0.0000000001
 43
0.0000000001
 44
0.00000000001
 40
0.0
 40
0.0
 40
0.0
 40
0.0
 40
0.0385543927623216
 40
0.075668351696947
 40
0.1137819917319792
 40
0.1562055315187992
 40
0.1893564003228688
 40
0.2186444638426032
 40
0.2285192872151733
 40
0.2353552890794853
 40
0.2353552890794853
 40
0.2353552890794853
 40
0.2353552890794853
 10
191.978834754366
 20
459.9247187912125
 30
0.0
 10
191.9915983538592
 20
459.9262389420522
 30
0.0
 10
192.016648690959
 20
459.9292224492514
 30
0.0
 10
192.0544298768714
 20
459.9323809222815
 30
0.0
 10
192.0930214633349
 20
459.9412125959966
 30
0.0
 10
192.1264411800298
 20
459.959828438338
 30
0.0
 10
192.1550164782297
 20
459.9799424286481
 30
0.0
 10
192.1734058942529
 20
459.9956039087491
 30
0.0
 10
192.1844079539394
 20
460.0062830156987
 30
0.0
 10
192.1884367191303
 20
460.0101297717756
 30
0.0
 10
192.190084791321
 20
460.0117033883591
 30
0.0
 11
191.978834754366
 21
459.9247187912125
 31
0.0
 11
192.0171450900395
 21
459.9290500014189
 31
0.0
 11
192.0540241101223
 21
459.9332193929257
 31
0.0
 11
192.0909934507014
 21
459.9424885576057
 31
0.0
 11
192.1286559832433
 21
459.9620152155527
 31
0.0
 11
192.155748727503
 21
459.9811192285065
 31
0.0
 11
192.1780115262547
 21
460.0001496897852
 31
0.0
 11
192.18514590522
 21
460.0069770445745
 31
0.0
 11
192.190084791321
 21
460.0117033883591
 31
0.0
  0
SPLINE
  5
2A5
330
A
100
AcDbEntity
  8
0
  6
Continuous
 62
     3
100
AcDbSpline
210
0.0
220
0.0
230
1.0
 70
     8
 71
     3
 72
    13
 73
     9
 74
     7
 42
0.0000000001
 43
0.0000000001
 44
0.00000000001
 40
0.0
 40
0.0
 40
0.0
 40
0.0
 40
0.0208784048293462
 40
0.0361774680512524
 40
0.0796295968183246
 40
0.1475183991893202
 40
0.2744527918938755
 40
0.388243097083858
 40
0.388243097083858
 40
0.388243097083858
 40
0.388243097083858
 10
50.8023707182591
 20
456.4247187995944
 30
0.0
 10
50.80682640584524
 20
456.4193801019557
 30
0.0
 10
50.81454708645334
 20
456.4101293682508
 30
0.0
 10
50.83048048032198
 20
456.3887455748213
 30
0.0
 10
50.86877345645629
 20
456.3672228682791
 30
0.0
 10
50.947005982589
 20
456.3527894266785
 30
0.0
 10
51.04857597851375
 20
456.3368152016327
 30
0.0
 10
51.12774074125708
 20
456.3236638381472
 30
0.0
 10
51.16516183926508
 20
456.3174472028051
 30
0.0
 11
50.8023707182591
 21
456.4247187995944
 31
0.0
 11
50.8155773171984
 21
456.4085480379342
 31
0.0
 11
50.82525471323378
 21
456.3966985931606
 31
0.0
 11
50.86182445751981
 21
456.3732307151728
 31
0.0
 11
50.92763830800331
 21
456.3565745880149
 31
0.0
 11
51.05288472209149
 21
456.3359426756138
 31
0.0
 11
51.16516183926508
 21
456.3174472028051
 31
0.0
  0
SPLINE
  5
2A4
330
A
100
AcDbEntity
  8
0
  6
Continuous
 62
     3
100
AcDbSpline
210
0.0
220
0.0
230
1.0
 70
     8
 71
     3
 72
    21
 73
    17
 74
    15
 42
0.0000000001
 43
0.0000000001
 44
0.00000000001
 40
0.0
 40
0.0
 40
0.0
 40
0.0
 40
0.0090859478075086
 40
0.0254399447368068
 40
0.1202176452997782
 40
0.234626597591618
 40
0.5013161412614125
 40
0.7729343200229736
 40
1.150872940336231
 40
1.511444141542804
 40
2.001733177836118
 40
2.537636169484929
 40
3.092891707254191
 40
3.582406088303503
 40
4.080958639387715
 40
4.643989028743023
 40
4.643989028743023
 40
4.643989028743023
 40
4.643989028743023
 10
51.16516183926508
 20
456.3174472028051
 30
0.0
 10
51.16813357814095
 20
456.3168628244215
 30
0.0
 10
51.17645421506027
 20
456.3152266105559
 30
0.0
 10
51.21575192906567
 20
456.307384917239
 30
0.0
 10
51.29003544307719
 20
456.2954698944189
 30
0.0
 10
51.44781859238955
 20
456.278872041732
 30
0.0
 10
51.66460063546837
 20
456.2603531561684
 30
0.0
 10
51.96907118918351
 20
456.2363008267067
 30
0.0
 10
52.30503214363549
 20
456.2136878464101
 30
0.0
 10
52.71405170158178
 20
456.1917102857542
 30
0.0
 10
53.17591342298116
 20
456.1724716654607
 30
0.0
 10
53.70272138155415
 20
456.1535205506253
 30
0.0
 10
54.22940983594845
 20
456.1383787443668
 30
0.0
 10
54.74381669428494
 20
456.131338726647
 30
0.0
 10
55.26084243808215
 20
456.1286747767477
 30
0.0
 10
55.61469409708093
 20
456.1260898224596
 30
0.0
 10
55.80236594988747
 20
456.1247188435528
 30
0.0
 11
51.16516183926508
 21
456.3174472028051
 31
0.0
 11
51.17407646625608
 21
456.3156911068019
 31
0.0
 11
51.19012209908661
 21
456.3125302710531
 31
0.0
 11
51.2836644671405
 21
456.2972777990281
 31
0.0
 11
51.3973471250626
 21
456.2844068374368
 31
0.0
 11
51.66298741862735
 21
456.2607732355608
 31
0.0
 11
51.93377366916029
 21
456.2395307885251
 31
0.0
 11
52.31086040956824
 21
456.2141695793112
 31
0.0
 11
52.67090251914631
 21
456.1946434309423
 31
0.0
 11
53.16073747556457
 21
456.1735471141985
 31
0.0
 11
53.69629777815056
 21
456.1543852053129
 31
0.0
 11
54.25134644553929
 21
456.1392297094967
 31
0.0
 11
54.74080846007021
 21
456.1320697105148
 31
0.0
 11
55.23934905874622
 21
456.1286175134825
 31
0.0
 11
55.80236594988747
 21
456.1247188435528
 31
0.0
  0
SPLINE
  5
2A3
330
A
100
AcDbEntity
  8
0
  6
Continuous
 62
     3
100
AcDbSpline
210
0.0
220
0.0
230
1.0
 70
     8
 71
     3
 72
    21
 73
    17
 74
    15
 42
0.0000000001
 43
0.0000000001
 44
0.00000000001
 40
0.0
 40
0.0
 40
0.0
 40
0.0
 40
0.5629149553027224
 40
1.061311202104122
 40
1.551025387347156
 40
2.106821337212279
 40
2.642113100879781
 40
3.130519979355518
 40
3.490300098782034
 40
3.865753641242584
 40
4.153583167319556
 40
4.443477828138046
 40
4.581735735257681
 40
4.693421038393495
 40
4.733924441388382
 40
4.777781563902014
 40
4.777781563902014
 40
4.777781563902014
 40
4.777781563902014
 10
55.80236594988747
 20
467.1247187839482
 30
0.0
 10
55.6147325799209
 20
467.1233473781275
 30
0.0
 10
55.26097150898436
 20
467.1207617506778
 30
0.0
 10
54.74396974733198
 20
467.1180955558257
 30
0.0
 10
54.22936832473576
 20
467.1110505951586
 30
0.0
 10
53.70263664169616
 20
467.0959186962148
 30
0.0
 10
53.1764783637926
 20
467.0770140702992
 30
0.0
 10
52.7157138095724
 20
467.0577318797338
 30
0.0
 10
52.30841254494454
 20
467.0358553641892
 30
0.0
 10
51.96811507879427
 20
467.0134884751925
 30
0.0
 10
51.65137831423132
 20
466.9883020028897
 30
0.0
 10
51.41371837882676
 20
466.9664978010946
 30
0.0
 10
51.23485748108777
 20
466.946346994352
 30
0.0
 10
51.1394165923407
 20
466.9296441467482
 30
0.0
 10
51.075608189112
 20
466.915536520699
 30
0.0
 10
51.04811571684701
 20
466.9096281162282
 30
0.0
 10
51.03382300450246
 20
466.9065564708446
 30
0.0
 11
55.80236594988747
 21
467.1247187839482
 31
0.0
 11
55.23946450522462
 21
467.1208187198545
 31
0.0
 11
54.74108022053603
 21
467.117365663068
 31
0.0
 11
54.25141841775833
 21
467.1102031126322
 31
0.0
 11
53.69582923765237
 21
467.0950439294201
 31
0.0
 11
53.160879843875
 21
467.0759018723863
 31
0.0
 11
52.67292770323185
 21
467.0548308642428
 31
0.0
 11
52.31367083181238
 21
467.0354340946032
 31
0.0
 11
51.9390392778755
 21
467.0106034413493
 31
0.0
 11
51.65211617551121
 21
466.9877786869948
 31
0.0
 11
51.36350491326797
 21
466.9605306838124
 31
0.0
 11
51.22626160016086
 21
466.9438117756994
 31
0.0
 11
51.11628219251194
 21
466.9243660350416
 31
0.0
 11
51.07669166480425
 21
466.9158152590539
 31
0.0
 11
51.03382300450246
 21
466.9065564708446
 31
0.0
  0
SPLINE
  5
2A2
330
A
100
AcDbEntity
  8
0
  6
Continuous
 62
     3
100
AcDbSpline
210
0.0
220
0.0
230
1.0
 70
     8
 71
     3
 72
    13
 73
     9
 74
     7
 42
0.0000000001
 43
0.0000000001
 44
0.00000000001
 40
0.0
 40
0.0
 40
0.0
 40
0.0
 40
0.0167076745703861
 40
0.0547533238155317
 40
0.0947935918466293
 40
0.113247114042223
 40
0.1226088257170711
 40
0.1380754079753861
 40
0.1380754079753861
 40
0.1380754079753861
 40
0.1380754079753861
 10
50.91056059910698
 20
466.8826862075959
 30
0.0
 10
50.90509333610244
 20
466.8816559749413
 30
0.0
 10
50.88717637103282
 20
466.8782797622974
 30
0.0
 10
50.85590900716207
 20
466.8720222114816
 30
0.0
 10
50.82510251852686
 20
466.8673732884079
 30
0.0
 10
50.80330307776705
 20
466.8530855588682
 30
0.0
 10
50.80400538466013
 20
466.8379028702506
 30
0.0
 10
50.80299816037448
 20
466.8297793242944
 30
0.0
 10
50.8023707182591
 20
466.8247188279066
 30
0.0
 11
50.91056059910698
 21
466.8826862075959
 31
0.0
 11
50.89414547218125
 21
466.8795733315042
 31
0.0
 11
50.85676599374463
 21
466.8724848889184
 31
0.0
 11
50.81815495755424
 21
466.8618824859688
 31
0.0
 11
50.80451398246779
 21
466.8494544418703
 31
0.0
 11
50.8037058471356
 21
466.8401276759374
 31
0.0
 11
50.8023707182591
 21
466.8247188279066
 31
0.0
  0
SPLINE
  5
2A1
330
A
100
AcDbEntity
  8
0
  6
Continuous
 62
     3
100
AcDbSpline
210
0.0
220
0.0
230
1.0
 70
     8
 71
     3
 72
    13
 73
     9
 74
     7
 42
0.0000000001
 43
0.0000000001
 44
0.00000000001
 40
0.0
 40
0.0
 40
0.0
 40
0.0
 40
0.0190244930880857
 40
0.0409810668640796
 40
0.0632610682100577
 40
0.0828184992436069
 40
0.1032334266063795
 40
0.1261389896525001
 40
0.1261389896525001
 40
0.1261389896525001
 40
0.1261389896525001
 10
79.65236054970898
 20
576.6577226655189
 30
0.0
 10
79.64817314784284
 20
576.6624907086494
 30
0.0
 10
79.63915297605331
 20
576.6727616521872
 30
0.0
 10
79.62494584712766
 20
576.6882453235743
 30
0.0
 10
79.61176897100438
 20
576.7053679028658
 30
0.0
 10
79.60636855396486
 20
576.7257974295589
 30
0.0
 10
79.60494403294747
 20
576.7466867299295
 30
0.0
 10
79.60325354376887
 20
576.7610338891118
 30
0.0
 10
79.60235970332306
 20
576.7686199010908
 30
0.0
 11
79.65236054970898
 21
576.6577226655189
 31
0.0
 11
79.63975883555225
 21
576.6719749684055
 31
0.0
 11
79.62521492811095
 21
576.6884238555507
 31
0.0
 11
79.61262807083656
 21
576.7068078019152
 31
0.0
 11
79.60705626385148
 21
576.7255547503483
 31
0.0
 11
79.60484299384606
 21
576.7458493480312
 31
0.0
 11
79.60235970332306
 21
576.7686199010908
 31
0.0
  0
SPLINE
  5
2A0
330
A
100
AcDbEntity
  8
0
  6
Continuous
 62
     3
100
AcDbSpline
210
0.0
220
0.0
230
1.0
 70
     8
 71
     3
 72
    23
 73
    19
 74
    17
 42
0.0000000001
 43
0.0000000001
 44
0.00000000001
 40
0.0
 40
0.0
 40
0.0
 40
0.0
 40
0.0144511377459904
 40
0.0277677480609512
 40
0.0454087317999058
 40
0.0654037134768278
 40
0.0911182310495559
 40
0.1155229320082771
 40
0.1398639499196695
 40
0.1644075898986674
 40
0.1891574962215543
 40
0.2136681779139969
 40
0.2388240417265727
 40
0.2653132222731893
 40
0.2869171531326272
 40
0.3062631573178744
 40
0.3214585094971393
 40
0.3377000108651361
 40
0.3377000108651361
 40
0.3377000108651361
 40
0.3377000108651361
 10
177.222471127799
 20
572.7447550357879
 30
0.0
 10
177.2202043387431
 20
572.7490054959075
 30
0.0
 10
177.215848721316
 20
572.7571727217571
 30
0.0
 10
177.2089068988075
 20
572.7706231194583
 30
0.0
 10
177.2001735833391
 20
572.7852226580912
 30
0.0
 10
177.1874092786059
 20
572.8020803945478
 30
0.0
 10
177.1721491568815
 20
572.8198018340759
 30
0.0
 10
177.1545664517419
 20
572.8373597621547
 30
0.0
 10
177.1358515889619
 20
572.8531076032182
 30
0.0
 10
177.1158156279622
 20
572.8673311935226
 30
0.0
 10
177.0946510903137
 20
572.8799264389874
 30
0.0
 10
177.0723256408527
 20
572.8908068423184
 30
0.0
 10
177.0486049790136
 20
572.8999301236351
 30
0.0
 10
177.0252124397346
 20
572.9069773631547
 30
0.0
 10
177.003260487134
 20
572.9119947340921
 30
0.0
 10
176.9846074453312
 20
572.9139201452519
 30
0.0
 10
176.9676915884987
 20
572.9145341879127
 30
0.0
 10
176.9572259596715
 20
572.9150678292584
 30
0.0
 10
176.951819008729
 20
572.9153435291349
 30
0.0
 11
177.222471127799
 21
572.7447550357879
 31
0.0
 11
177.2157007286247
 21
572.7575220666555
 31
0.0
 11
177.2094618587817
 21
572.7692867856645
 31
0.0
 11
177.2003282835628
 21
572.7843792377846
 31
0.0
 11
177.1884203511935
 21
572.8004416298528
 31
0.0
 11
177.1716201514435
 21
572.8199092877077
 31
0.0
 11
177.1543165746848
 21
572.8371190425067
 31
0.0
 11
177.1357003895486
 21
572.8528009685344
 31
0.0
 11
177.115692527898
 21
572.8670163030569
 31
0.0
 11
177.0944178365749
 21
572.8796632541558
 31
0.0
 11
177.0723804712016
 21
572.8903930278922
 31
0.0
 11
177.0489237098742
 21
572.8994813628434
 31
0.0
 11
177.0235625578454
 21
572.9071291503537
 31
0.0
 11
177.0024489185952
 21
572.9117056191008
 31
0.0
 11
176.9832190161736
 21
572.9138219203057
 31
0.0
 11
176.9680414739671
 21
572.9145574068264
 31
0.0
 11
176.951819008729
 21
572.9153435291349
 31
0.0
  0
SPLINE
  5
29F
330
A
100
AcDbEntity
  8
0
  6
Continuous
 62
     3
100
AcDbSpline
210
0.0
220
0.0
230
1.0
 70
     8
 71
     3
 72
    37
 73
    33
 74
    31
 42
0.0000000001
 43
0.0000000001
 44
0.00000000001
 40
0.0
 40
0.0
 40
0.0
 40
0.0
 40
0.0067694912860677
 40
0.0131025565666118
 40
0.0214768303149651
 40
0.0308089637491498
 40
0.0428988855546411
 40
0.0544949028105951
 40
0.0664940163090672
 40
0.078569241725405
 40
0.0910236576715726
 40
0.1034076498493298
 40
0.1158622453572328
 40
0.1283301633236138
 40
0.1408464938214863
 40
0.1533452839598571
 40
0.1658605078649203
 40
0.1783896664286803
 40
0.1909199941616806
 40
0.2034380049141116
 40
0.2159347887576699
 40
0.2284493803113239
 40
0.2408952444279325
 40
0.2533259845070903
 40
0.2656265722972756
 40
0.277935534538871
 40
0.2903720861191832
 40
0.3033661428054737
 40
0.31365718372916
 40
0.3228817003647991
 40
0.3299517075424375
 40
0.3375029810353556
 40
0.3375029810353556
 40
0.3375029810353556
 40
0.3375029810353556
 10
176.951819008729
 20
574.5153436051309
 30
0.0
 10
176.9540750072592
 20
574.5153915082
 30
0.0
 10
176.9584415611268
 20
574.5154842260498
 30
0.0
 10
176.9655996429814
 20
574.5155925683466
 30
0.0
 10
176.9736080920988
 20
574.5159406865168
 30
0.0
 10
176.9834987502422
 20
574.5168794856896
 30
0.0
 10
176.9944198952999
 20
574.518256473673
 30
0.0
 10
177.0061661804144
 20
574.5201493662283
 30
0.0
 10
177.0178215804449
 20
574.5225182519829
 30
0.0
 10
177.0296454570509
 20
574.5254403802776
 30
0.0
 10
177.0414646094179
 20
574.5288745808949
 30
0.0
 10
177.0532534704203
 20
574.5328292935987
 30
0.0
 10
177.0648717319863
 20
574.5372731757815
 30
0.0
 10
177.0763353556495
 20
574.5422143581967
 30
0.0
 10
177.0875975441867
 20
574.5476330424129
 30
0.0
 10
177.0986376843376
 20
574.5535245027655
 30
0.0
 10
177.1094257730749
 20
574.5598741761056
 30
0.0
 10
177.1199483130516
 20
574.5666741744392
 30
0.0
 10
177.1301799883146
 20
574.5739060507558
 30
0.0
 10
177.1400922249106
 20
574.5815523010643
 30
0.0
 10
177.1496721812105
 20
574.5896028146413
 30
0.0
 10
177.1588890514659
 20
574.5980309661414
 30
0.0
 10
177.1677339290862
 20
574.6068173205817
 30
0.0
 10
177.1761611891206
 20
574.6159080301771
 30
0.0
 10
177.1841738847588
 20
574.6253062467551
 30
0.0
 10
177.1917888151188
 20
574.6350322076888
 30
0.0
 10
177.199121695967
 20
574.6452580869933
 30
0.0
 10
177.2056984734487
 20
574.6551865085551
 30
0.0
 10
177.2113790792341
 20
574.6644196317249
 30
0.0
 10
177.2155835407316
 20
574.6722250881824
 30
0.0
 10
177.2191289536305
 20
574.6793391138498
 30
0.0
 10
177.2213328885586
 20
574.6836861214554
 30
0.0
 10
177.222471127799
 20
574.6859311671557
 30
0.0
 11
176.951819008729
 21
574.5153436051309
 31
0.0
 11
176.9585871215972
 21
574.5154802084802
 31
0.0
 11
176.9649188973259
 21
574.5156080050736
 31
0.0
 11
176.9732842589988
 21
574.5159942496761
 31
0.0
 11
176.9825785287717
 21
574.5168340495468
 31
0.0
 11
176.9945734039349
 21
574.5183470528782
 31
0.0
 11
177.0060197474902
 21
574.5202041569184
 31
0.0
 11
177.0177783723996
 21
574.5225944424636
 31
0.0
 11
177.0295018959126
 21
574.5254875489767
 31
0.0
 11
177.0414617452247
 21
574.5289623843675
 31
0.0
 11
177.0532022102982
 21
574.5329025293036
 31
0.0
 11
177.0648350239214
 21
574.5373516411781
 31
0.0
 11
177.0762848490974
 21
574.5422862619188
 31
0.0
 11
177.087563390195
 21
574.5477133274097
 31
0.0
 11
177.0985902937187
 21
574.5535978115504
 31
0.0
 11
177.109376061223
 21
574.5599458859621
 31
0.0
 11
177.1198993674693
 21
574.5667458741946
 31
0.0
 11
177.1301314826788
 21
574.5739786420906
 31
0.0
 11
177.1400430590119
 21
574.5816246376302
 31
0.0
 11
177.1496101807554
 21
574.5896645249414
 31
0.0
 11
177.1588462666637
 21
574.5981090331479
 31
0.0
 11
177.1676760395855
 21
574.6068802727272
 31
0.0
 11
177.1761259964043
 21
574.6159973736192
 31
0.0
 11
177.1841058510782
 21
574.6253582699101
 31
0.0
 11
177.1916937039883
 21
574.6350502789733
 31
0.0
 11
177.198951394132
 21
574.6451494744357
 31
0.0
 11
177.2061281457558
 21
574.6559818216097
 31
0.0
 11
177.2114754217129
 21
574.6647745551511
 31
0.0
 11
177.2158748326561
 21
574.6728823841153
 31
0.0
 11
177.2190644201522
 21
574.6791920222267
 31
0.0
 11
177.222471127799
 21
574.6859311671557
 31
0.0
  0
SPLINE
  5
29E
330
A
100
AcDbEntity
  8
0
  6
Continuous
 62
     3
100
AcDbSpline
210
0.0
220
0.0
230
1.0
 70
     8
 71
     3
 72
    13
 73
     9
 74
     7
 42
0.0000000001
 43
0.0000000001
 44
0.00000000001
 40
0.0
 40
0.0
 40
0.0
 40
0.0
 40
0.0000434239654866
 40
0.0001369376831667
 40
0.0003309902058259
 40
0.000486211056426
 40
0.0007117452492183
 40
0.0009959937025009
 40
0.0009959937025009
 40
0.0009959937025009
 40
0.0009959937025009
 10
176.053777711978
 20
572.4889197932188
 30
0.0
 10
176.0537689098072
 20
572.4889083024646
 30
0.0
 10
176.0537411521192
 20
572.4888720663159
 30
0.0
 10
176.0536740559305
 20
572.4887844830723
 30
0.0
 10
176.0535843254655
 20
572.4886672954276
 30
0.0
 10
176.0534680651718
 20
572.4885149960865
 30
0.0
 10
176.0533337368947
 20
572.488338665302
 30
0.0
 10
176.0532307229303
 20
572.4882035228035
 30
0.0
 10
176.053173283627
 20
572.4881281690299
 30
0.0
 11
176.053777711978
 21
572.4889197932188
 31
0.0
 11
176.0537513053215
 21
572.4888853210667
 31
0.0
 11
176.0536944384601
 21
572.4888110851221
 31
0.0
 11
176.053576498275
 21
572.4886569861466
 31
0.0
 11
176.0534823033657
 21
572.4885336134124
 31
0.0
 11
176.0533455891842
 21
572.488354239767
 31
0.0
 11
176.053173283627
 21
572.4881281690299
 31
0.0
  0
SPLINE
  5
29D
330
A
100
AcDbEntity
  8
0
  6
Continuous
 62
     3
100
AcDbSpline
210
0.0
220
0.0
230
1.0
 70
     8
 71
     3
 72
    19
 73
    15
 74
    13
 42
0.0000000001
 43
0.0000000001
 44
0.00000000001
 40
0.0
 40
0.0
 40
0.0
 40
0.0
 40
0.0311414741216589
 40
0.0668080579744703
 40
0.1441558337468631
 40
0.2273900959516839
 40
0.3671996898572559
 40
0.5171409437190704
 40
0.6588115499265419
 40
0.7881957053634708
 40
0.8623866585183554
 40
0.937003632978323
 40
0.9557868876887081
 40
0.9620602252901482
 40
0.9620602252901482
 40
0.9620602252901482
 40
0.9620602252901482
 10
176.872929467401
 20
572.9153435291349
 30
0.0
 10
176.8625601526307
 20
572.9148611451241
 30
0.0
 10
176.8403147772312
 20
572.9138262827783
 30
0.0
 10
176.7922988429669
 20
572.9119602014264
 30
0.0
 10
176.7270673398694
 20
572.906254378326
 30
0.0
 10
176.6282103335386
 20
572.889732878126
 30
0.0
 10
176.5083315944927
 20
572.8547602233398
 30
0.0
 10
176.3779075455788
 20
572.7931852420351
 30
0.0
 10
176.258768313323
 20
572.7179171190632
 30
0.0
 10
176.1744261005696
 20
572.6386114291283
 30
0.0
 10
176.1151023303754
 20
572.567316312295
 30
0.0
 10
176.0802809909627
 20
572.5236254499037
 30
0.0
 10
176.0601294846282
 20
572.4972093981462
 30
0.0
 10
176.0550495569618
 20
572.4905796593734
 30
0.0
 10
176.053777711978
 20
572.4889197932188
 30
0.0
 11
176.872929467401
 21
572.9153435291349
 31
0.0
 11
176.8418199394379
 21
572.9139333233412
 31
0.0
 11
176.8061899437805
 21
572.9123182031641
 31
0.0
 11
176.729146848307
 21
572.9054596423237
 31
0.0
 11
176.6470677854075
 21
572.891640458617
 31
0.0
 11
176.5128758446407
 21
572.8524072382383
 31
0.0
 11
176.3768966355075
 21
572.7892246908604
 31
0.0
 11
176.2581567284429
 21
572.7119498881529
 31
0.0
 11
176.1634957866222
 21
572.6237480413937
 31
0.0
 11
176.1153955847115
 21
572.5672620421887
 31
0.0
 11
176.0690139622096
 21
572.5088117387537
 31
0.0
 11
176.0575923624419
 21
572.493900074988
 31
0.0
 11
176.053777711978
 21
572.4889197932188
 31
0.0
  0
SPLINE
  5
29C
330
A
100
AcDbEntity
  8
0
  6
Continuous
 62
     3
100
AcDbSpline
210
0.0
220
0.0
230
1.0
 70
     8
 71
     3
 72
    19
 73
    15
 74
    13
 42
0.0000000001
 43
0.0000000001
 44
0.00000000001
 40
0.0
 40
0.0
 40
0.0
 40
0.0
 40
0.0012405974375029
 40
0.0049256315251953
 40
0.0331669693253649
 40
0.0681966486614254
 40
0.1498912313521811
 40
0.230196835444385
 40
0.3595573525012478
 40
0.5022815098852983
 40
0.6382862278498881
 40
0.7525910482699127
 40
0.8507182254506517
 40
0.961503301319375
 40
0.961503301319375
 40
0.961503301319375
 40
0.961503301319375
 10
176.053777711978
 20
574.9417664097249
 30
0.0
 10
176.0540291694296
 20
574.9414381136169
 30
0.0
 10
176.055027548689
 20
574.9401346564196
 30
0.0
 10
176.0617510289167
 20
574.9313584508668
 30
0.0
 10
176.0752944741344
 20
574.9136174909461
 30
0.0
 10
176.104140966599
 20
574.8748555489697
 30
0.0
 10
176.1457401395225
 20
574.8239102939788
 30
0.0
 10
176.214835095839
 20
574.75541937666
 30
0.0
 10
176.3083647538595
 20
574.6836471276402
 30
0.0
 10
176.4257103907752
 20
574.6146223699244
 30
0.0
 10
176.545157010889
 20
574.5590868127241
 30
0.0
 10
176.6594744393544
 20
574.5344299907414
 30
0.0
 10
176.7669508537216
 20
574.5265572097132
 30
0.0
 10
176.8362045789051
 20
574.5192294681707
 30
0.0
 10
176.872929467401
 20
574.5153436051309
 30
0.0
 11
176.053777711978
 21
574.9417664097249
 31
0.0
 11
176.0545320923121
 21
574.940781527847
 31
0.0
 11
176.0567728814365
 21
574.9378560637252
 31
0.0
 11
176.0738799603705
 21
574.9153856162199
 31
0.0
 11
176.0949828381938
 21
574.887425877631
 31
0.0
 11
176.1471051273165
 21
574.8245190273074
 31
0.0
 11
176.2040714463364
 21
574.7679166550432
 31
0.0
 11
176.306179153035
 21
574.6884927316576
 31
0.0
 11
176.4288382237579
 21
574.6155205625081
 31
0.0
 11
176.5535384559664
 21
574.5612330372765
 31
0.0
 11
176.6650548333122
 21
574.5361394214562
 31
0.0
 11
176.7626946354438
 21
574.5263715178348
 31
0.0
 11
176.872929467401
 21
574.5153436051309
 31
0.0
  0
SPLINE
  5
29B
330
A
100
AcDbEntity
  8
0
  6
Continuous
 62
     3
100
AcDbSpline
210
0.0
220
0.0
230
1.0
 70
     8
 71
     3
 72
    13
 73
     9
 74
     7
 42
0.0000000001
 43
0.0000000001
 44
0.00000000001
 40
0.0
 40
0.0
 40
0.0
 40
0.0
 40
0.0002837324542399
 40
0.0005088384055113
 40
0.0006641262297778
 40
0.0008583609915283
 40
0.0009522828756164
 40
0.0009960086055386
 40
0.0009960086055386
 40
0.0009960086055386
 40
0.0009960086055386
 10
176.053173283627
 20
574.9425580339138
 30
0.0
 10
176.0532310180975
 20
574.9424831230924
 30
0.0
 10
176.0533345575955
 20
574.9423487799729
 30
0.0
 10
176.0534699853667
 20
574.9421736614167
 30
0.0
 10
176.0535863149019
 20
574.9420214881824
 30
0.0
 10
176.0536751122121
 20
574.9419033162809
 30
0.0
 10
176.0537414484768
 20
574.9418147843345
 30
0.0
 10
176.0537689695243
 20
574.9417780719408
 30
0.0
 10
176.053777711978
 20
574.9417664097249
 30
0.0
 11
176.053173283627
 21
574.9425580339138
 31
0.0
 11
176.0533465561197
 21
574.9423333547006
 31
0.0
 11
176.0534840260097
 21
574.9421551000551
 31
0.0
 11
176.053578278685
 21
574.9420316871646
 31
0.0
 11
176.0536951514404
 21
574.9418765488336
 31
0.0
 11
176.0537514854446
 21
574.9418013969854
 31
0.0
 11
176.053777711978
 21
574.9417664097249
 31
0.0
  0
SPLINE
  5
29A
330
A
100
AcDbEntity
  8
0
  6
Continuous
 62
     3
100
AcDbSpline
210
0.0
220
0.0
230
1.0
 70
     8
 71
     3
 72
    11
 73
     7
 74
     5
 42
0.0000000001
 43
0.0000000001
 44
0.00000000001
 40
0.0
 40
0.0
 40
0.0
 40
0.0
 40
0.0351278802076332
 40
0.0677794820163694
 40
0.0942891918636111
 40
0.1182495124536687
 40
0.1182495124536687
 40
0.1182495124536687
 40
0.1182495124536687
 10
175.400660628348
 20
557.813254293297
 30
0.0
 10
175.4092998185842
 20
557.805286941096
 30
0.0
 10
175.4259691944701
 20
557.7899138812349
 30
0.0
 10
175.4540408341465
 20
557.7750734398912
 30
0.0
 10
175.4807663017799
 20
557.7669833981533
 30
0.0
 10
175.4975977760361
 20
557.7658712655336
 30
0.0
 10
175.5055884096
 20
557.7653432877638
 30
0.0
 11
175.400660628348
 21
557.813254293297
 31
0.0
 11
175.4275209429212
 21
557.7906160188726
 31
0.0
 11
175.4562983513249
 21
557.7751891635146
 31
0.0
 11
175.4817526907581
 21
557.7677836709445
 31
0.0
 11
175.5055884096
 21
557.7653432877638
 31
0.0
  0
SPLINE
  5
299
330
A
100
AcDbEntity
  8
0
  6
Continuous
 62
     3
100
AcDbSpline
210
0.0
220
0.0
230
1.0
 70
     8
 71
     3
 72
    11
 73
     7
 74
     5
 42
0.0000000001
 43
0.0000000001
 44
0.00000000001
 40
0.0
 40
0.0
 40
0.0
 40
0.0
 40
0.0354077521834977
 40
0.0683792174860516
 40
0.0953133096885441
 40
0.1197389805071253
 40
0.1197389805071253
 40
0.1197389805071253
 40
0.1197389805071253
 10
174.461462993792
 20
552.3976941481448
 30
0.0
 10
174.4636882255933
 20
552.3860593911815
 30
0.0
 10
174.4679855785715
 20
552.3635904252707
 30
0.0
 10
174.4818530697258
 20
552.3346466927101
 30
0.0
 10
174.4987367721852
 20
552.3118959637115
 30
0.0
 10
174.5118333574167
 20
552.3007981449735
 30
0.0
 10
174.518061830075
 20
552.2955202454788
 30
0.0
 11
174.461462993792
 21
552.3976941481448
 31
0.0
 11
174.4696540086603
 21
552.3632468523131
 31
0.0
 11
174.4837243615236
 21
552.3334283564675
 31
0.0
 11
174.5000128722655
 21
552.3119777214982
 31
0.0
 11
174.518061830075
 21
552.2955202454788
 31
0.0
  0
SPLINE
  5
298
330
A
100
AcDbEntity
  8
0
  6
Continuous
 62
     3
100
AcDbSpline
210
0.0
220
0.0
230
1.0
 70
     8
 71
     3
 72
    17
 73
    13
 74
    11
 42
0.0000000001
 43
0.0000000001
 44
0.00000000001
 40
0.0
 40
0.0
 40
0.0
 40
0.0
 40
0.1383268627792485
 40
0.2790747151242511
 40
0.5035686770241218
 40
0.7545866862231565
 40
1.08674695524592
 40
1.417515727658712
 40
1.668114325655947
 40
1.891754662369537
 40
2.045196990314309
 40
2.202921400930693
 40
2.202921400930693
 40
2.202921400930693
 40
2.202921400930693
 10
195.2594191791719
 20
549.3660494299168
 30
0.0
 10
195.2389222339095
 20
549.3247411011971
 30
0.0
 10
195.1975696069133
 20
549.2414014675343
 30
0.0
 10
195.1269264603115
 20
549.0891845713453
 30
0.0
 10
195.0152307841331
 20
548.9145713936519
 30
0.0
 10
194.8165892350636
 20
548.7300601454527
 30
0.0
 10
194.5666337139645
 20
548.5547045294392
 30
0.0
 10
194.2959316254215
 20
548.4135185285859
 30
0.0
 10
194.0432828144404
 20
548.3196141601012
 30
0.0
 10
193.8356357636144
 20
548.2860278862192
 30
0.0
 10
193.6576176328049
 20
548.2768534641206
 30
0.0
 10
193.5541710313116
 20
548.2692139519222
 30
0.0
 10
193.5017359467449
 20
548.2653416307208
 30
0.0
 11
195.2594191791719
 21
549.3660494299168
 31
0.0
 11
195.1984694864887
 21
549.2418743280317
 31
0.0
 11
195.1364530554508
 21
549.1155259199648
 31
0.0
 11
195.0131813924144
 21
548.92790492961
 31
0.0
 11
194.8335692981886
 21
548.752549471896
 31
0.0
 11
194.5624525948387
 21
548.560647993314
 31
0.0
 11
194.2688779426382
 21
548.4082606434821
 31
0.0
 11
194.032574908707
 21
548.3248308318253
 31
0.0
 11
193.8121414768737
 21
548.2870935513776
 31
0.0
 11
193.6590745155072
 21
548.2763672592351
 31
0.0
 11
193.5017359467449
 21
548.2653416307208
 31
0.0
  0
CIRCLE
  5
297
330
A
100
AcDbEntity
  8
0
  6
Continuous
 62
     3
100
AcDbCircle
 10
275.0023626001
 20
581.2153432877639
 30
0.0
 40
2.0
  0
CIRCLE
  5
296
330
A
100
AcDbEntity
  8
0
  6
Continuous
 62
     3
100
AcDbCircle
 10
55.0023626001
 20
581.2153432877639
 30
0.0
 40
2.0
  0
CIRCLE
  5
295
330
A
100
AcDbEntity
  8
0
  6
Continuous
 62
     3
100
AcDbCircle
 10
47.0023626001
 20
577.2153432877639
 30
0.0
 40
2.0
  0
CIRCLE
  5
294
330
A
100
AcDbEntity
  8
0
  6
Continuous
 62
     3
100
AcDbCircle
 10
283.0023626001
 20
577.2153432877639
 30
0.0
 40
2.0
  0
CIRCLE
  5
293
330
A
100
AcDbEntity
  8
0
  6
Continuous
 62
     3
100
AcDbCircle
 10
198.4523626031
 20
567.215343287764
 30
0.0
 40
1.55
  0
CIRCLE
  5
292
330
A
100
AcDbEntity
  8
0
  6
Continuous
 62
     3
100
AcDbCircle
 10
176.7523626031
 20
567.215343287764
 30
0.0
 40
1.55
  0
ARC
  5
291
330
A
100
AcDbEntity
  8
0
  6
Continuous
 62
     6
100
AcDbCircle
 10
393.200542167487
 20
539.7105328359639
 30
0.0
 40
0.4952116847310001
100
AcDbArc
 50
179.443496458246
 51
-90.56670179210801
  0
ARC
  5
290
330
A
100
AcDbEntity
  8
0
  6
Continuous
 62
     6
100
AcDbCircle
 10
393.200548575887
 20
556.7201508170639
 30
0.0
 40
0.495218067653
100
AcDbArc
 50
90.56743596544201
 51
-179.443803825967
  0
ARC
  5
28F
330
A
100
AcDbEntity
  8
0
  6
Continuous
 62
     3
100
AcDbCircle
 10
388.166130642287
 20
561.015343764564
 30
0.0
 40
0.3
100
AcDbArc
 50
180.0
 51
-90.0
  0
ARC
  5
28E
330
A
100
AcDbEntity
  8
0
  6
Continuous
 62
     3
100
AcDbCircle
 10
398.5661306422869
 20
561.015343764564
 30
0.0
 40
0.3
100
AcDbArc
 50
-90.000000021962
 51
-0.000000010313
  0
ARC
  5
28D
330
A
100
AcDbEntity
  8
0
  6
Continuous
 62
     3
100
AcDbCircle
 10
388.166130642287
 20
566.0153437645639
 30
0.0
 40
0.3
100
AcDbArc
 50
-179.999999988145
 51
-90.0
  0
ARC
  5
28C
330
A
100
AcDbEntity
  8
0
  6
Continuous
 62
     3
100
AcDbCircle
 10
398.5661306422869
 20
566.0153437645639
 30
0.0
 40
0.3
100
AcDbArc
 50
-90.0
 51
0.000000171508
  0
ARC
  5
28B
330
A
100
AcDbEntity
  8
0
  6
Continuous
 62
     3
100
AcDbCircle
 10
398.5661306422869
 20
585.9153437645639
 30
0.0
 40
0.3
100
AcDbArc
 50
-0.000000023493
 51
89.99999998816601
  0
ARC
  5
28A
330
A
100
AcDbEntity
  8
0
  6
Continuous
 62
     3
100
AcDbCircle
 10
388.166130642287
 20
585.9153437645639
 30
0.0
 40
0.3
100
AcDbArc
 50
90.00000001164899
 51
-179.999999976507
  0
ARC
  5
289
330
A
100
AcDbEntity
  8
0
  6
Continuous
 62
     6
100
AcDbCircle
 10
398.366130642287
 20
556.7153437645639
 30
0.0
 40
0.5
100
AcDbArc
 50
90.0
 51
180.0
  0
ARC
  5
288
330
A
100
AcDbEntity
  8
0
  6
Continuous
 62
     6
100
AcDbCircle
 10
398.366130642287
 20
539.715343764564
 30
0.0
 40
0.5
100
AcDbArc
 50
180.0
 51
-90.0
  0
ARC
  5
287
330
A
100
AcDbEntity
  8
0
  6
Continuous
 62
     3
100
AcDbCircle
 10
288.702369395
 20
466.824718813754
 30
0.0
 40
0.3
100
AcDbArc
 50
-0.000000011779
 51
90.0
  0
ARC
  5
286
330
A
100
AcDbEntity
  8
0
  6
Continuous
 62
     3
100
AcDbCircle
 10
41.302369395
 20
466.824718813754
 30
0.0
 40
0.3
100
AcDbArc
 50
89.999999828492
 51
180.0
  0
ARC
  5
285
330
A
100
AcDbEntity
  8
0
  6
Continuous
 62
     3
100
AcDbCircle
 10
288.702369395
 20
456.4247188137539
 30
0.0
 40
0.3
100
AcDbArc
 50
-90.00000017666399
 51
0.000000011801
  0
ARC
  5
284
330
A
100
AcDbEntity
  8
0
  6
Continuous
 62
     3
100
AcDbCircle
 10
41.302369395
 20
456.4247188137539
 30
0.0
 40
0.3
100
AcDbArc
 50
-90.025537893929
 51
-90.000000005097
  0
ARC
  5
283
330
A
100
AcDbEntity
  8
0
  6
Continuous
 62
     3
100
AcDbCircle
 10
198.0142673306
 20
463.0248461300539
 30
0.0
 40
0.299872735593
100
AcDbArc
 50
9.573504434909001
 51
90.025336342282
  0
ARC
  5
282
330
A
100
AcDbEntity
  8
0
  6
Continuous
 62
     6
100
AcDbCircle
 10
211.2023693955
 20
461.304914911054
 30
0.0
 40
1.0
100
AcDbArc
 50
0.0
 51
78.690067525991
  0
ARC
  5
281
330
A
100
AcDbEntity
  8
0
  6
Continuous
 62
     6
100
AcDbCircle
 10
223.5023693955
 20
456.6247188137539
 30
0.0
 40
0.5
100
AcDbArc
 50
0.0
 51
90.0
  0
ARC
  5
280
330
A
100
AcDbEntity
  8
0
  6
Continuous
 62
     6
100
AcDbCircle
 10
207.4023693955
 20
462.880758033254
 30
0.0
 40
0.2
100
AcDbArc
 50
78.690067525877
 51
180.0
  0
ARC
  5
27F
330
A
100
AcDbEntity
  8
0
  6
Continuous
 62
     6
100
AcDbCircle
 10
202.2023693955
 20
461.671775185754
 30
0.0
 40
0.2
100
AcDbArc
 50
180.0
 51
-153.520291095546
  0
ARC
  5
27E
330
A
100
AcDbEntity
  8
0
  6
Continuous
 62
     6
100
AcDbCircle
 10
202.2023693955
 20
461.8588717502539
 30
0.0
 40
0.2
100
AcDbArc
 50
73.909183650969
 51
180.0
  0
ARC
  5
27D
330
A
100
AcDbEntity
  8
0
  6
Continuous
 62
     6
100
AcDbCircle
 10
203.597860089
 20
457.5247188137539
 30
0.0
 40
0.4
100
AcDbArc
 50
-90.0
 51
26.479708904519
  0
ARC
  5
27C
330
A
100
AcDbEntity
  8
0
  6
Continuous
 62
     6
100
AcDbCircle
 10
212.7023693955
 20
457.6247188137539
 30
0.0
 40
0.5
100
AcDbArc
 50
180.0
 51
-90.0
  0
ARC
  5
27B
330
A
100
AcDbEntity
  8
0
  6
Continuous
 62
     6
100
AcDbCircle
 10
191.8023693955
 20
461.671775185754
 30
0.0
 40
0.2
100
AcDbArc
 50
-26.479708904454
 51
0.0
  0
ARC
  5
27A
330
A
100
AcDbEntity
  8
0
  6
Continuous
 62
     6
100
AcDbCircle
 10
191.8023693955
 20
461.8588717502539
 30
0.0
 40
0.2
100
AcDbArc
 50
0.0
 51
106.090816349023
  0
ARC
  5
279
330
A
100
AcDbEntity
  8
0
  6
Continuous
 62
     6
100
AcDbCircle
 10
186.6023693955
 20
462.880758033254
 30
0.0
 40
0.2
100
AcDbArc
 50
0.0
 51
101.309932474122
  0
ARC
  5
278
330
A
100
AcDbEntity
  8
0
  6
Continuous
 62
     6
100
AcDbCircle
 10
190.4068787021
 20
457.5247188137539
 30
0.0
 40
0.4
100
AcDbArc
 50
153.52029109548
 51
-90.0
  0
ARC
  5
277
330
A
100
AcDbEntity
  8
0
  6
Continuous
 62
     6
100
AcDbCircle
 10
182.8023693955
 20
461.304914911054
 30
0.0
 40
1.0
100
AcDbArc
 50
101.309932474008
 51
180.0
  0
ARC
  5
276
330
A
100
AcDbEntity
  8
0
  6
Continuous
 62
     6
100
AcDbCircle
 10
181.3023693955
 20
457.6247188137539
 30
0.0
 40
0.5
100
AcDbArc
 50
-90.0
 51
0.0
  0
ARC
  5
275
330
A
100
AcDbEntity
  8
0
  6
Continuous
 62
     6
100
AcDbCircle
 10
170.5023693955
 20
456.6247188137539
 30
0.0
 40
0.5
100
AcDbArc
 50
90.0
 51
180.0
  0
ARC
  5
274
330
A
100
AcDbEntity
  8
0
  6
Continuous
 62
     6
100
AcDbCircle
 10
210.6875645408
 20
539.5951514568639
 30
0.0
 40
0.72100960096
100
AcDbArc
 50
-31.787612330792
 51
9.596005764515
  0
ARC
  5
273
330
A
100
AcDbEntity
  8
0
  6
Continuous
 62
     6
100
AcDbCircle
 10
183.3171742502999
 20
539.5951514568639
 30
0.0
 40
0.721009600959
100
AcDbArc
 50
170.403994235471
 51
-148.212387669166
  0
ARC
  5
272
330
A
100
AcDbEntity
  8
0
  6
Continuous
 62
     6
100
AcDbCircle
 10
210.6875645408
 20
556.835536072264
 30
0.0
 40
0.721009600959
100
AcDbArc
 50
-9.596005764519
 51
31.787612330772
  0
ARC
  5
271
330
A
100
AcDbEntity
  8
0
  6
Continuous
 62
     6
100
AcDbCircle
 10
183.3171742502999
 20
556.835536072264
 30
0.0
 40
0.721009600959
100
AcDbArc
 50
148.212387669158
 51
-170.40399423548
  0
ARC
  5
270
330
A
100
AcDbEntity
  8
0
  6
Continuous
 62
     6
100
AcDbCircle
 10
217.0023693955
 20
545.2153437645639
 30
0.0
 40
2.0
100
AcDbArc
 50
180.0
 51
0.0
  0
ARC
  5
26F
330
A
100
AcDbEntity
  8
0
  6
Continuous
 62
     6
100
AcDbCircle
 10
217.0023693955
 20
551.2153437645639
 30
0.0
 40
2.0
100
AcDbArc
 50
0.0
 51
180.0
  0
ARC
  5
26E
330
A
100
AcDbEntity
  8
0
  6
Continuous
 62
     6
100
AcDbCircle
 10
177.0023693955
 20
545.2153437645639
 30
0.0
 40
2.0
100
AcDbArc
 50
180.0
 51
0.0
  0
ARC
  5
26D
330
A
100
AcDbEntity
  8
0
  6
Continuous
 62
     6
100
AcDbCircle
 10
219.0023693955
 20
544.2153437645639
 30
0.0
 40
5.0
100
AcDbArc
 50
-90.0
 51
0.0
  0
ARC
  5
26C
330
A
100
AcDbEntity
  8
0
  6
Continuous
 62
     6
100
AcDbCircle
 10
219.0023693955
 20
552.215343764564
 30
0.0
 40
5.0
100
AcDbArc
 50
0.0
 51
90.0
  0
ARC
  5
26B
330
A
100
AcDbEntity
  8
0
  6
Continuous
 62
     6
100
AcDbCircle
 10
217.0023693955
 20
551.2153437645639
 30
0.0
 40
4.0
100
AcDbArc
 50
0.0
 51
180.0
  0
ARC
  5
26A
330
A
100
AcDbEntity
  8
0
  6
Continuous
 62
     6
100
AcDbCircle
 10
217.0023693955
 20
545.2153437645639
 30
0.0
 40
4.0
100
AcDbArc
 50
180.0
 51
0.0
  0
ARC
  5
269
330
A
100
AcDbEntity
  8
0
  6
Continuous
 62
     6
100
AcDbCircle
 10
175.0023693954999
 20
544.2153437645639
 30
0.0
 40
5.0
100
AcDbArc
 50
180.0
 51
-90.0
  0
ARC
  5
268
330
A
100
AcDbEntity
  8
0
  6
Continuous
 62
     6
100
AcDbCircle
 10
177.0023693955
 20
551.2153437645639
 30
0.0
 40
4.0
100
AcDbArc
 50
0.0
 51
49.458398079
  0
ARC
  5
267
330
A
100
AcDbEntity
  8
0
  6
Continuous
 62
     6
100
AcDbCircle
 10
177.0023693955
 20
545.2153437645639
 30
0.0
 40
4.0
100
AcDbArc
 50
180.0
 51
0.0
  0
ARC
  5
266
330
A
100
AcDbEntity
  8
0
  6
Continuous
 62
     6
100
AcDbCircle
 10
202.5023693955
 20
556.7153437645639
 30
0.0
 40
0.5
100
AcDbArc
 50
90.0
 51
180.0
  0
ARC
  5
265
330
A
100
AcDbEntity
  8
0
  6
Continuous
 62
     6
100
AcDbCircle
 10
191.5023693955
 20
556.7153437645639
 30
0.0
 40
0.5
100
AcDbArc
 50
78.46304067223101
 51
90.0
  0
ARC
  5
264
330
A
100
AcDbEntity
  8
0
  6
Continuous
 62
     6
100
AcDbCircle
 10
202.5023693955
 20
539.715343764564
 30
0.0
 40
0.5
100
AcDbArc
 50
180.0
 51
-90.0
  0
ARC
  5
263
330
A
100
AcDbEntity
  8
0
  6
Continuous
 62
     6
100
AcDbCircle
 10
191.5023693955
 20
539.715343764564
 30
0.0
 40
0.5
100
AcDbArc
 50
-90.0
 51
0.0
  0
ARC
  5
262
330
A
100
AcDbEntity
  8
0
  6
Continuous
 62
     6
100
AcDbCircle
 10
211.7023693955
 20
539.715343764564
 30
0.0
 40
0.5
100
AcDbArc
 50
-90.0
 51
0.0
  0
ARC
  5
261
330
A
100
AcDbEntity
  8
0
  6
Continuous
 62
     6
100
AcDbCircle
 10
182.3023693955
 20
539.715343764564
 30
0.0
 40
0.5
100
AcDbArc
 50
180.0
 51
-90.0
  0
ARC
  5
260
330
A
100
AcDbEntity
  8
0
  6
Continuous
 62
     6
100
AcDbCircle
 10
211.7023693955
 20
556.7153437645639
 30
0.0
 40
0.5
100
AcDbArc
 50
0.0
 51
90.0
  0
ARC
  5
25F
330
A
100
AcDbEntity
  8
0
  6
Continuous
 62
     6
100
AcDbCircle
 10
182.3023693955
 20
556.7153437645639
 30
0.0
 40
0.5
100
AcDbArc
 50
90.0
 51
180.0
  0
ARC
  5
25E
330
A
100
AcDbEntity
  8
0
  6
Continuous
 62
     6
100
AcDbCircle
 10
207.7023693955
 20
556.7153437645639
 30
0.0
 40
0.5
100
AcDbArc
 50
90.0
 51
180.0
  0
ARC
  5
25D
330
A
100
AcDbEntity
  8
0
  6
Continuous
 62
     6
100
AcDbCircle
 10
207.7023693955
 20
539.715343764564
 30
0.0
 40
0.5
100
AcDbArc
 50
180.0
 51
-90.0
  0
ARC
  5
25C
330
A
100
AcDbEntity
  8
0
  6
Continuous
 62
     6
100
AcDbCircle
 10
186.3023693955
 20
556.7153437645639
 30
0.0
 40
0.5
100
AcDbArc
 50
0.0
 51
90.0
  0
ARC
  5
25B
330
A
100
AcDbEntity
  8
0
  6
Continuous
 62
     6
100
AcDbCircle
 10
186.3023693955
 20
539.715343764564
 30
0.0
 40
0.5
100
AcDbArc
 50
-90.0
 51
0.0
  0
ARC
  5
25A
330
A
100
AcDbEntity
  8
0
  6
Continuous
 62
     3
100
AcDbCircle
 10
57.3023626001
 20
572.215343287764
 30
0.0
 40
2.0
100
AcDbArc
 50
-0.000000011803
 51
180.0
  0
ARC
  5
259
330
A
100
AcDbEntity
  8
0
  6
Continuous
 62
     3
100
AcDbCircle
 10
57.3023626001
 20
566.2153432877639
 30
0.0
 40
2.0
100
AcDbArc
 50
-179.999999994903
 51
-0.000000011803
  0
ARC
  5
258
330
A
100
AcDbEntity
  8
0
  6
Continuous
 62
     3
100
AcDbCircle
 10
272.7023626001
 20
566.2153432877639
 30
0.0
 40
2.0
100
AcDbArc
 50
-179.999999994903
 51
0.0
  0
ARC
  5
257
330
A
100
AcDbEntity
  8
0
  6
Continuous
 62
     3
100
AcDbCircle
 10
272.7023626001
 20
572.215343287764
 30
0.0
 40
2.0
100
AcDbArc
 50
0.0
 51
180.0
  0
ARC
  5
256
330
A
100
AcDbEntity
  8
0
  6
Continuous
 62
     3
100
AcDbCircle
 10
288.5023626001
 20
566.2153432877639
 30
0.0
 40
0.5
100
AcDbArc
 50
-90.0
 51
0.0
  0
ARC
  5
255
330
A
100
AcDbEntity
  8
0
  6
Continuous
 62
     3
100
AcDbCircle
 10
41.50236260009999
 20
566.2153432877639
 30
0.0
 40
0.5
100
AcDbArc
 50
180.0
 51
-90.0
  0
ARC
  5
254
330
A
100
AcDbEntity
  8
0
  6
Continuous
 62
     3
100
AcDbCircle
 10
55.0023626001
 20
581.2153432877639
 30
0.0
 40
3.999999999613999
100
AcDbArc
 50
0.0
 51
180.0
  0
ARC
  5
253
330
A
100
AcDbEntity
  8
0
  6
Continuous
 62
     3
100
AcDbCircle
 10
55.0023626001
 20
581.2153432877639
 30
0.0
 40
3.999999999613999
100
AcDbArc
 50
180.0
 51
0.0
  0
ARC
  5
252
330
A
100
AcDbEntity
  8
0
  6
Continuous
 62
     3
100
AcDbCircle
 10
275.0023626001
 20
581.2153432877639
 30
0.0
 40
3.999999999613999
100
AcDbArc
 50
0.0
 51
180.0
  0
ARC
  5
251
330
A
100
AcDbEntity
  8
0
  6
Continuous
 62
     3
100
AcDbCircle
 10
275.0023626001
 20
581.2153432877639
 30
0.0
 40
3.999999999613999
100
AcDbArc
 50
180.0
 51
0.0
  0
ARC
  5
250
330
A
100
AcDbEntity
  8
0
  6
Continuous
 62
     3
100
AcDbCircle
 10
272.7023626001
 20
572.215343287764
 30
0.0
 40
3.999999999613999
100
AcDbArc
 50
0.0
 51
180.0
  0
ARC
  5
24F
330
A
100
AcDbEntity
  8
0
  6
Continuous
 62
     3
100
AcDbCircle
 10
57.3023626001
 20
566.2153432877639
 30
0.0
 40
4.0
100
AcDbArc
 50
180.0
 51
-0.000000005299
  0
ARC
  5
24E
330
A
100
AcDbEntity
  8
0
  6
Continuous
 62
     3
100
AcDbCircle
 10
57.3023626001
 20
572.215343287764
 30
0.0
 40
3.999999999613999
100
AcDbArc
 50
0.0
 51
180.0
  0
ARC
  5
24D
330
A
100
AcDbEntity
  8
0
  6
Continuous
 62
     3
100
AcDbCircle
 10
272.7023626001
 20
566.2153432877639
 30
0.0
 40
4.0
100
AcDbArc
 50
180.0
 51
-0.000000005299
  0
ARC
  5
24C
330
A
100
AcDbEntity
  8
0
  6
Continuous
 62
     3
100
AcDbCircle
 10
283.0023626001
 20
577.2153432877639
 30
0.0
 40
4.249999999613999
100
AcDbArc
 50
180.0
 51
0.0
  0
ARC
  5
24B
330
A
100
AcDbEntity
  8
0
  6
Continuous
 62
     3
100
AcDbCircle
 10
283.0023626001
 20
577.2153432877639
 30
0.0
 40
4.249999999613999
100
AcDbArc
 50
0.0
 51
180.0
  0
ARC
  5
24A
330
A
100
AcDbEntity
  8
0
  6
Continuous
 62
     3
100
AcDbCircle
 10
47.0023626001
 20
577.2153432877639
 30
0.0
 40
4.249999999613999
100
AcDbArc
 50
0.0
 51
180.0
  0
ARC
  5
249
330
A
100
AcDbEntity
  8
0
  6
Continuous
 62
     3
100
AcDbCircle
 10
47.0023626001
 20
577.2153432877639
 30
0.0
 40
4.249999999613999
100
AcDbArc
 50
180.0
 51
0.0
  0
ARC
  5
248
330
A
100
AcDbEntity
  8
0
  6
Continuous
 62
     3
100
AcDbCircle
 10
46.00236260009999
 20
581.2153432877639
 30
0.0
 40
5.0
100
AcDbArc
 50
89.999999994101
 51
180.0
  0
ARC
  5
247
330
A
100
AcDbEntity
  8
0
  6
Continuous
 62
     3
100
AcDbCircle
 10
284.0023626000999
 20
581.2153432877639
 30
0.0
 40
5.0
100
AcDbArc
 50
0.0
 51
90.000000011803
  0
ARC
  5
246
330
A
100
AcDbEntity
  8
0
  6
Continuous
 62
     3
100
AcDbCircle
 10
274.2023626001
 20
565.7153432877639
 30
0.0
 40
5.0
100
AcDbArc
 50
-90.0
 51
-0.000000023502
  0
ARC
  5
245
330
A
100
AcDbEntity
  8
0
  6
Continuous
 62
     3
100
AcDbCircle
 10
55.8023626001
 20
565.7153432877639
 30
0.0
 40
5.0
100
AcDbArc
 50
-179.999999976498
 51
-89.999999999999
  0
ARC
  5
244
330
A
100
AcDbEntity
  8
0
  6
Continuous
 62
     3
100
AcDbCircle
 10
176.4023626001
 20
567.0153432877639
 30
0.0
 40
3.799999999909999
100
AcDbArc
 50
162.4026633855
 51
-111.923073005777
  0
ARC
  5
243
330
A
100
AcDbEntity
  8
0
  6
Continuous
 62
     3
100
AcDbCircle
 10
174.5658709271
 20
563.215343287764
 30
0.0
 40
0.5
100
AcDbArc
 50
-90.0
 51
33.338655157332
  0
ARC
  5
242
330
A
100
AcDbEntity
  8
0
  6
Continuous
 62
     3
100
AcDbCircle
 10
163.2023626031
 20
563.215343287764
 30
0.0
 40
0.5
100
AcDbArc
 50
180.0
 51
-90.00000001100202
  0
ARC
  5
241
330
A
100
AcDbEntity
  8
0
  6
Continuous
 62
     3
100
AcDbCircle
 10
163.2023626031
 20
568.315343287764
 30
0.0
 40
0.5
100
AcDbArc
 50
90.0
 51
-179.9999999881969
  0
ARC
  5
240
330
A
100
AcDbEntity
  8
0
  6
Continuous
 62
     3
100
AcDbCircle
 10
172.3035822941
 20
568.315343287764
 30
0.0
 40
0.5
100
AcDbArc
 50
-17.597336572647
 51
90.00000000584602
  0
ARC
  5
23F
330
A
100
AcDbEntity
  8
0
  6
Continuous
 62
     3
100
AcDbCircle
 10
224.5279324401
 20
579.2153432877639
 30
0.0
 40
0.5
100
AcDbArc
 50
-90.0
 51
55.000000010133
  0
ARC
  5
23E
330
A
100
AcDbEntity
  8
0
  6
Continuous
 62
     3
100
AcDbCircle
 10
215.4767927601
 20
579.2153432877639
 30
0.0
 40
0.5
100
AcDbArc
 50
124.999999997942
 51
-90.0
  0
ARC
  5
23D
330
A
100
AcDbEntity
  8
0
  6
Continuous
 62
     3
100
AcDbCircle
 10
220.0023626001
 20
582.384181404764
 30
0.0
 40
0.4999999998899999
100
AcDbArc
 50
55.00000000204701
 51
125.000000001574
  0
ARC
  5
23C
330
A
100
AcDbEntity
  8
0
  6
Continuous
 62
     3
100
AcDbCircle
 10
163.2023626031
 20
579.2153432877639
 30
0.0
 40
0.5
100
AcDbArc
 50
180.0
 51
-90.00000001100202
  0
ARC
  5
23B
330
A
100
AcDbEntity
  8
0
  6
Continuous
 62
     3
100
AcDbCircle
 10
163.2023626031
 20
583.715343287764
 30
0.0
 40
0.5
100
AcDbArc
 50
90.0
 51
180.0
  0
ARC
  5
23A
330
A
100
AcDbEntity
  8
0
  6
Continuous
 62
     3
100
AcDbCircle
 10
179.8268998291
 20
583.715343287764
 30
0.0
 40
0.5
100
AcDbArc
 50
55.000000004949
 51
90.00000000596001
  0
ARC
  5
239
330
A
100
AcDbEntity
  8
0
  6
Continuous
 62
     3
100
AcDbCircle
 10
186.2535658601
 20
579.2153432877639
 30
0.0
 40
0.5
100
AcDbArc
 50
-90.0
 51
55.000000012931
  0
ARC
  5
238
330
A
100
AcDbEntity
  8
0
  6
Continuous
 62
     3
100
AcDbCircle
 10
63.0155053431
 20
575.3153432877639
 30
0.0
 40
0.500000000073
100
AcDbArc
 50
90.0
 51
-151.515364652323
  0
ARC
  5
237
330
A
100
AcDbEntity
  8
0
  6
Continuous
 62
     3
100
AcDbCircle
 10
77.10236260310001
 20
575.3153432877639
 30
0.0
 40
0.5
100
AcDbArc
 50
0.0
 51
90.0
  0
ARC
  5
236
330
A
100
AcDbEntity
  8
0
  6
Continuous
 62
     3
100
AcDbCircle
 10
77.10236260310001
 20
572.1153432877639
 30
0.0
 40
0.5
100
AcDbArc
 50
-90.0
 51
0.0
  0
ARC
  5
235
330
A
100
AcDbEntity
  8
0
  6
Continuous
 62
     3
100
AcDbCircle
 10
63.80159332409999
 20
572.1153432877639
 30
0.0
 40
0.5000000001460001
100
AcDbArc
 50
179.118491639171
 51
-90.0
  0
ARC
  5
234
330
A
100
AcDbEntity
  8
0
  6
Continuous
 62
     3
100
AcDbCircle
 10
57.3023626001
 20
572.215343287764
 30
0.0
 40
6.000000000146
100
AcDbArc
 50
-0.8815083022979999
 51
28.484635398404
  0
ARC
  5
233
330
A
100
AcDbEntity
  8
0
  6
Continuous
 62
     3
100
AcDbCircle
 10
179.9023626031
 20
573.7153432877639
 30
0.0
 40
2.9
100
AcDbArc
 50
-90.00000006099
 51
89.999999988995
  0
ARC
  5
232
330
A
100
AcDbEntity
  8
0
  6
Continuous
 62
     3
100
AcDbCircle
 10
176.7023626031
 20
567.0153432877639
 30
0.0
 40
1.8
100
AcDbArc
 50
89.999999988986
 51
-89.999999994111
  0
ARC
  5
231
330
A
100
AcDbEntity
  8
0
  6
Continuous
 62
     3
100
AcDbCircle
 10
238.8325574491
 20
574.7653432877639
 30
0.0
 40
4.500000000037999
100
AcDbArc
 50
-81.86989763879999
 51
-15.756263117097
  0
ARC
  5
230
330
A
100
AcDbEntity
  8
0
  6
Continuous
 62
     3
100
AcDbCircle
 10
223.9149612831
 20
578.9743009527639
 30
0.0
 40
20.00000000024
100
AcDbArc
 50
-15.756263100599
 51
1.948017401998999
  0
ARC
  5
22F
330
A
100
AcDbEntity
  8
0
  6
Continuous
 62
     3
100
AcDbCircle
 10
245.7023626031
 20
579.715343287764
 30
0.0
 40
1.800000000241
100
AcDbArc
 50
0.4148606005100001
 51
-178.051982596806
  0
ARC
  5
22E
330
A
100
AcDbEntity
  8
0
  6
Continuous
 62
     3
100
AcDbCircle
 10
219.5030494001
 20
579.525639033764
 30
0.0
 40
28.000000000123
100
AcDbArc
 50
-14.021226084199
 51
0.4148606131000001
  0
ARC
  5
22D
330
A
100
AcDbEntity
  8
0
  6
Continuous
 62
     3
100
AcDbCircle
 10
238.9071701211
 20
574.6800122397639
 30
0.0
 40
8.000000000226998
100
AcDbArc
 50
-81.86989764489998
 51
-14.021226076199
  0
ARC
  5
22C
330
A
100
AcDbEntity
  8
0
  6
Continuous
 62
     3
100
AcDbCircle
 10
227.8016737161
 20
585.2153432877639
 30
0.0
 40
20.0
100
AcDbArc
 50
-90.0
 51
-81.869897639999
  0
ARC
  5
22B
330
A
100
AcDbEntity
  8
0
  6
Continuous
 62
     3
100
AcDbCircle
 10
253.7511593401
 20
579.2153432877639
 30
0.0
 40
0.500000000001
100
AcDbArc
 50
124.999999994984
 51
-90.00000001100202
  0
ARC
  5
22A
330
A
100
AcDbEntity
  8
0
  6
Continuous
 62
     3
100
AcDbCircle
 10
258.2767291811
 20
582.384181404764
 30
0.0
 40
0.499999999781
100
AcDbArc
 50
55.00000000211899
 51
124.999999994998
  0
ARC
  5
229
330
A
100
AcDbEntity
  8
0
  6
Continuous
 62
     3
100
AcDbCircle
 10
262.8022990211
 20
579.2153432877639
 30
0.0
 40
0.5
100
AcDbArc
 50
-90.0
 51
55.00000000215901
  0
ARC
  5
228
330
A
100
AcDbEntity
  8
0
  6
Continuous
 62
     3
100
AcDbCircle
 10
197.5359351131
 20
571.3153432877639
 30
0.0
 40
0.5
100
AcDbArc
 50
-90.0
 51
55.00000001152799
  0
ARC
  5
227
330
A
100
AcDbEntity
  8
0
  6
Continuous
 62
     3
100
AcDbCircle
 10
184.7397172521
 20
571.3153432877639
 30
0.0
 40
0.500000000009
100
AcDbArc
 50
153.61220017925
 51
-90.00000001100202
  0
ARC
  5
226
330
A
100
AcDbEntity
  8
0
  6
Continuous
 62
     3
100
AcDbCircle
 10
179.9023626031
 20
573.7153432877639
 30
0.0
 40
4.900000000008999
100
AcDbArc
 50
-26.387799975497
 51
27.578467982098
  0
ARC
  5
225
330
A
100
AcDbEntity
  8
0
  6
Continuous
 62
     3
100
AcDbCircle
 10
184.6888017801
 20
576.215343287764
 30
0.0
 40
0.5
100
AcDbArc
 50
90.0
 51
-152.421532033954
  0
ARC
  5
224
330
A
100
AcDbEntity
  8
0
  6
Continuous
 62
     3
100
AcDbCircle
 10
190.5380098801
 20
576.215343287764
 30
0.0
 40
0.5
100
AcDbArc
 50
55.00000000345299
 51
90.00000000584298
  0
ARC
  5
223
330
A
100
AcDbEntity
  8
0
  6
Continuous
 62
     3
100
AcDbCircle
 10
191.4839062461
 20
579.2153432877639
 30
0.0
 40
0.5
100
AcDbArc
 50
-124.999999997122
 51
-90.00000001099801
  0
ARC
  5
222
330
A
100
AcDbEntity
  8
0
  6
Continuous
 62
     3
100
AcDbCircle
 10
185.0572402161
 20
583.715343287764
 30
0.0
 40
0.5
100
AcDbArc
 50
90.0
 51
-124.999999997125
  0
ARC
  5
221
330
A
100
AcDbEntity
  8
0
  6
Continuous
 62
     3
100
AcDbCircle
 10
216.6731184031
 20
583.715343287764
 30
0.0
 40
0.500000000001
100
AcDbArc
 50
-55.000000002782
 51
90.00000000584602
  0
ARC
  5
220
330
A
100
AcDbEntity
  8
0
  6
Continuous
 62
     3
100
AcDbCircle
 10
210.2464523731
 20
579.2153432877639
 30
0.0
 40
0.5
100
AcDbArc
 50
-90.0
 51
-54.99999998733101
  0
ARC
  5
21F
330
A
100
AcDbEntity
  8
0
  6
Continuous
 62
     3
100
AcDbCircle
 10
77.02797096810001
 20
563.2897349217639
 30
0.0
 40
0.5743916350000001
100
AcDbArc
 50
-90.0
 51
0.0
  0
ARC
  5
21E
330
A
100
AcDbEntity
  8
0
  6
Continuous
 62
     3
100
AcDbCircle
 10
64.10236260010001
 20
563.215343287764
 30
0.0
 40
0.5
100
AcDbArc
 50
180.0
 51
-90.0
  0
ARC
  5
21D
330
A
100
AcDbEntity
  8
0
  6
Continuous
 62
     3
100
AcDbCircle
 10
64.10236260010001
 20
568.2153432877639
 30
0.0
 40
0.5
100
AcDbArc
 50
90.0
 51
180.0
  0
ARC
  5
21C
330
A
100
AcDbEntity
  8
0
  6
Continuous
 62
     3
100
AcDbCircle
 10
77.02797096810001
 20
568.140951653764
 30
0.0
 40
0.5743916350000001
100
AcDbArc
 50
0.0
 51
90.0
  0
ARC
  5
21B
330
A
100
AcDbEntity
  8
0
  6
Continuous
 62
     3
100
AcDbCircle
 10
61.5015933241
 20
579.2153432877639
 30
0.0
 40
0.500000000139
100
AcDbArc
 50
162.895364826748
 51
-90.0
  0
ARC
  5
21A
330
A
100
AcDbEntity
  8
0
  6
Continuous
 62
     3
100
AcDbCircle
 10
55.0023626001
 20
581.2153432877639
 30
0.0
 40
6.300000000229999
100
AcDbArc
 50
-17.104635176098
 51
21.570578303097
  0
ARC
  5
219
330
A
100
AcDbEntity
  8
0
  6
Continuous
 62
     3
100
AcDbCircle
 10
61.32612730209999
 20
583.715343287764
 30
0.0
 40
0.5000000002300001
100
AcDbArc
 50
90.0
 51
-158.429421737622
  0
ARC
  5
218
330
A
100
AcDbEntity
  8
0
  6
Continuous
 62
     3
100
AcDbCircle
 10
160.2023626031
 20
583.715343287764
 30
0.0
 40
0.5
100
AcDbArc
 50
0.0
 51
90.00000000596001
  0
ARC
  5
217
330
A
100
AcDbEntity
  8
0
  6
Continuous
 62
     3
100
AcDbCircle
 10
160.2023626031
 20
579.2153432877639
 30
0.0
 40
0.5
100
AcDbArc
 50
-90.0
 51
-0.000000005029
  0
ARC
  5
216
330
A
100
AcDbEntity
  8
0
  6
Continuous
 62
     3
100
AcDbCircle
 10
205.9620083531
 20
576.215343287764
 30
0.0
 40
0.5
100
AcDbArc
 50
-55.00000000303799
 51
90.00000000596001
  0
ARC
  5
215
330
A
100
AcDbEntity
  8
0
  6
Continuous
 62
     3
100
AcDbCircle
 10
200.8651793101
 20
572.646505170764
 30
0.0
 40
0.5000000003550001
100
AcDbArc
 50
-125.000000046575
 51
-54.999999994237
  0
ARC
  5
214
330
A
100
AcDbEntity
  8
0
  6
Continuous
 62
     3
100
AcDbCircle
 10
195.7683502671
 20
576.215343287764
 30
0.0
 40
0.5
100
AcDbArc
 50
90.0
 51
-125.000000008472
  0
ARC
  5
213
330
A
100
AcDbEntity
  8
0
  6
Continuous
 62
     3
100
AcDbCircle
 10
234.6265916991
 20
572.144185948764
 30
0.0
 40
0.5000000002920001
100
AcDbArc
 50
-81.869897597229
 51
55.00000001194199
  0
ARC
  5
212
330
A
100
AcDbEntity
  8
0
  6
Continuous
 62
     3
100
AcDbCircle
 10
228.8246930731
 20
571.3153432877639
 30
0.0
 40
0.5000000001510001
100
AcDbArc
 50
-90.0
 51
-81.869897653948
  0
ARC
  5
211
330
A
100
AcDbEntity
  8
0
  6
Continuous
 62
     3
100
AcDbCircle
 10
204.1944235061
 20
571.3153432877639
 30
0.0
 40
0.5
100
AcDbArc
 50
124.999999996547
 51
-90.00000001100202
  0
ARC
  5
210
330
A
100
AcDbEntity
  8
0
  6
Continuous
 62
     3
100
AcDbCircle
 10
211.1923487391
 20
576.215343287764
 30
0.0
 40
0.5
100
AcDbArc
 50
90.0
 51
125.000000000329
  0
ARC
  5
20F
330
A
100
AcDbEntity
  8
0
  6
Continuous
 62
     3
100
AcDbCircle
 10
228.8123764611
 20
576.215343287764
 30
0.0
 40
0.5
100
AcDbArc
 50
55.00000000386999
 51
90.00000000596001
  0
ARC
  5
20E
330
A
100
AcDbEntity
  8
0
  6
Continuous
 62
     3
100
AcDbCircle
 10
247.1456375001
 20
568.1702000117639
 30
0.0
 40
0.5
100
AcDbArc
 50
90.0
 51
141.68517143805
  0
ARC
  5
20D
330
A
100
AcDbEntity
  8
0
  6
Continuous
 62
     3
100
AcDbCircle
 10
266.5023626001
 20
568.1702000117639
 30
0.0
 40
0.5
100
AcDbArc
 50
0.0
 51
90.0
  0
ARC
  5
20C
330
A
100
AcDbEntity
  8
0
  6
Continuous
 62
     3
100
AcDbCircle
 10
266.5023626001
 20
563.215343287764
 30
0.0
 40
0.5
100
AcDbArc
 50
-90.0
 51
0.0
  0
ARC
  5
20B
330
A
100
AcDbEntity
  8
0
  6
Continuous
 62
     3
100
AcDbCircle
 10
232.9006994831
 20
563.215343287764
 30
0.0
 40
0.5000000001510001
100
AcDbArc
 50
98.130102345016
 51
-90.00000001100202
  0
ARC
  5
20A
330
A
100
AcDbEntity
  8
0
  6
Continuous
 62
     3
100
AcDbCircle
 10
238.9071701211
 20
574.6800122397639
 30
0.0
 40
10.000000000165
100
AcDbArc
 50
-81.869897646599
 51
-38.314828571295
  0
ARC
  5
209
330
A
100
AcDbEntity
  8
0
  6
Continuous
 62
     3
100
AcDbCircle
 10
223.9149612831
 20
578.9743009527639
 30
0.0
 40
18.000000000241
100
AcDbArc
 50
0.789208297398
 51
1.948017414900999
  0
ARC
  5
208
330
A
100
AcDbEntity
  8
0
  6
Continuous
 62
     3
100
AcDbCircle
 10
241.4133011641
 20
579.2153432877639
 30
0.0
 40
0.500000000025
100
AcDbArc
 50
-90.0
 51
0.7892082896799999
  0
ARC
  5
207
330
A
100
AcDbEntity
  8
0
  6
Continuous
 62
     3
100
AcDbCircle
 10
229.7582728271
 20
579.2153432877639
 30
0.0
 40
0.5
100
AcDbArc
 50
-124.999999997125
 51
-90.00000001100202
  0
ARC
  5
206
330
A
100
AcDbEntity
  8
0
  6
Continuous
 62
     3
100
AcDbCircle
 10
223.3316067971
 20
583.715343287764
 30
0.0
 40
0.5
100
AcDbArc
 50
90.0
 51
-125.000000006089
  0
ARC
  5
205
330
A
100
AcDbEntity
  8
0
  6
Continuous
 62
     3
100
AcDbCircle
 10
254.9474849841
 20
583.715343287764
 30
0.0
 40
0.5
100
AcDbArc
 50
-55.00000000312899
 51
90.00000000584298
  0
ARC
  5
204
330
A
100
AcDbEntity
  8
0
  6
Continuous
 62
     3
100
AcDbCircle
 10
249.9713314461
 20
580.231003069764
 30
0.0
 40
0.500000000177
100
AcDbArc
 50
-173.11246356649
 51
-54.999999987614
  0
ARC
  5
203
330
A
100
AcDbEntity
  8
0
  6
Continuous
 62
     3
100
AcDbCircle
 10
245.7023626031
 20
579.715343287764
 30
0.0
 40
3.800000000240999
100
AcDbArc
 50
6.887536324904
 51
-178.051982658503
  0
ARC
  5
202
330
A
100
AcDbEntity
  8
0
  6
Continuous
 62
     3
100
AcDbCircle
 10
223.9149612831
 20
578.9743009527639
 30
0.0
 40
18.000000000177
100
AcDbArc
 50
-15.756263097299
 51
-9.0707941227
  0
ARC
  5
201
330
A
100
AcDbEntity
  8
0
  6
Continuous
 62
     3
100
AcDbCircle
 10
238.8325574491
 20
574.7653432877639
 30
0.0
 40
2.500000000038999
100
AcDbArc
 50
-86.24085958079
 51
-15.756263105794
  0
ARC
  5
200
330
A
100
AcDbEntity
  8
0
  6
Continuous
 62
     3
100
AcDbCircle
 10
238.9636820831
 20
572.7696463337641
 30
0.0
 40
0.499999999781
100
AcDbArc
 50
-124.999999998358
 51
-86.24085952220999
  0
ARC
  5
1FF
330
A
100
AcDbEntity
  8
0
  6
Continuous
 62
     3
100
AcDbCircle
 10
234.0427168471
 20
576.215343287764
 30
0.0
 40
0.5
100
AcDbArc
 50
90.0
 51
-125.00000000723
  0
ARC
  5
1FE
330
A
100
AcDbEntity
  8
0
  6
Continuous
 62
     3
100
AcDbCircle
 10
241.1961114941
 20
576.215343287764
 30
0.0
 40
0.5
100
AcDbArc
 50
-9.070794058111999
 51
90.00000000584298
  0
ARC
  5
1FD
330
A
100
AcDbEntity
  8
0
  6
Continuous
 62
     3
100
AcDbCircle
 10
268.0326394081
 20
579.2153432877639
 30
0.0
 40
0.5
100
AcDbArc
 50
-124.999999995061
 51
-90.00000001100202
  0
ARC
  5
1FC
330
A
100
AcDbEntity
  8
0
  6
Continuous
 62
     3
100
AcDbCircle
 10
261.6059733771
 20
583.715343287764
 30
0.0
 40
0.5
100
AcDbArc
 50
90.0
 51
-124.999999995162
  0
ARC
  5
1FB
330
A
100
AcDbEntity
  8
0
  6
Continuous
 62
     3
100
AcDbCircle
 10
269.0023626000999
 20
583.715343287764
 30
0.0
 40
0.5
100
AcDbArc
 50
-22.619864985697
 51
90.0
  0
ARC
  5
1FA
330
A
100
AcDbEntity
  8
0
  6
Continuous
 62
     3
100
AcDbCircle
 10
275.0023626001
 20
581.2153432877639
 30
0.0
 40
6.0
100
AcDbArc
 50
157.380135055097
 51
-162.079786846596
  0
ARC
  5
1F9
330
A
100
AcDbEntity
  8
0
  6
Continuous
 62
     3
100
AcDbCircle
 10
268.8177041621
 20
579.2153432877639
 30
0.0
 40
0.5
100
AcDbArc
 50
-90.0
 51
17.920212986423
  0
ARC
  5
1F8
330
A
100
AcDbEntity
  8
0
  6
Continuous
 62
     3
100
AcDbCircle
 10
266.5023626001
 20
571.3153432877639
 30
0.0
 40
0.5
100
AcDbArc
 50
-90.0
 51
0.0
  0
ARC
  5
1F7
330
A
100
AcDbEntity
  8
0
  6
Continuous
 62
     3
100
AcDbCircle
 10
248.8534761111
 20
571.3153432877639
 30
0.0
 40
0.5000000000770001
100
AcDbArc
 50
161.310181973637
 51
-90.0
  0
ARC
  5
1F6
330
A
100
AcDbEntity
  8
0
  6
Continuous
 62
     3
100
AcDbCircle
 10
238.9071701211
 20
574.6800122397639
 30
0.0
 40
10.000000000226
100
AcDbArc
 50
-18.689818301001
 51
-14.021226069201
  0
ARC
  5
1F5
330
A
100
AcDbEntity
  8
0
  6
Continuous
 62
     3
100
AcDbCircle
 10
219.5030494001
 20
579.525639033764
 30
0.0
 40
29.999999999847
100
AcDbArc
 50
-14.0212260813
 51
-6.230830517598999
  0
ARC
  5
1F4
330
A
100
AcDbEntity
  8
0
  6
Continuous
 62
     3
100
AcDbCircle
 10
249.8228769401
 20
576.215343287764
 30
0.0
 40
0.5
100
AcDbArc
 50
90.0
 51
173.769169484562
  0
ARC
  5
1F3
330
A
100
AcDbEntity
  8
0
  6
Continuous
 62
     3
100
AcDbCircle
 10
266.5023626001
 20
576.215343287764
 30
0.0
 40
0.5
100
AcDbArc
 50
0.0
 51
90.0
  0
ARC
  5
1F2
330
A
100
AcDbEntity
  8
0
  6
Continuous
 62
     3
100
AcDbCircle
 10
179.2523626031
 20
573.7153432877639
 30
0.0
 40
2.35
100
AcDbArc
 50
-150.622207616603
 51
-43.17355110729
  0
ARC
  5
1F1
330
A
100
AcDbEntity
  8
0
  6
Continuous
 62
     3
100
AcDbCircle
 10
198.4523626031
 20
567.215343287764
 30
0.0
 40
3.049999999999999
100
AcDbArc
 50
148.35934261171
 51
-139.024389657406
  0
ARC
  5
1F0
330
A
100
AcDbEntity
  8
0
  6
Continuous
 62
     3
100
AcDbCircle
 10
176.9431419554
 20
572.415343287764
 30
0.0
 40
0.3
100
AcDbArc
 50
29.377792383413
 51
90.0
  0
ARC
  5
1EF
330
A
100
AcDbEntity
  8
0
  6
Continuous
 62
     3
100
AcDbCircle
 10
176.5523626031
 20
572.415343287764
 30
0.0
 40
0.3
100
AcDbArc
 50
90.0
 51
180.0
  0
ARC
  5
1EE
330
A
100
AcDbEntity
  8
0
  6
Continuous
 62
     3
100
AcDbCircle
 10
180.1023626031
 20
560.4653432877639
 30
0.0
 40
0.5
100
AcDbArc
 50
149.999999999988
 51
180.0
  0
ARC
  5
1ED
330
A
100
AcDbEntity
  8
0
  6
Continuous
 62
     3
100
AcDbCircle
 10
178.2523626031
 20
576.3841445167639
 30
0.0
 40
0.5
100
AcDbArc
 50
180.0
 51
-69.459022462492
  0
ARC
  5
1EC
330
A
100
AcDbEntity
  8
0
  6
Continuous
 62
     3
100
AcDbCircle
 10
179.2523626031
 20
573.7153432877639
 30
0.0
 40
2.35
100
AcDbArc
 50
-43.17355110729
 51
110.540977537505
  0
ARC
  5
1EB
330
A
100
AcDbEntity
  8
0
  6
Continuous
 62
     3
100
AcDbCircle
 10
181.3308235722
 20
571.7653432877638
 30
0.0
 40
0.5
100
AcDbArc
 50
136.826448892677
 51
-90.0
  0
ARC
  5
1EA
330
A
100
AcDbEntity
  8
0
  6
Continuous
 62
     3
100
AcDbCircle
 10
166.0023626176
 20
576.915343287764
 30
0.0
 40
0.3
100
AcDbArc
 50
90.0
 51
180.0
  0
ARC
  5
1E9
330
A
100
AcDbEntity
  8
0
  6
Continuous
 62
     3
100
AcDbCircle
 10
166.0023626176
 20
570.5153432877639
 30
0.0
 40
0.3
100
AcDbArc
 50
180.0
 51
-90.0
  0
ARC
  5
1E8
330
A
100
AcDbEntity
  8
0
  6
Continuous
 62
     3
100
AcDbCircle
 10
170.6497591599
 20
576.215343287764
 30
0.0
 40
1.0
100
AcDbArc
 50
78.283459075878
 51
90.0
  0
ARC
  5
1E7
330
A
100
AcDbEntity
  8
0
  6
Continuous
 62
     3
100
AcDbCircle
 10
170.6497591599
 20
571.215343287764
 30
0.0
 40
1.0
100
AcDbArc
 50
-90.0
 51
-78.283459075877
  0
ARC
  5
1E6
330
A
100
AcDbEntity
  8
0
  6
Continuous
 62
     3
100
AcDbCircle
 10
174.5004154462
 20
575.4167513022641
 30
0.0
 40
1.0
100
AcDbArc
 50
39.052284698198
 51
78.283459075878
  0
ARC
  5
1E5
330
A
100
AcDbEntity
  8
0
  6
Continuous
 62
     3
100
AcDbCircle
 10
174.5004154462
 20
572.013935273264
 30
0.0
 40
1.0
100
AcDbArc
 50
-78.283459075878
 51
-39.052284698198
  0
ARC
  5
1E4
330
A
100
AcDbEntity
  8
0
  6
Continuous
 62
     3
100
AcDbCircle
 10
179.2523626031
 20
573.7153432877639
 30
0.0
 40
2.25
100
AcDbArc
 50
-151.96519951291
 51
151.965199512907
  0
ARC
  5
1E3
330
A
100
AcDbEntity
  8
0
  6
Continuous
 62
     3
100
AcDbCircle
 10
164.7523626030999
 20
572.0653432877639
 30
0.0
 40
0.05
100
AcDbArc
 50
180.0
 51
-90.0
  0
ARC
  5
1E2
330
A
100
AcDbEntity
  8
0
  6
Continuous
 62
     3
100
AcDbCircle
 10
164.7523626030999
 20
575.3653432877639
 30
0.0
 40
0.05
100
AcDbArc
 50
90.0
 51
180.0
  0
ARC
  5
1E1
330
A
100
AcDbEntity
  8
0
  6
Continuous
 62
     3
100
AcDbCircle
 10
79.9523626031
 20
570.415343287764
 30
0.0
 40
0.3
100
AcDbArc
 50
180.0
 51
-90.0
  0
ARC
  5
1E0
330
A
100
AcDbEntity
  8
0
  6
Continuous
 62
     3
100
AcDbCircle
 10
79.9523626031
 20
577.0153432877639
 30
0.0
 40
0.3
100
AcDbArc
 50
90.0
 51
180.0
  0
ARC
  5
1DF
330
A
100
AcDbEntity
  8
0
  6
Continuous
 62
     3
100
AcDbCircle
 10
180.1023626032
 20
560.4653432877639
 30
0.0
 40
0.5
100
AcDbArc
 50
149.999999999986
 51
180.0
  0
ARC
  5
1DE
330
A
100
AcDbEntity
  8
0
  6
Continuous
 62
     3
100
AcDbCircle
 10
190.6023626032
 20
559.9653432877639
 30
0.0
 40
1.0
100
AcDbArc
 50
0.0
 51
48.590377890692
  0
ARC
  5
1DD
330
A
100
AcDbEntity
  8
0
  6
Continuous
 62
     3
100
AcDbCircle
 10
176.5655384473
 20
548.6656628788639
 30
0.0
 40
0.3
100
AcDbArc
 50
-126.499999999937
 51
-36.499999999982
  0
ARC
  5
1DC
330
A
100
AcDbEntity
  8
0
  6
Continuous
 62
     3
100
AcDbCircle
 10
179.1023626032
 20
552.430218561264
 30
0.0
 40
0.5
100
AcDbArc
 50
-36.499999999995
 51
0.0
  0
ARC
  5
1DB
330
A
100
AcDbEntity
  8
0
  6
Continuous
 62
     3
100
AcDbCircle
 10
41.302369395
 20
456.4247188137539
 30
0.0
 40
0.3
100
AcDbArc
 50
180.0
 51
-90.025537893929
  0
LINE
  5
1DA
330
A
100
AcDbEntity
  8
0
  6
Continuous
 62
     6
100
AcDbLine
 10
202.002370915
 20
461.8588717462539
 30
0.0
 11
202.0119784386
 21
461.8512094789539
 31
0.0
  0
LINE
  5
1D9
330
A
100
AcDbEntity
  8
0
  6
Continuous
 62
     6
100
AcDbLine
 10
202.2578028948
 20
462.0510364662539
 30
0.0
 11
202.2625004859
 21
462.039681810454
 31
0.0
  0
LINE
  5
1D8
330
A
100
AcDbEntity
  8
0
  6
Continuous
 62
     6
100
AcDbLine
 10
191.9927617521
 20
461.660203295254
 30
0.0
 11
192.0023692758
 21
461.671775185554
 31
0.0
  0
LINE
  5
1D7
330
A
100
AcDbEntity
  8
0
  6
Continuous
 62
     6
100
AcDbLine
 10
192.0023692758
 20
461.8588717462539
 30
0.0
 11
191.9927617521
 21
461.8512094789539
 31
0.0
  0
LINE
  5
1D6
330
A
100
AcDbEntity
  8
0
  6
Continuous
 62
     6
100
AcDbLine
 10
191.7469372959
 20
462.0510364662539
 30
0.0
 11
191.7422378422
 21
462.039681810454
 31
0.0
  0
LINE
  5
1D5
330
A
100
AcDbEntity
  8
0
  6
Continuous
 62
     6
100
AcDbLine
 10
202.2712549181
 20
461.084936123854
 30
0.0
 11
202.3233493777
 21
460.9803580865539
 31
0.0
  0
LINE
  5
1D4
330
A
100
AcDbEntity
  8
0
  6
Continuous
 62
     6
100
AcDbLine
 10
202.220743707
 20
461.186336604954
 30
0.0
 11
202.2712549181
 21
461.084936123854
 31
0.0
  0
LINE
  5
1D3
330
A
100
AcDbEntity
  8
0
  6
Continuous
 62
     6
100
AcDbLine
 10
202.1733505638
 20
461.281478540054
 30
0.0
 11
202.220743707
 21
461.186336604954
 31
0.0
  0
LINE
  5
1D2
330
A
100
AcDbEntity
  8
0
  6
Continuous
 62
     6
100
AcDbLine
 10
202.1305134506
 20
461.3674711040539
 30
0.0
 11
202.1733505638
 21
461.281478540054
 31
0.0
  0
LINE
  5
1D1
330
A
100
AcDbEntity
  8
0
  6
Continuous
 62
     6
100
AcDbLine
 10
202.0935362191
 20
461.441701398654
 30
0.0
 11
202.1305134506
 21
461.3674711040539
 31
0.0
  0
LINE
  5
1D0
330
A
100
AcDbEntity
  8
0
  6
Continuous
 62
     6
100
AcDbLine
 10
202.0635439069
 20
461.5019140369539
 30
0.0
 11
202.0935362191
 21
461.441701398654
 31
0.0
  0
LINE
  5
1CF
330
A
100
AcDbEntity
  8
0
  6
Continuous
 62
     6
100
AcDbLine
 10
202.0414417596
 20
461.546279443154
 30
0.0
 11
202.0635439069
 21
461.5019140369539
 31
0.0
  0
LINE
  5
1CE
330
A
100
AcDbEntity
  8
0
  6
Continuous
 62
     6
100
AcDbLine
 10
202.02790778
 20
461.573449622454
 30
0.0
 11
202.0414417596
 21
461.546279443154
 31
0.0
  0
LINE
  5
1CD
330
A
100
AcDbEntity
  8
0
  6
Continuous
 62
     6
100
AcDbLine
 10
202.0233517499
 20
461.582599015454
 30
0.0
 11
202.02790778
 21
461.573449622454
 31
0.0
  0
LINE
  5
1CC
330
A
100
AcDbEntity
  8
0
  6
Continuous
 62
     6
100
AcDbLine
 10
191.7839946212
 20
461.186336604954
 30
0.0
 11
191.7334815474
 21
461.084936123854
 31
0.0
  0
LINE
  5
1CB
330
A
100
AcDbEntity
  8
0
  6
Continuous
 62
     6
100
AcDbLine
 10
191.8313877643999
 20
461.281478540054
 30
0.0
 11
191.7839946212
 21
461.186336604954
 31
0.0
  0
LINE
  5
1CA
330
A
100
AcDbEntity
  8
0
  6
Continuous
 62
     6
100
AcDbLine
 10
191.8742248775
 20
461.3674711040539
 30
0.0
 11
191.8313877643999
 21
461.281478540054
 31
0.0
  0
LINE
  5
1C9
330
A
100
AcDbEntity
  8
0
  6
Continuous
 62
     6
100
AcDbLine
 10
191.911202109
 20
461.441701398654
 30
0.0
 11
191.8742248775
 21
461.3674711040539
 31
0.0
  0
LINE
  5
1C8
330
A
100
AcDbEntity
  8
0
  6
Continuous
 62
     6
100
AcDbLine
 10
191.9411962838
 20
461.5019140369539
 30
0.0
 11
191.911202109
 21
461.441701398654
 31
0.0
  0
LINE
  5
1C7
330
A
100
AcDbEntity
  8
0
  6
Continuous
 62
     6
100
AcDbLine
 10
191.9632965685
 20
461.546279443154
 30
0.0
 11
191.9411962838
 21
461.5019140369539
 31
0.0
  0
LINE
  5
1C6
330
A
100
AcDbEntity
  8
0
  6
Continuous
 62
     6
100
AcDbLine
 10
191.9768305482
 20
461.573449622454
 30
0.0
 11
191.9632965685
 21
461.546279443154
 31
0.0
  0
LINE
  5
1C5
330
A
100
AcDbEntity
  8
0
  6
Continuous
 62
     6
100
AcDbLine
 10
191.9813884409
 20
461.582599015454
 30
0.0
 11
191.9768305482
 21
461.573449622454
 31
0.0
  0
LINE
  5
1C4
330
A
100
AcDbEntity
  8
FORMAT
  6
PHANTOM
 62
     1
100
AcDbLine
 10
387.866130642287
 20
499.2153437645639
 30
0.0
 11
443.2523631358869
 21
499.2153437645639
 31
0.0
  0
LINE
  5
1C3
330
A
100
AcDbEntity
  8
FORMAT
  6
PHANTOM
 62
     1
100
AcDbLine
 10
371.866130642287
 20
597.934924874664
 30
0.0
 11
371.866130642287
 21
494.7180261405639
 31
0.0
  0
LINE
  5
1C2
330
A
100
AcDbEntity
  8
FORMAT
  6
PHANTOM
 62
     1
100
AcDbLine
 10
387.866130642287
 20
509.2153437645639
 30
0.0
 11
443.2523631358869
 21
509.2153437645639
 31
0.0
  0
LINE
  5
1C1
330
A
100
AcDbEntity
  8
FORMAT
  6
PHANTOM
 62
     1
100
AcDbLine
 10
410.8661306422869
 20
524.2153437645639
 30
0.0
 11
436.656510389187
 21
524.2153437645639
 31
0.0
  0
LINE
  5
1C0
330
A
100
AcDbEntity
  8
FORMAT
  6
PHANTOM
 62
     1
100
AcDbLine
 10
410.8661306422869
 20
534.2153437645639
 30
0.0
 11
410.8661306422869
 21
524.2153437645639
 31
0.0
  0
LINE
  5
1BF
330
A
100
AcDbEntity
  8
FORMAT
  6
PHANTOM
 62
     1
100
AcDbLine
 10
415.8661306422869
 20
588.028659051964
 30
0.0
 11
415.8661306422869
 21
534.2153437645639
 31
0.0
  0
LINE
  5
1BE
330
A
100
AcDbEntity
  8
FORMAT
  6
PHANTOM
 62
     1
100
AcDbLine
 10
400.866130642287
 20
519.2153437645639
 30
0.0
 11
415.8661306422869
 21
519.2153437645639
 31
0.0
  0
LINE
  5
1BD
330
A
100
AcDbEntity
  8
FORMAT
  6
PHANTOM
 62
     1
100
AcDbLine
 10
400.866130642287
 20
597.934924874664
 30
0.0
 11
400.866130642287
 21
519.2153437645639
 31
0.0
  0
LINE
  5
1BC
330
A
100
AcDbEntity
  8
FORMAT
  6
PHANTOM
 62
     1
100
AcDbLine
 10
410.8661306422869
 20
534.2153437645639
 30
0.0
 11
436.656510389187
 21
534.2153437645639
 31
0.0
  0
LINE
  5
1BB
330
A
100
AcDbEntity
  8
FORMAT
  6
PHANTOM
 62
     1
100
AcDbLine
 10
415.8661306422869
 20
524.2153437645639
 30
0.0
 11
415.8661306422869
 21
519.2153437645639
 31
0.0
  0
LINE
  5
1BA
330
A
100
AcDbEntity
  8
0
  6
Continuous
 62
     3
100
AcDbLine
 10
387.866130672087
 20
581.2153438762639
 30
0.0
 11
398.866130612487
 21
581.2153438762639
 31
0.0
  0
LINE
  5
1B9
330
A
100
AcDbEntity
  8
0
  6
Continuous
 62
     3
100
AcDbLine
 10
390.366130616287
 20
548.4872166723639
 30
0.0
 11
391.6661473835871
 21
548.4872166723639
 31
0.0
  0
LINE
  5
1B8
330
A
100
AcDbEntity
  8
0
  6
Continuous
 62
     3
100
AcDbLine
 10
391.666533183987
 20
552.1328081101639
 30
0.0
 11
390.366130616287
 21
552.1328081101639
 31
0.0
  0
LINE
  5
1B7
330
A
100
AcDbEntity
  8
0
  6
Continuous
 62
     3
100
AcDbLine
 10
390.366130616287
 20
552.430220386464
 30
0.0
 11
391.666572648787
 21
552.430220386464
 31
0.0
  0
LINE
  5
1B6
330
A
100
AcDbEntity
  8
0
  6
Continuous
 62
     3
100
AcDbLine
 10
395.023766430787
 20
557.215344598964
 30
0.0
 11
395.032954277187
 21
560.7153442413639
 31
0.0
  0
LINE
  5
1B5
330
A
100
AcDbEntity
  8
0
  6
Continuous
 62
     6
100
AcDbLine
 10
391.913975231087
 20
539.715342661864
 30
0.0
 11
391.913975231087
 21
556.7153435856639
 31
0.0
  0
LINE
  5
1B4
330
A
100
AcDbEntity
  8
0
  6
Continuous
 62
     6
100
AcDbLine
 10
392.705353841387
 20
539.715342661864
 30
0.0
 11
392.705353841387
 21
556.7153435856639
 31
0.0
  0
LINE
  5
1B3
330
A
100
AcDbEntity
  8
0
  6
Continuous
 62
     3
100
AcDbLine
 10
388.166130628187
 20
560.7153442413639
 30
0.0
 11
398.566130656487
 21
560.7153442413639
 31
0.0
  0
LINE
  5
1B2
330
A
100
AcDbEntity
  8
0
  6
Continuous
 62
     3
100
AcDbLine
 10
398.566130656487
 20
586.2153437645639
 30
0.0
 11
388.166130628187
 21
586.2153437645639
 31
0.0
  0
LINE
  5
1B1
330
A
100
AcDbEntity
  8
0
  6
Continuous
 62
     3
100
AcDbLine
 10
398.566130656487
 20
565.7153431982639
 30
0.0
 11
388.166130628187
 21
565.7153431982639
 31
0.0
  0
LINE
  5
1B0
330
A
100
AcDbEntity
  8
0
  6
Continuous
 62
     3
100
AcDbLine
 10
390.366130616287
 20
548.365664175264
 30
0.0
 11
390.366130616287
 21
548.4872166723639
 31
0.0
  0
LINE
  5
1AF
330
A
100
AcDbEntity
  8
0
  6
Continuous
 62
     3
100
AcDbLine
 10
390.366130616287
 20
552.1328081101639
 30
0.0
 11
390.366130616287
 21
548.4872166723639
 31
0.0
  0
LINE
  5
1AE
330
A
100
AcDbEntity
  8
0
  6
Continuous
 62
     3
100
AcDbLine
 10
390.366130616287
 20
556.7653444320639
 30
0.0
 11
390.366130616287
 21
557.7653445959639
 31
0.0
  0
LINE
  5
1AD
330
A
100
AcDbEntity
  8
0
  6
Continuous
 62
     3
100
AcDbLine
 10
390.366130616287
 20
557.7653445959639
 30
0.0
 11
391.666330970587
 21
557.7653445959639
 31
0.0
  0
LINE
  5
1AC
330
A
100
AcDbEntity
  8
0
  6
Continuous
 62
     3
100
AcDbLine
 10
390.366130616287
 20
552.1328081101639
 30
0.0
 11
390.366130616287
 21
552.430220386464
 31
0.0
  0
LINE
  5
1AB
330
A
100
AcDbEntity
  8
0
  6
Continuous
 62
     3
100
AcDbLine
 10
396.366130668387
 20
557.7653445959639
 30
0.0
 11
396.366130668387
 21
557.215344598964
 31
0.0
  0
LINE
  5
1AA
330
A
100
AcDbEntity
  8
0
  6
Continuous
 62
     3
100
AcDbLine
 10
395.066130664887
 20
557.7653445959639
 30
0.0
 11
396.366130668387
 21
557.7653445959639
 31
0.0
  0
LINE
  5
1A9
330
A
100
AcDbEntity
  8
0
  6
Continuous
 62
     3
100
AcDbLine
 10
391.666354020787
 20
556.7653444320639
 30
0.0
 11
390.366130616287
 21
556.7653444320639
 31
0.0
  0
LINE
  5
1A8
330
A
100
AcDbEntity
  8
0
  6
Continuous
 62
     3
100
AcDbLine
 10
390.366130616287
 20
556.7653444320639
 30
0.0
 11
390.366130616287
 21
552.430220386464
 31
0.0
  0
LINE
  5
1A7
330
A
100
AcDbEntity
  8
0
  6
Continuous
 62
     3
100
AcDbLine
 10
395.066130664887
 20
560.7153442413639
 30
0.0
 11
395.066130664887
 21
557.215344598964
 31
0.0
  0
LINE
  5
1A6
330
A
100
AcDbEntity
  8
0
  6
Continuous
 62
     3
100
AcDbLine
 10
391.666130619787
 20
548.265342107464
 30
0.0
 11
391.910091383087
 21
548.265342107464
 31
0.0
  0
LINE
  5
1A5
330
A
100
AcDbEntity
  8
0
  6
Continuous
 62
     6
100
AcDbLine
 10
391.913975231087
 20
539.715342661864
 30
0.0
 11
391.910091383087
 21
539.715342661864
 31
0.0
  0
LINE
  5
1A4
330
A
100
AcDbEntity
  8
0
  6
Continuous
 62
     6
100
AcDbLine
 10
391.910091383087
 20
556.7153435856639
 30
0.0
 11
391.913975231087
 21
556.7153435856639
 31
0.0
  0
LINE
  5
1A3
330
A
100
AcDbEntity
  8
0
  6
Continuous
 62
     6
100
AcDbLine
 10
393.195644201587
 20
557.215344598964
 30
0.0
 11
392.476032595787
 21
557.215344598964
 31
0.0
  0
LINE
  5
1A2
330
A
100
AcDbEntity
  8
0
  6
Continuous
 62
     6
100
AcDbLine
 10
392.476032595787
 20
539.2153453738639
 30
0.0
 11
393.195644201587
 21
539.2153453738639
 31
0.0
  0
LINE
  5
1A1
330
A
100
AcDbEntity
  8
0
  6
Continuous
 62
     6
100
AcDbLine
 10
400.8661304746869
 20
557.215344598964
 30
0.0
 11
393.195644201587
 21
557.215344598964
 31
0.0
  0
LINE
  5
1A0
330
A
100
AcDbEntity
  8
0
  6
Continuous
 62
     6
100
AcDbLine
 10
393.195644201587
 20
539.2153453738639
 30
0.0
 11
400.8661304746869
 21
539.2153453738639
 31
0.0
  0
LINE
  5
19F
330
A
100
AcDbEntity
  8
0
  6
Continuous
 62
     6
100
AcDbLine
 10
397.866130448587
 20
556.7153435856639
 30
0.0
 11
397.866130448587
 21
539.715342661864
 31
0.0
  0
LINE
  5
19E
330
A
100
AcDbEntity
  8
0
  6
Continuous
 62
     6
100
AcDbLine
 10
400.8661304746869
 20
539.2153453738639
 30
0.0
 11
400.8661304746869
 21
557.215344598964
 31
0.0
  0
LINE
  5
19D
330
A
100
AcDbEntity
  8
0
  6
Continuous
 62
     3
100
AcDbLine
 10
390.366130616287
 20
548.365664175264
 30
0.0
 11
391.666138186787
 21
548.365664175264
 31
0.0
  0
LINE
  5
19C
330
A
100
AcDbEntity
  8
0
  6
Continuous
 62
     6
100
AcDbLine
 10
391.910091383087
 20
556.7153435856639
 30
0.0
 11
391.910091383087
 21
539.715342661864
 31
0.0
  0
LINE
  5
19B
330
A
100
AcDbEntity
  8
0
  6
Continuous
 62
     3
100
AcDbLine
 10
199.9187936993
 20
460.174718832154
 30
0.0
 11
199.9187936993
 21
462.774718839254
 31
0.0
  0
LINE
  5
19A
330
A
100
AcDbEntity
  8
0
  6
Continuous
 62
     3
100
AcDbLine
 10
199.9187936993
 20
462.774718839254
 30
0.0
 11
198.4985826523
 21
462.774718839254
 31
0.0
  0
LINE
  5
199
330
A
100
AcDbEntity
  8
0
  6
Continuous
 62
     3
100
AcDbLine
 10
198.3752550544
 20
461.8584125460539
 30
0.0
 11
194.9044411988
 21
460.174718832154
 31
0.0
  0
LINE
  5
198
330
A
100
AcDbEntity
  8
0
  6
Continuous
 62
     3
100
AcDbLine
 10
198.2237791629
 20
462.171640323954
 30
0.0
 11
198.3752550544
 21
461.858412837054
 31
0.0
  0
LINE
  5
197
330
A
100
AcDbEntity
  8
0
  6
Continuous
 62
     3
100
AcDbLine
 10
197.941970265
 20
462.754380267654
 30
0.0
 11
197.9838090004
 21
462.6678612153539
 31
0.0
  0
LINE
  5
196
330
A
100
AcDbEntity
  8
0
  6
Continuous
 62
     3
100
AcDbLine
 10
180.1023690016
 20
463.074718795354
 30
0.0
 11
180.1023690016
 21
460.174718832154
 31
0.0
  0
LINE
  5
195
330
A
100
AcDbEntity
  8
0
  6
Continuous
 62
     3
100
AcDbLine
 10
190.6023697913999
 20
461.720872659954
 30
0.0
 11
190.6023697913999
 21
463.074718795354
 31
0.0
  0
LINE
  5
194
330
A
100
AcDbEntity
  8
0
  6
Continuous
 62
     3
100
AcDbLine
 10
198.2222201289
 20
462.921067334354
 30
0.0
 11
198.3132513226
 21
463.047461195454
 31
0.0
  0
LINE
  5
193
330
A
100
AcDbEntity
  8
0
  6
Continuous
 62
     3
100
AcDbLine
 10
192.6165318103
 20
460.174718832154
 30
0.0
 11
197.9419739903
 21
462.754365948554
 31
0.0
  0
LINE
  5
192
330
A
100
AcDbEntity
  8
0
  6
Continuous
 62
     3
100
AcDbLine
 10
193.5017427416
 20
463.3247188362539
 30
0.0
 11
193.5017427416
 21
461.312431162254
 31
0.0
  0
LINE
  5
191
330
A
100
AcDbEntity
  8
0
  6
Continuous
 62
     3
100
AcDbLine
 10
169.30236942
 20
462.924718817254
 30
0.0
 11
169.202369357
 21
462.924718817254
 31
0.0
  0
LINE
  5
190
330
A
100
AcDbEntity
  8
0
  6
Continuous
 62
     3
100
AcDbLine
 10
169.202369357
 20
460.3247188102539
 30
0.0
 11
169.30236942
 21
460.3247188102539
 31
0.0
  0
LINE
  5
18F
330
A
100
AcDbEntity
  8
0
  6
Continuous
 62
     3
100
AcDbLine
 10
41.3023663671
 20
467.1247187839539
 30
0.0
 11
41.5023697527
 21
467.1247187839539
 31
0.0
  0
LINE
  5
18E
330
A
100
AcDbEntity
  8
0
  6
Continuous
 62
     3
100
AcDbLine
 10
289.0023721368
 20
466.824718827954
 30
0.0
 11
289.0023721368
 21
456.4247187995539
 31
0.0
  0
LINE
  5
18D
330
A
100
AcDbEntity
  8
0
  6
Continuous
 62
     3
100
AcDbLine
 10
41.00237619
 20
456.4247187995539
 30
0.0
 11
41.00237619
 21
466.824718827954
 31
0.0
  0
LINE
  5
18C
330
A
100
AcDbEntity
  8
0
  6
Continuous
 62
     3
100
AcDbLine
 10
278.892783633
 20
467.1247187839539
 30
0.0
 11
288.7023670585
 21
467.1247187839539
 31
0.0
  0
LINE
  5
18B
330
A
100
AcDbEntity
  8
0
  6
Continuous
 62
     3
100
AcDbLine
 10
278.892783633
 20
456.1247188435539
 30
0.0
 11
288.7023670585
 21
456.1247188435539
 31
0.0
  0
LINE
  5
18A
330
A
100
AcDbEntity
  8
0
  6
Continuous
 62
     3
100
AcDbLine
 10
41.5023697527
 20
467.1247187839539
 30
0.0
 11
274.2023674758
 21
467.1247187839539
 31
0.0
  0
LINE
  5
189
330
A
100
AcDbEntity
  8
0
  6
Continuous
 62
     3
100
AcDbLine
 10
50.8023707183
 20
456.4247187995539
 30
0.0
 11
50.8023707183
 21
466.824718827954
 31
0.0
  0
LINE
  5
188
330
A
100
AcDbEntity
  8
0
  6
Continuous
 62
     3
100
AcDbLine
 10
279.202370158
 20
466.824718827954
 30
0.0
 11
279.202370158
 21
456.4247187995539
 31
0.0
  0
LINE
  5
187
330
A
100
AcDbEntity
  8
0
  6
Continuous
 62
     3
100
AcDbLine
 10
224.0023707957
 20
456.1247188435539
 30
0.0
 11
274.2023674758
 21
456.1247188435539
 31
0.0
  0
LINE
  5
186
330
A
100
AcDbEntity
  8
0
  6
Continuous
 62
     3
100
AcDbLine
 10
41.30223567890399
 20
456.1247188435539
 30
0.0
 11
170.0023693955
 21
456.1247188435539
 31
0.0
  0
LINE
  5
185
330
A
100
AcDbEntity
  8
0
  6
Continuous
 62
     3
100
AcDbLine
 10
173.5896765707
 20
459.8247188446539
 30
0.0
 11
169.202369357
 21
459.8247188446539
 31
0.0
  0
LINE
  5
184
330
A
100
AcDbEntity
  8
0
  6
Continuous
 62
     3
100
AcDbLine
 10
181.8023698391
 20
459.8247188446539
 30
0.0
 11
179.602369851
 21
459.8247188446539
 31
0.0
  0
LINE
  5
183
330
A
100
AcDbEntity
  8
0
  6
Continuous
 62
     3
100
AcDbLine
 10
202.8990222128
 20
459.8247188446539
 30
0.0
 11
191.105717843615
 21
459.8247188446539
 31
0.0
  0
LINE
  5
182
330
A
100
AcDbEntity
  8
0
  6
Continuous
 62
     3
100
AcDbLine
 10
259.1023726375
 20
459.8247188446539
 30
0.0
 11
212.202368489
 21
459.8247188446539
 31
0.0
  0
LINE
  5
181
330
A
100
AcDbEntity
  8
0
  6
Continuous
 62
     3
100
AcDbLine
 10
169.202369357
 20
463.424718782854
 30
0.0
 11
169.202369357
 21
459.8247188446539
 31
0.0
  0
LINE
  5
180
330
A
100
AcDbEntity
  8
0
  6
Continuous
 62
     3
100
AcDbLine
 10
173.5896765707
 20
463.424718782854
 30
0.0
 11
169.202369357
 21
463.424718782854
 31
0.0
  0
LINE
  5
17F
330
A
100
AcDbEntity
  8
0
  6
Continuous
 62
     3
100
AcDbLine
 10
259.1023726375
 20
463.424718782854
 30
0.0
 11
179.602369851
 21
463.424718782854
 31
0.0
  0
LINE
  5
17E
330
A
100
AcDbEntity
  8
0
  6
Continuous
 62
     3
100
AcDbLine
 10
259.1023726375
 20
459.8247188446539
 30
0.0
 11
259.1023726375
 21
463.424718782854
 31
0.0
  0
LINE
  5
17D
330
A
100
AcDbEntity
  8
0
  6
Continuous
 62
     3
100
AcDbLine
 10
199.9187936993
 20
460.174718832154
 30
0.0
 11
198.4985826523
 21
460.174718832154
 31
0.0
  0
LINE
  5
17C
330
A
100
AcDbEntity
  8
0
  6
Continuous
 62
     3
100
AcDbLine
 10
198.4985826523
 20
460.174718832154
 30
0.0
 11
194.9044411988
 21
460.174718832154
 31
0.0
  0
LINE
  5
17B
330
A
100
AcDbEntity
  8
0
  6
Continuous
 62
     3
100
AcDbLine
 10
198.4985826523
 20
460.174718832154
 30
0.0
 11
198.4985826523
 21
462.048988866254
 31
0.0
  0
LINE
  5
17A
330
A
100
AcDbEntity
  8
0
  6
Continuous
 62
     3
100
AcDbLine
 10
198.309963754
 20
463.074718795354
 30
0.0
 11
199.338082409
 21
463.074718795354
 31
0.0
  0
LINE
  5
179
330
A
100
AcDbEntity
  8
0
  6
Continuous
 62
     3
100
AcDbLine
 10
198.4985826523
 20
462.048988866254
 30
0.0
 11
198.4985826523
 21
462.774718839254
 31
0.0
  0
LINE
  5
178
330
A
100
AcDbEntity
  8
0
  6
Continuous
 62
     3
100
AcDbLine
 10
181.8023698391
 20
460.174718832154
 30
0.0
 11
180.1023690016
 21
460.174718832154
 31
0.0
  0
LINE
  5
177
330
A
100
AcDbEntity
  8
0
  6
Continuous
 62
     3
100
AcDbLine
 10
186.6511462243
 20
463.074718795354
 30
0.0
 11
190.6023697913999
 21
463.074718795354
 31
0.0
  0
LINE
  5
176
330
A
100
AcDbEntity
  8
0
  6
Continuous
 62
     3
100
AcDbLine
 10
180.1023690016
 20
463.074718795354
 30
0.0
 11
186.552370152
 21
463.074718795354
 31
0.0
  0
LINE
  5
175
330
A
100
AcDbEntity
  8
0
  6
Continuous
 62
     3
100
AcDbLine
 10
180.1023690016
 20
460.174718832154
 30
0.0
 11
179.602369851
 21
460.174718832154
 31
0.0
  0
LINE
  5
174
330
A
100
AcDbEntity
  8
0
  6
Continuous
 62
     3
100
AcDbLine
 10
179.602369851
 20
463.074718795354
 30
0.0
 11
180.1023690016
 21
463.074718795354
 31
0.0
  0
LINE
  5
173
330
A
100
AcDbEntity
  8
0
  6
Continuous
 62
     3
100
AcDbLine
 10
191.6023699553
 20
460.174718832154
 30
0.0
 11
191.2800671519
 21
460.174718832154
 31
0.0
  0
LINE
  5
172
330
A
100
AcDbEntity
  8
0
  6
Continuous
 62
     3
100
AcDbLine
 10
190.6023697913999
 20
463.074718795354
 30
0.0
 11
191.6023699553
 21
463.074718795354
 31
0.0
  0
LINE
  5
171
330
A
100
AcDbEntity
  8
0
  6
Continuous
 62
     3
100
AcDbLine
 10
179.602369851
 20
464.624718839854
 30
0.0
 11
179.602369851
 21
463.424718782854
 31
0.0
  0
LINE
  5
170
330
A
100
AcDbEntity
  8
0
  6
Continuous
 62
     3
100
AcDbLine
 10
174.2166850702
 20
464.624718839854
 30
0.0
 11
173.4067990431
 21
463.074718795354
 31
0.0
  0
LINE
  5
16F
330
A
100
AcDbEntity
  8
0
  6
Continuous
 62
     3
100
AcDbLine
 10
169.30236942
 20
463.074718795354
 30
0.0
 11
173.4067990431
 21
463.074718795354
 31
0.0
  0
LINE
  5
16E
330
A
100
AcDbEntity
  8
0
  6
Continuous
 62
     3
100
AcDbLine
 10
169.30236942
 20
460.174718832154
 30
0.0
 11
169.30236942
 21
463.074718795354
 31
0.0
  0
LINE
  5
16D
330
A
100
AcDbEntity
  8
0
  6
Continuous
 62
     3
100
AcDbLine
 10
169.30236942
 20
460.174718832154
 30
0.0
 11
173.4067990431
 21
460.174718832154
 31
0.0
  0
LINE
  5
16C
330
A
100
AcDbEntity
  8
0
  6
Continuous
 62
     3
100
AcDbLine
 10
173.4067990431
 20
460.174718832154
 30
0.0
 11
174.2166850702
 21
458.624718787654
 31
0.0
  0
LINE
  5
16B
330
A
100
AcDbEntity
  8
0
  6
Continuous
 62
     3
100
AcDbLine
 10
179.602369851
 20
458.624718787654
 30
0.0
 11
174.2166850702
 21
458.624718787654
 31
0.0
  0
LINE
  5
16A
330
A
100
AcDbEntity
  8
0
  6
Continuous
 62
     3
100
AcDbLine
 10
174.2166850702
 20
464.624718839854
 30
0.0
 11
179.602369851
 21
464.624718839854
 31
0.0
  0
LINE
  5
169
330
A
100
AcDbEntity
  8
0
  6
Continuous
 62
     3
100
AcDbLine
 10
198.309963754
 20
463.074717980354
 30
0.0
 11
198.3132736744
 21
463.0475103227539
 31
0.0
  0
LINE
  5
168
330
A
100
AcDbEntity
  8
0
  6
Continuous
 62
     3
100
AcDbLine
 10
192.1628380181
 20
459.953038680854
 30
0.0
 11
192.6361678155
 21
460.174718832154
 31
0.0
  0
LINE
  5
167
330
A
100
AcDbEntity
  8
0
  6
Continuous
 62
     3
100
AcDbLine
 10
191.6023699553
 20
459.9247187912539
 30
0.0
 11
191.9788347544
 21
459.9247187912539
 31
0.0
  0
LINE
  5
166
330
A
100
AcDbEntity
  8
0
  6
Continuous
 62
     3
100
AcDbLine
 10
198.014134558456
 20
463.3247188362539
 30
0.0
 11
191.6023699553
 21
463.3247188362539
 31
0.0
  0
LINE
  5
165
330
A
100
AcDbEntity
  8
0
  6
Continuous
 62
     3
100
AcDbLine
 10
191.6023699553
 20
460.821730918354
 30
0.0
 11
191.6023699553
 21
459.9247187912539
 31
0.0
  0
LINE
  5
164
330
A
100
AcDbEntity
  8
0
  6
Continuous
 62
     3
100
AcDbLine
 10
191.6023699553
 20
463.3247188362539
 30
0.0
 11
191.6023699553
 21
462.0093341987539
 31
0.0
  0
LINE
  5
163
330
A
100
AcDbEntity
  8
0
  6
Continuous
 62
     3
100
AcDbLine
 10
192.1900847913
 20
460.011703388354
 30
0.0
 11
193.5017427416
 21
461.312431162254
 31
0.0
  0
LINE
  5
162
330
A
100
AcDbEntity
  8
0
  6
Continuous
 62
     6
100
AcDbLine
 10
211.3984843702
 20
462.2854956146539
 30
0.0
 11
207.4415927739
 21
463.0768742249539
 31
0.0
  0
LINE
  5
161
330
A
100
AcDbEntity
  8
0
  6
Continuous
 62
     6
100
AcDbLine
 10
207.2023695321
 20
462.8807580634539
 30
0.0
 11
207.2023695321
 21
460.6247187662539
 31
0.0
  0
LINE
  5
160
330
A
100
AcDbEntity
  8
0
  6
Continuous
 62
     6
100
AcDbLine
 10
223.5023697825
 20
457.124719007454
 30
0.0
 11
212.7023695023
 21
457.124719007454
 31
0.0
  0
LINE
  5
15F
330
A
100
AcDbEntity
  8
0
  6
Continuous
 62
     6
100
AcDbLine
 10
202.002370915
 20
461.8588717462539
 30
0.0
 11
202.002370915
 21
461.671775185554
 31
0.0
  0
LINE
  5
15E
330
A
100
AcDbEntity
  8
0
  6
Continuous
 62
     6
100
AcDbLine
 10
212.202368489
 20
457.6247186237539
 30
0.0
 11
212.202368489
 21
461.3049149234539
 31
0.0
  0
LINE
  5
15D
330
A
100
AcDbEntity
  8
0
  6
Continuous
 62
     6
100
AcDbLine
 10
224.0023707957
 20
454.1247189813539
 30
0.0
 11
224.0023707957
 21
456.6247189255539
 31
0.0
  0
LINE
  5
15C
330
A
100
AcDbEntity
  8
0
  6
Continuous
 62
     6
100
AcDbLine
 10
207.2023695321
 20
460.6247187662539
 30
0.0
 11
202.2578028948
 21
462.0510364662539
 31
0.0
  0
LINE
  5
15B
330
A
100
AcDbEntity
  8
0
  6
Continuous
 62
     6
100
AcDbLine
 10
202.3233493777
 20
460.9803580865539
 30
0.0
 11
203.9558982463
 21
457.703071257654
 31
0.0
  0
LINE
  5
15A
330
A
100
AcDbEntity
  8
0
  6
Continuous
 62
     6
100
AcDbLine
 10
192.0023692758
 20
461.8588717462539
 30
0.0
 11
192.0023692758
 21
461.671775185554
 31
0.0
  0
LINE
  5
159
330
A
100
AcDbEntity
  8
0
  6
Continuous
 62
     6
100
AcDbLine
 10
186.802368796
 20
462.8807580634539
 30
0.0
 11
186.802368796
 21
460.6247187662539
 31
0.0
  0
LINE
  5
158
330
A
100
AcDbEntity
  8
0
  6
Continuous
 62
     6
100
AcDbLine
 10
186.802368796
 20
460.6247187662539
 30
0.0
 11
191.7469372959
 21
462.0510364662539
 31
0.0
  0
LINE
  5
157
330
A
100
AcDbEntity
  8
0
  6
Continuous
 62
     6
100
AcDbLine
 10
190.4068795951
 20
457.124719007454
 30
0.0
 11
203.5978605957
 21
457.124719007454
 31
0.0
  0
LINE
  5
156
330
A
100
AcDbEntity
  8
0
  6
Continuous
 62
     6
100
AcDbLine
 10
191.6813870878
 20
460.9803580865539
 30
0.0
 11
191.105717843615
 21
459.8247188446539
 31
0.0
  0
LINE
  5
155
330
A
100
AcDbEntity
  8
0
  6
Continuous
 62
     6
100
AcDbLine
 10
182.6062530266
 20
462.2854956146539
 30
0.0
 11
186.5631455542
 21
463.0768742249539
 31
0.0
  0
LINE
  5
154
330
A
100
AcDbEntity
  8
0
  6
Continuous
 62
     6
100
AcDbLine
 10
181.8023698391
 20
457.6247186237539
 30
0.0
 11
181.8023698391
 21
461.3049149234539
 31
0.0
  0
LINE
  5
153
330
A
100
AcDbEntity
  8
0
  6
Continuous
 62
     6
100
AcDbLine
 10
170.0023693955
 20
454.1247189813539
 30
0.0
 11
170.0023693955
 21
456.6247189255539
 31
0.0
  0
LINE
  5
152
330
A
100
AcDbEntity
  8
FORMAT
  6
PHANTOM
 62
     1
100
AcDbLine
 10
349.002369395
 20
504.2153437645639
 30
0.0
 11
329.002369395
 21
504.2153437645639
 31
0.0
  0
LINE
  5
151
330
A
100
AcDbEntity
  8
FORMAT
  6
PHANTOM
 62
     1
100
AcDbLine
 10
349.002369395
 20
596.6566970266639
 30
0.0
 11
349.002369395
 21
504.2153437645639
 31
0.0
  0
LINE
  5
150
330
A
100
AcDbEntity
  8
FORMAT
  6
PHANTOM
 62
     1
100
AcDbLine
 10
329.002369395
 20
596.6566970266639
 30
0.0
 11
329.002369395
 21
504.2153437645639
 31
0.0
  0
LINE
  5
14F
330
A
100
AcDbEntity
  8
FORMAT
  6
PHANTOM
 62
     1
100
AcDbLine
 10
329.002369395
 20
519.2153437645639
 30
0.0
 11
52.7025104901
 21
519.2153437645639
 31
0.0
  0
LINE
  5
14E
330
A
100
AcDbEntity
  8
0
  6
Continuous
 62
     6
100
AcDbLine
 10
212.7023693955
 20
557.2153437645639
 30
0.0
 11
212.7023693955
 21
539.2153437645639
 31
0.0
  0
LINE
  5
14D
330
A
100
AcDbEntity
  8
0
  6
Continuous
 62
     6
100
AcDbLine
 10
181.3023693955
 20
557.2153437645639
 30
0.0
 11
181.3023693955
 21
539.2153437645639
 31
0.0
  0
LINE
  5
14C
330
A
100
AcDbEntity
  8
0
  6
Continuous
 62
     6
100
AcDbLine
 10
202.2578015258
 20
539.715343764564
 30
0.0
 11
202.2578015258
 21
556.7153437645639
 31
0.0
  0
LINE
  5
14B
330
A
100
AcDbEntity
  8
0
  6
Continuous
 62
     6
100
AcDbLine
 10
191.7469372653
 20
539.715343764564
 30
0.0
 11
191.7469372653
 21
548.265343764564
 31
0.0
  0
LINE
  5
14A
330
A
100
AcDbEntity
  8
0
  6
Continuous
 62
     6
100
AcDbLine
 10
211.3984855307
 20
539.715343764564
 30
0.0
 11
211.3984855307
 21
556.7153437645639
 31
0.0
  0
LINE
  5
149
330
A
100
AcDbEntity
  8
0
  6
Continuous
 62
     6
100
AcDbLine
 10
182.6062532604
 20
539.715343764564
 30
0.0
 11
182.6062532604
 21
556.7153437645639
 31
0.0
  0
LINE
  5
148
330
A
100
AcDbEntity
  8
0
  6
Continuous
 62
     6
100
AcDbLine
 10
207.4415926225
 20
539.715343764564
 30
0.0
 11
207.4415926225
 21
556.7153437645639
 31
0.0
  0
LINE
  5
147
330
A
100
AcDbEntity
  8
0
  6
Continuous
 62
     6
100
AcDbLine
 10
186.5631461685
 20
539.715343764564
 30
0.0
 11
186.5631461685
 21
556.7153437645639
 31
0.0
  0
LINE
  5
146
330
A
100
AcDbEntity
  8
0
  6
Continuous
 62
     6
100
AcDbLine
 10
219.0023693955
 20
551.2153437645639
 30
0.0
 11
219.0023693955
 21
545.2153437645639
 31
0.0
  0
LINE
  5
145
330
A
100
AcDbEntity
  8
0
  6
Continuous
 62
     6
100
AcDbLine
 10
215.0023693955
 20
545.2153437645639
 30
0.0
 11
215.0023693955
 21
551.2153437645639
 31
0.0
  0
LINE
  5
144
330
A
100
AcDbEntity
  8
0
  6
Continuous
 62
     6
100
AcDbLine
 10
175.0023693954999
 20
549.4491518647641
 30
0.0
 11
175.0023693954999
 21
545.2153437645639
 31
0.0
  0
LINE
  5
143
330
A
100
AcDbEntity
  8
0
  6
Continuous
 62
     6
100
AcDbLine
 10
179.0023693955
 20
545.2153437645639
 30
0.0
 11
179.0023693955
 21
551.2153437645639
 31
0.0
  0
LINE
  5
142
330
A
100
AcDbEntity
  8
0
  6
Continuous
 62
     6
100
AcDbLine
 10
179.0023693955
 20
551.2153437645639
 30
0.0
 11
178.9899670834
 21
551.4377295354639
 31
0.0
  0
LINE
  5
141
330
A
100
AcDbEntity
  8
0
  6
Continuous
 62
     6
100
AcDbLine
 10
224.0023693955
 20
544.2153437645639
 30
0.0
 11
224.0023693955
 21
552.215343764564
 31
0.0
  0
LINE
  5
140
330
A
100
AcDbEntity
  8
0
  6
Continuous
 62
     6
100
AcDbLine
 10
212.7023693955
 20
539.2153437645639
 30
0.0
 11
219.0023693955
 21
539.2153437645639
 31
0.0
  0
LINE
  5
13F
330
A
100
AcDbEntity
  8
0
  6
Continuous
 62
     6
100
AcDbLine
 10
221.0023693955
 20
551.2153437645639
 30
0.0
 11
221.0023693955
 21
545.2153437645639
 31
0.0
  0
LINE
  5
13E
330
A
100
AcDbEntity
  8
0
  6
Continuous
 62
     6
100
AcDbLine
 10
213.0023693955
 20
545.2153437645639
 30
0.0
 11
213.0023693955
 21
551.2153437645639
 31
0.0
  0
LINE
  5
13D
330
A
100
AcDbEntity
  8
0
  6
Continuous
 62
     6
100
AcDbLine
 10
219.0023693955
 20
557.2153437645639
 30
0.0
 11
212.7023693955
 21
557.2153437645639
 31
0.0
  0
LINE
  5
13C
330
A
100
AcDbEntity
  8
0
  6
Continuous
 62
     6
100
AcDbLine
 10
170.0023693955
 20
544.2153437645639
 30
0.0
 11
170.0023693955
 21
552.215343764564
 31
0.0
  0
LINE
  5
13B
330
A
100
AcDbEntity
  8
0
  6
Continuous
 62
     6
100
AcDbLine
 10
181.3023693955
 20
539.2153437645639
 30
0.0
 11
175.0023693954999
 21
539.2153437645639
 31
0.0
  0
LINE
  5
13A
330
A
100
AcDbEntity
  8
0
  6
Continuous
 62
     6
100
AcDbLine
 10
202.5023693955
 20
539.2153437645639
 30
0.0
 11
191.5023693955
 21
539.2153437645639
 31
0.0
  0
LINE
  5
139
330
A
100
AcDbEntity
  8
0
  6
Continuous
 62
     6
100
AcDbLine
 10
170.0023693955
 20
552.215343764564
 30
0.0
 11
170.0797661117
 21
553.091686682564
 31
0.0
  0
LINE
  5
138
330
A
100
AcDbEntity
  8
0
  6
Continuous
 62
     6
100
AcDbLine
 10
179.602369398
 20
557.2153437645639
 30
0.0
 11
181.3023693955
 21
557.2153437645639
 31
0.0
  0
LINE
  5
137
330
A
100
AcDbEntity
  8
0
  6
Continuous
 62
     6
100
AcDbLine
 10
181.0023693955
 20
545.2153437645639
 30
0.0
 11
181.0023693955
 21
551.2153437645639
 31
0.0
  0
LINE
  5
136
330
A
100
AcDbEntity
  8
0
  6
Continuous
 62
     6
100
AcDbLine
 10
173.0023693955
 20
550.929074014864
 30
0.0
 11
173.0023693955
 21
545.2153437645639
 31
0.0
  0
LINE
  5
135
330
A
100
AcDbEntity
  8
0
  6
Continuous
 62
     6
100
AcDbLine
 10
197.0571463075
 20
557.2153437645639
 30
0.0
 11
202.5023693955
 21
557.2153437645639
 31
0.0
  0
LINE
  5
134
330
A
100
AcDbEntity
  8
0
  6
Continuous
 62
     6
100
AcDbLine
 10
191.5023693955
 20
557.2153437645639
 30
0.0
 11
191.6023693979999
 21
557.2153437645639
 31
0.0
  0
LINE
  5
133
330
A
100
AcDbEntity
  8
0
  6
Continuous
 62
     6
100
AcDbLine
 10
211.7023693955
 20
539.2153437645639
 30
0.0
 11
212.7023693955
 21
539.2153437645639
 31
0.0
  0
LINE
  5
132
330
A
100
AcDbEntity
  8
0
  6
Continuous
 62
     6
100
AcDbLine
 10
212.7023693955
 20
557.2153437645639
 30
0.0
 11
211.7023693955
 21
557.2153437645639
 31
0.0
  0
LINE
  5
131
330
A
100
AcDbEntity
  8
0
  6
Continuous
 62
     6
100
AcDbLine
 10
182.3023693955
 20
539.2153437645639
 30
0.0
 11
181.3023693955
 21
539.2153437645639
 31
0.0
  0
LINE
  5
130
330
A
100
AcDbEntity
  8
0
  6
Continuous
 62
     6
100
AcDbLine
 10
181.3023693955
 20
557.2153437645639
 30
0.0
 11
182.3023693955
 21
557.2153437645639
 31
0.0
  0
LINE
  5
12F
330
A
100
AcDbEntity
  8
0
  6
Continuous
 62
     6
100
AcDbLine
 10
202.5023693955
 20
539.2153437645639
 30
0.0
 11
207.7023693955
 21
539.2153437645639
 31
0.0
  0
LINE
  5
12E
330
A
100
AcDbEntity
  8
0
  6
Continuous
 62
     6
100
AcDbLine
 10
191.5023693955
 20
539.2153437645639
 30
0.0
 11
186.3023693955
 21
539.2153437645639
 31
0.0
  0
LINE
  5
12D
330
A
100
AcDbEntity
  8
0
  6
Continuous
 62
     6
100
AcDbLine
 10
207.7023693955
 20
557.2153437645639
 30
0.0
 11
202.5023693955
 21
557.2153437645639
 31
0.0
  0
LINE
  5
12C
330
A
100
AcDbEntity
  8
0
  6
Continuous
 62
     6
100
AcDbLine
 10
186.3023693955
 20
557.2153437645639
 30
0.0
 11
191.5023693955
 21
557.2153437645639
 31
0.0
  0
LINE
  5
12B
330
A
100
AcDbEntity
  8
0
  6
Continuous
 62
     6
100
AcDbLine
 10
202.0023693955
 20
539.715343764564
 30
0.0
 11
202.0023693955
 21
556.7153437645639
 31
0.0
  0
LINE
  5
12A
330
A
100
AcDbEntity
  8
0
  6
Continuous
 62
     6
100
AcDbLine
 10
192.0023693955
 20
539.715343764564
 30
0.0
 11
192.0023693955
 21
548.265343764564
 31
0.0
  0
LINE
  5
129
330
A
100
AcDbEntity
  8
0
  6
Continuous
 62
     6
100
AcDbLine
 10
211.3004274631
 20
539.2153437645639
 30
0.0
 11
211.7023693955
 21
539.2153437645639
 31
0.0
  0
LINE
  5
128
330
A
100
AcDbEntity
  8
0
  6
Continuous
 62
     6
100
AcDbLine
 10
212.2023693955
 20
539.715343764564
 30
0.0
 11
212.2023693955
 21
556.7153437645639
 31
0.0
  0
LINE
  5
127
330
A
100
AcDbEntity
  8
0
  6
Continuous
 62
     6
100
AcDbLine
 10
182.7043113279
 20
539.2153437645639
 30
0.0
 11
182.3023693955
 21
539.2153437645639
 31
0.0
  0
LINE
  5
126
330
A
100
AcDbEntity
  8
0
  6
Continuous
 62
     6
100
AcDbLine
 10
211.7023693955
 20
557.2153437645639
 30
0.0
 11
211.3004274631
 21
557.2153437645639
 31
0.0
  0
LINE
  5
125
330
A
100
AcDbEntity
  8
0
  6
Continuous
 62
     6
100
AcDbLine
 10
182.3023693955
 20
557.2153437645639
 30
0.0
 11
182.7043113279
 21
557.2153437645639
 31
0.0
  0
LINE
  5
124
330
A
100
AcDbEntity
  8
0
  6
Continuous
 62
     6
100
AcDbLine
 10
181.8023693955
 20
539.715343764564
 30
0.0
 11
181.8023693955
 21
556.7153437645639
 31
0.0
  0
LINE
  5
123
330
A
100
AcDbEntity
  8
0
  6
Continuous
 62
     6
100
AcDbLine
 10
207.7023693955
 20
539.2153437645639
 30
0.0
 11
211.3004274631
 21
539.2153437645639
 31
0.0
  0
LINE
  5
122
330
A
100
AcDbEntity
  8
0
  6
Continuous
 62
     6
100
AcDbLine
 10
186.3023693955
 20
539.2153437645639
 30
0.0
 11
182.7043113279
 21
539.2153437645639
 31
0.0
  0
LINE
  5
121
330
A
100
AcDbEntity
  8
0
  6
Continuous
 62
     6
100
AcDbLine
 10
211.3004274631
 20
557.2153437645639
 30
0.0
 11
207.7023693955
 21
557.2153437645639
 31
0.0
  0
LINE
  5
120
330
A
100
AcDbEntity
  8
0
  6
Continuous
 62
     6
100
AcDbLine
 10
182.7043113279
 20
557.2153437645639
 30
0.0
 11
186.3023693955
 21
557.2153437645639
 31
0.0
  0
LINE
  5
11F
330
A
100
AcDbEntity
  8
0
  6
Continuous
 62
     6
100
AcDbLine
 10
207.2023693955
 20
539.715343764564
 30
0.0
 11
207.2023693955
 21
556.7153437645639
 31
0.0
  0
LINE
  5
11E
330
A
100
AcDbEntity
  8
0
  6
Continuous
 62
     6
100
AcDbLine
 10
186.8023693955
 20
539.715343764564
 30
0.0
 11
186.8023693955
 21
556.7153437645639
 31
0.0
  0
LINE
  5
11D
330
A
100
AcDbEntity
  8
1
  6
DOT_CENTER
 62
     1
100
AcDbLine
 10
47.0023626001
 20
583.0928339831269
 30
0.0
 11
47.0023626001
 21
570.749125530083
 31
0.0
  0
LINE
  5
11C
330
A
100
AcDbEntity
  8
1
  6
DOT_CENTER
 62
     1
100
AcDbLine
 10
55.0023626001
 20
587.168029596811
 30
0.0
 11
55.0023626001
 21
574.52901711379
 31
0.0
  0
LINE
  5
11B
330
A
100
AcDbEntity
  8
1
  6
DOT_CENTER
 62
     1
100
AcDbLine
 10
51.757510031425
 20
566.2153432877639
 30
0.0
 11
62.86094155856499
 21
566.2153432877639
 31
0.0
  0
LINE
  5
11A
330
A
100
AcDbEntity
  8
1
  6
DOT_CENTER
 62
     1
100
AcDbLine
 10
51.58032761343799
 20
572.215343287764
 30
0.0
 11
62.565637528588
 21
572.215343287764
 31
0.0
  0
LINE
  5
119
330
A
100
AcDbEntity
  8
1
  6
DOT_CENTER
 62
     1
100
AcDbLine
 10
49.276956179617
 20
581.2153432877639
 30
0.0
 11
60.675691736734
 21
581.2153432877639
 31
0.0
  0
LINE
  5
118
330
A
100
AcDbEntity
  8
1
  6
DOT_CENTER
 62
     1
100
AcDbLine
 10
39.768166414353
 20
577.2153432877639
 30
0.0
 11
53.056847763324
 21
577.2153432877639
 31
0.0
  0
LINE
  5
117
330
A
100
AcDbEntity
  8
1
  6
DOT_CENTER
 62
     1
100
AcDbLine
 10
265.869603865119
 20
566.2153432877639
 30
0.0
 11
279.037847859231
 21
566.2153432877639
 31
0.0
  0
LINE
  5
116
330
A
100
AcDbEntity
  8
1
  6
DOT_CENTER
 62
     1
100
AcDbLine
 10
266.062309874789
 20
572.215343287764
 30
0.0
 11
279.359024542014
 21
572.215343287764
 31
0.0
  0
LINE
  5
115
330
A
100
AcDbEntity
  8
1
  6
DOT_CENTER
 62
     1
100
AcDbLine
 10
277.367729108758
 20
577.2153432877639
 30
0.0
 11
290.150561083529
 21
577.2153432877639
 31
0.0
  0
LINE
  5
114
330
A
100
AcDbEntity
  8
1
  6
DOT_CENTER
 62
     1
100
AcDbLine
 10
283.0023626001
 20
583.632707924382
 30
0.0
 11
283.0023626001
 21
570.079051910931
 31
0.0
  0
LINE
  5
113
330
A
100
AcDbEntity
  8
1
  6
DOT_CENTER
 62
     1
100
AcDbLine
 10
267.668193288705
 20
581.2153432877639
 30
0.0
 11
280.643731273147
 21
581.2153432877639
 31
0.0
  0
LINE
  5
112
330
A
100
AcDbEntity
  8
1
  6
DOT_CENTER
 62
     1
100
AcDbLine
 10
275.0023626001
 20
588.129181483347
 30
0.0
 11
275.0023626001
 21
574.447054796782
 31
0.0
  0
LINE
  5
111
330
A
100
AcDbEntity
  8
0
  6
Continuous
 62
     3
100
AcDbLine
 10
267.7458514483
 20
578.805767426764
 30
0.0
 11
267.751364878
 21
578.813637102564
 31
0.0
  0
LINE
  5
110
330
A
100
AcDbEntity
  8
0
  6
Continuous
 62
     3
100
AcDbLine
 10
269.293448797
 20
579.3691896447639
 30
0.0
 11
269.2843069346
 21
579.366233161264
 31
0.0
  0
LINE
  5
10F
330
A
100
AcDbEntity
  8
0
  6
Continuous
 62
     3
100
AcDbLine
 10
149.7023635568
 20
570.078588983564
 30
0.0
 11
149.7023616941
 21
570.0653437138639
 31
0.0
  0
LINE
  5
10E
330
A
100
AcDbEntity
  8
0
  6
Continuous
 62
     3
100
AcDbLine
 10
149.7023635568
 20
570.115342697664
 30
0.0
 11
149.7023635568
 21
570.078588983564
 31
0.0
  0
LINE
  5
10D
330
A
100
AcDbEntity
  8
0
  6
Continuous
 62
     3
100
AcDbLine
 10
175.61229449
 20
575.572269930064
 30
0.0
 11
175.6919360743
 21
575.4585302980639
 31
0.0
  0
LINE
  5
10C
330
A
100
AcDbEntity
  8
0
  6
Continuous
 62
     3
100
AcDbLine
 10
175.5215417617
 20
575.701878367464
 30
0.0
 11
175.61229449
 21
575.572269930064
 31
0.0
  0
LINE
  5
10B
330
A
100
AcDbEntity
  8
0
  6
Continuous
 62
     3
100
AcDbLine
 10
175.4228248285
 20
575.842861047564
 30
0.0
 11
175.5215417617
 21
575.701878367464
 31
0.0
  0
LINE
  5
10A
330
A
100
AcDbEntity
  8
0
  6
Continuous
 62
     3
100
AcDbLine
 10
175.3195676975999
 20
575.9903275953639
 30
0.0
 11
175.4228248285
 21
575.842861047564
 31
0.0
  0
LINE
  5
109
330
A
100
AcDbEntity
  8
0
  6
Continuous
 62
     3
100
AcDbLine
 10
175.4228248285
 20
571.587826086764
 30
0.0
 11
175.3195676975999
 21
571.440358607664
 31
0.0
  0
LINE
  5
108
330
A
100
AcDbEntity
  8
0
  6
Continuous
 62
     3
100
AcDbLine
 10
175.5215417617
 20
571.728807835464
 30
0.0
 11
175.4228248285
 21
571.587826086764
 31
0.0
  0
LINE
  5
107
330
A
100
AcDbEntity
  8
0
  6
Continuous
 62
     3
100
AcDbLine
 10
175.61229449
 20
571.858416272864
 30
0.0
 11
175.5215417617
 21
571.728807835464
 31
0.0
  0
LINE
  5
106
330
A
100
AcDbEntity
  8
0
  6
Continuous
 62
     3
100
AcDbLine
 10
175.6919360743
 20
571.972155904964
 30
0.0
 11
175.61229449
 21
571.858416272864
 31
0.0
  0
LINE
  5
105
330
A
100
AcDbEntity
  8
0
  6
Continuous
 62
     3
100
AcDbLine
 10
175.9243550734
 20
575.126601344464
 30
0.0
 11
176.053777712
 21
574.941766409764
 31
0.0
  0
LINE
  5
104
330
A
100
AcDbEntity
  8
0
  6
Continuous
 62
     3
100
AcDbLine
 10
175.8033497283
 20
575.2994147674639
 30
0.0
 11
175.9243550734
 21
575.126601344464
 31
0.0
  0
LINE
  5
103
330
A
100
AcDbEntity
  8
0
  6
Continuous
 62
     3
100
AcDbLine
 10
175.6919360743
 20
575.4585302980639
 30
0.0
 11
175.8033497283
 21
575.2994147674639
 31
0.0
  0
LINE
  5
102
330
A
100
AcDbEntity
  8
0
  6
Continuous
 62
     3
100
AcDbLine
 10
175.8033497283
 20
572.1312714354639
 30
0.0
 11
175.6919360743
 21
571.972155904964
 31
0.0
  0
LINE
  5
101
330
A
100
AcDbEntity
  8
0
  6
Continuous
 62
     3
100
AcDbLine
 10
175.9243550734
 20
572.304084858464
 30
0.0
 11
175.8033497283
 21
572.1312714354639
 31
0.0
  0
LINE
  5
100
330
A
100
AcDbEntity
  8
0
  6
Continuous
 62
     3
100
AcDbLine
 10
176.053777712
 20
572.488919793264
 30
0.0
 11
175.9243550734
 21
572.304084858464
 31
0.0
  0
LINE
  5
FF
330
A
100
AcDbEntity
  8
0
  6
Continuous
 62
     3
100
AcDbLine
 10
80.9023593576
 20
577.3653434203639
 30
0.0
 11
80.9023593576
 21
577.3153435052639
 31
0.0
  0
LINE
  5
FE
330
A
100
AcDbEntity
  8
0
  6
Continuous
 62
     3
100
AcDbLine
 10
80.30236410209999
 20
577.3653434203639
 30
0.0
 11
80.30236410209999
 21
577.3153435052639
 31
0.0
  0
LINE
  5
FD
330
A
100
AcDbEntity
  8
0
  6
Continuous
 62
     3
100
AcDbLine
 10
160.0023628236
 20
577.3153435052639
 30
0.0
 11
160.0023628236
 21
577.3653434203639
 31
0.0
  0
LINE
  5
FC
330
A
100
AcDbEntity
  8
0
  6
Continuous
 62
     3
100
AcDbLine
 10
79.90236478159999
 20
577.3111469657639
 30
0.0
 11
79.90236478159999
 21
577.3653434203639
 31
0.0
  0
LINE
  5
FB
330
A
100
AcDbEntity
  8
0
  6
Continuous
 62
     3
100
AcDbLine
 10
80.6023617299
 20
569.765342360864
 30
0.0
 11
79.6023597033
 21
569.765342360864
 31
0.0
  0
LINE
  5
FA
330
A
100
AcDbEntity
  8
0
  6
Continuous
 62
     3
100
AcDbLine
 10
162.702362428
 20
572.115343025464
 30
0.0
 11
160.7023625658
 21
572.115343025464
 31
0.0
  0
LINE
  5
F9
330
A
100
AcDbEntity
  8
0
  6
Continuous
 62
     3
100
AcDbLine
 10
160.7023625658
 20
575.315343177464
 30
0.0
 11
162.702362428
 21
575.315343177464
 31
0.0
  0
LINE
  5
F8
330
A
100
AcDbEntity
  8
0
  6
Continuous
 62
     3
100
AcDbLine
 10
160.6523626508
 20
575.815343259464
 30
0.0
 11
160.7023625658
 21
575.815343259464
 31
0.0
  0
LINE
  5
F7
330
A
100
AcDbEntity
  8
0
  6
Continuous
 62
     3
100
AcDbLine
 10
80.6023617299
 20
577.3653434203639
 30
0.0
 11
80.6023617299
 21
577.3153435052639
 31
0.0
  0
LINE
  5
F6
330
A
100
AcDbEntity
  8
0
  6
Continuous
 62
     3
100
AcDbLine
 10
149.7023616941
 20
577.3653434203639
 30
0.0
 11
149.7023616941
 21
577.3153435052639
 31
0.0
  0
LINE
  5
F5
330
A
100
AcDbEntity
  8
0
  6
Continuous
 62
     3
100
AcDbLine
 10
87.6023610146
 20
577.3153435052639
 30
0.0
 11
87.6023610146
 21
577.3653434203639
 31
0.0
  0
LINE
  5
F4
330
A
100
AcDbEntity
  8
0
  6
Continuous
 62
     3
100
AcDbLine
 10
160.7023625658
 20
576.549509501564
 30
0.0
 11
160.6523626508
 21
576.549509501564
 31
0.0
  0
LINE
  5
F3
330
A
100
AcDbEntity
  8
0
  6
Continuous
 62
     3
100
AcDbLine
 10
159.7023624019
 20
577.3153435052639
 30
0.0
 11
159.7023624019
 21
577.3653434203639
 31
0.0
  0
LINE
  5
F2
330
A
100
AcDbEntity
  8
0
  6
Continuous
 62
     3
100
AcDbLine
 10
79.6023597033
 20
575.815343259464
 30
0.0
 11
79.6523605497
 21
575.815343259464
 31
0.0
  0
LINE
  5
F1
330
A
100
AcDbEntity
  8
0
  6
Continuous
 62
     3
100
AcDbLine
 10
162.702362428
 20
574.465343690064
 30
0.0
 11
162.702362428
 21
575.0153436870639
 31
0.0
  0
LINE
  5
F0
330
A
100
AcDbEntity
  8
0
  6
Continuous
 62
     3
100
AcDbLine
 10
162.702362428
 20
572.415343447164
 30
0.0
 11
162.702362428
 21
572.9653434441639
 31
0.0
  0
LINE
  5
EF
330
A
100
AcDbEntity
  8
0
  6
Continuous
 62
     3
100
AcDbLine
 10
160.7023625658
 20
572.9653434441639
 30
0.0
 11
160.7023625658
 21
572.415343447164
 31
0.0
  0
LINE
  5
EE
330
A
100
AcDbEntity
  8
0
  6
Continuous
 62
     3
100
AcDbLine
 10
160.7023625658
 20
575.0153436870639
 30
0.0
 11
160.7023625658
 21
574.465343690064
 31
0.0
  0
LINE
  5
ED
330
A
100
AcDbEntity
  8
0
  6
Continuous
 62
     3
100
AcDbLine
 10
151.7023620219
 20
570.0653437138639
 30
0.0
 11
151.7023620219
 21
570.115342697664
 31
0.0
  0
LINE
  5
EC
330
A
100
AcDbEntity
  8
0
  6
Continuous
 62
     3
100
AcDbLine
 10
160.6523626508
 20
570.881176701364
 30
0.0
 11
160.7023625658
 21
570.881176701364
 31
0.0
  0
LINE
  5
EB
330
A
100
AcDbEntity
  8
0
  6
Continuous
 62
     3
100
AcDbLine
 10
79.6523605497
 20
571.615342943564
 30
0.0
 11
79.6023597033
 21
571.615342943564
 31
0.0
  0
LINE
  5
EA
330
A
100
AcDbEntity
  8
0
  6
Continuous
 62
     3
100
AcDbLine
 10
160.7023625658
 20
571.615342943564
 30
0.0
 11
160.6523626508
 21
571.615342943564
 31
0.0
  0
LINE
  5
E9
330
A
100
AcDbEntity
  8
0
  6
Continuous
 62
     3
100
AcDbLine
 10
79.6023597033
 20
570.881176701364
 30
0.0
 11
79.6523605497
 21
570.881176701364
 31
0.0
  0
LINE
  5
E8
330
A
100
AcDbEntity
  8
0
  6
Continuous
 62
     3
100
AcDbLine
 10
55.30236559229999
 20
572.215342855564
 30
0.0
 11
55.30236559229999
 21
566.2153437347639
 31
0.0
  0
LINE
  5
E7
330
A
100
AcDbEntity
  8
0
  6
Continuous
 62
     3
100
AcDbLine
 10
59.3023662479
 20
566.2153437347639
 30
0.0
 11
59.3023662479
 21
572.215342855564
 31
0.0
  0
LINE
  5
E6
330
A
100
AcDbEntity
  8
0
  6
Continuous
 62
     3
100
AcDbLine
 10
270.7023610385
 20
566.2153437347639
 30
0.0
 11
270.7023610385
 21
572.215342855564
 31
0.0
  0
LINE
  5
E5
330
A
100
AcDbEntity
  8
0
  6
Continuous
 62
     3
100
AcDbLine
 10
274.7023616941
 20
572.215342855564
 30
0.0
 11
274.7023616941
 21
566.2153437347639
 31
0.0
  0
LINE
  5
E4
330
A
100
AcDbEntity
  8
0
  6
Continuous
 62
     3
100
AcDbLine
 10
152.7023621859
 20
570.165343544064
 30
0.0
 11
152.7023621859
 21
570.6653436259639
 31
0.0
  0
LINE
  5
E3
330
A
100
AcDbEntity
  8
0
  6
Continuous
 62
     3
100
AcDbLine
 10
159.7023624019
 20
570.165343544064
 30
0.0
 11
159.7023624019
 21
570.6653436259639
 31
0.0
  0
LINE
  5
E2
330
A
100
AcDbEntity
  8
0
  6
Continuous
 62
     3
100
AcDbLine
 10
152.7023621859
 20
570.6653436259639
 30
0.0
 11
159.7023624019
 21
570.6653436259639
 31
0.0
  0
LINE
  5
E1
330
A
100
AcDbEntity
  8
0
  6
Continuous
 62
     3
100
AcDbLine
 10
87.6023610146
 20
570.965343116364
 30
0.0
 11
87.6023610146
 21
562.7153440923639
 31
0.0
  0
LINE
  5
E0
330
A
100
AcDbEntity
  8
0
  6
Continuous
 62
     3
100
AcDbLine
 10
80.6023617299
 20
570.965343116364
 30
0.0
 11
87.6023610146
 21
570.965343116364
 31
0.0
  0
LINE
  5
DF
330
A
100
AcDbEntity
  8
0
  6
Continuous
 62
     3
100
AcDbLine
 10
80.6023617299
 20
570.965343116364
 30
0.0
 11
80.6023617299
 21
569.765342360864
 31
0.0
  0
LINE
  5
DE
330
A
100
AcDbEntity
  8
0
  6
Continuous
 62
     3
100
AcDbLine
 10
149.7023616941
 20
562.7153440923639
 30
0.0
 11
149.7023616941
 21
570.0653437138639
 31
0.0
  0
LINE
  5
DD
330
A
100
AcDbEntity
  8
0
  6
Continuous
 62
     3
100
AcDbLine
 10
152.7023621859
 20
570.0653437138639
 30
0.0
 11
149.7023616941
 21
570.0653437138639
 31
0.0
  0
LINE
  5
DC
330
A
100
AcDbEntity
  8
0
  6
Continuous
 62
     3
100
AcDbLine
 10
159.7023624019
 20
570.0653437138639
 30
0.0
 11
160.7023625658
 21
570.0653437138639
 31
0.0
  0
LINE
  5
DB
330
A
100
AcDbEntity
  8
0
  6
Continuous
 62
     3
100
AcDbLine
 10
79.6023597033
 20
570.0653437138639
 30
0.0
 11
80.6023617299
 21
570.0653437138639
 31
0.0
  0
LINE
  5
DA
330
A
100
AcDbEntity
  8
0
  6
Continuous
 62
     3
100
AcDbLine
 10
162.702362428
 20
575.0153436870639
 30
0.0
 11
162.702362428
 21
575.315343177464
 31
0.0
  0
LINE
  5
D9
330
A
100
AcDbEntity
  8
0
  6
Continuous
 62
     3
100
AcDbLine
 10
160.7023625658
 20
575.0153436870639
 30
0.0
 11
160.7023625658
 21
575.315343177464
 31
0.0
  0
LINE
  5
D8
330
A
100
AcDbEntity
  8
0
  6
Continuous
 62
     3
100
AcDbLine
 10
160.7023625658
 20
575.0153436870639
 30
0.0
 11
162.702362428
 21
575.0153436870639
 31
0.0
  0
LINE
  5
D7
330
A
100
AcDbEntity
  8
0
  6
Continuous
 62
     3
100
AcDbLine
 10
162.702362428
 20
572.415343447164
 30
0.0
 11
162.702362428
 21
572.115343025464
 31
0.0
  0
LINE
  5
D6
330
A
100
AcDbEntity
  8
0
  6
Continuous
 62
     3
100
AcDbLine
 10
160.7023625658
 20
572.115343025464
 30
0.0
 11
160.7023625658
 21
572.415343447164
 31
0.0
  0
LINE
  5
D5
330
A
100
AcDbEntity
  8
0
  6
Continuous
 62
     3
100
AcDbLine
 10
162.702362428
 20
572.415343447164
 30
0.0
 11
160.7023625658
 21
572.415343447164
 31
0.0
  0
LINE
  5
D4
330
A
100
AcDbEntity
  8
0
  6
Continuous
 62
     3
100
AcDbLine
 10
288.5023643286
 20
565.715342721464
 30
0.0
 11
279.202363363
 21
565.715342721464
 31
0.0
  0
LINE
  5
D3
330
A
100
AcDbEntity
  8
0
  6
Continuous
 62
     3
100
AcDbLine
 10
53.3023615391
 20
572.215342855564
 30
0.0
 11
53.3023615391
 21
566.2153437347639
 31
0.0
  0
LINE
  5
D2
330
A
100
AcDbEntity
  8
0
  6
Continuous
 62
     3
100
AcDbLine
 10
61.3023628504
 20
566.2153437347639
 30
0.0
 11
61.3023628504
 21
572.215342855564
 31
0.0
  0
LINE
  5
D1
330
A
100
AcDbEntity
  8
0
  6
Continuous
 62
     3
100
AcDbLine
 10
276.7023657472
 20
566.2153437347639
 30
0.0
 11
276.7023657472
 21
572.215342855564
 31
0.0
  0
LINE
  5
D0
330
A
100
AcDbEntity
  8
0
  6
Continuous
 62
     3
100
AcDbLine
 10
268.7023644359
 20
572.215342855564
 30
0.0
 11
268.7023644359
 21
566.2153437347639
 31
0.0
  0
LINE
  5
CF
330
A
100
AcDbEntity
  8
0
  6
Continuous
 62
     3
100
AcDbLine
 10
41.002369395
 20
566.2153437347639
 30
0.0
 11
41.002369395
 21
581.215343399464
 31
0.0
  0
LINE
  5
CE
330
A
100
AcDbEntity
  8
0
  6
Continuous
 62
     3
100
AcDbLine
 10
289.0023653419
 20
581.215343399464
 30
0.0
 11
289.0023653419
 21
566.2153437347639
 31
0.0
  0
LINE
  5
CD
330
A
100
AcDbEntity
  8
0
  6
Continuous
 62
     3
100
AcDbLine
 10
284.0023626597
 20
586.2153432877639
 30
0.0
 11
46.00236462669999
 21
586.2153432877639
 31
0.0
  0
LINE
  5
CC
330
A
100
AcDbEntity
  8
0
  6
Continuous
 62
     3
100
AcDbLine
 10
55.802359155
 20
560.715343764564
 30
0.0
 11
274.2023606808
 21
560.715343764564
 31
0.0
  0
LINE
  5
CB
330
A
100
AcDbEntity
  8
0
  6
Continuous
 62
     3
100
AcDbLine
 10
174.5658711554
 20
562.7153440923639
 30
0.0
 11
163.20236251
 21
562.7153440923639
 31
0.0
  0
LINE
  5
CA
330
A
100
AcDbEntity
  8
0
  6
Continuous
 62
     3
100
AcDbLine
 10
162.702362428
 20
563.215343243064
 30
0.0
 11
162.702362428
 21
568.3153438927639
 31
0.0
  0
LINE
  5
C9
330
A
100
AcDbEntity
  8
0
  6
Continuous
 62
     3
100
AcDbLine
 10
163.20236251
 20
568.815343043364
 30
0.0
 11
172.3035822181
 21
568.815343043364
 31
0.0
  0
LINE
  5
C8
330
A
100
AcDbEntity
  8
0
  6
Continuous
 62
     3
100
AcDbLine
 10
224.5279316814
 20
578.7153434553639
 30
0.0
 11
215.4767912836
 21
578.7153434553639
 31
0.0
  0
LINE
  5
C7
330
A
100
AcDbEntity
  8
0
  6
Continuous
 62
     3
100
AcDbLine
 10
215.1900035353
 20
579.624919182164
 30
0.0
 11
219.7155755968
 21
582.793757513664
 31
0.0
  0
LINE
  5
C6
330
A
100
AcDbEntity
  8
0
  6
Continuous
 62
     3
100
AcDbLine
 10
220.2891510935
 20
582.793757513664
 30
0.0
 11
224.8147194298
 21
579.624919182164
 31
0.0
  0
LINE
  5
C5
330
A
100
AcDbEntity
  8
0
  6
Continuous
 62
     3
100
AcDbLine
 10
162.702362428
 20
579.2153430716639
 30
0.0
 11
162.702362428
 21
583.715343343664
 31
0.0
  0
LINE
  5
C4
330
A
100
AcDbEntity
  8
0
  6
Continuous
 62
     3
100
AcDbLine
 10
163.20236251
 20
584.215343192764
 30
0.0
 11
179.8269002722
 21
584.215343192764
 31
0.0
  0
LINE
  5
C3
330
A
100
AcDbEntity
  8
0
  6
Continuous
 62
     3
100
AcDbLine
 10
180.1136880205
 20
584.1249192213639
 30
0.0
 11
186.5403548838
 21
579.624919182164
 31
0.0
  0
LINE
  5
C2
330
A
100
AcDbEntity
  8
0
  6
Continuous
 62
     3
100
AcDbLine
 10
186.2535652728
 20
578.7153434553639
 30
0.0
 11
163.20236251
 21
578.7153434553639
 31
0.0
  0
LINE
  5
C1
330
A
100
AcDbEntity
  8
0
  6
Continuous
 62
     3
100
AcDbLine
 10
63.0155046494
 20
575.815343259464
 30
0.0
 11
77.1023620875
 21
575.815343259464
 31
0.0
  0
LINE
  5
C0
330
A
100
AcDbEntity
  8
0
  6
Continuous
 62
     3
100
AcDbLine
 10
77.6023631008
 20
575.315343177464
 30
0.0
 11
77.6023631008
 21
572.115343025464
 31
0.0
  0
LINE
  5
BF
330
A
100
AcDbEntity
  8
0
  6
Continuous
 62
     3
100
AcDbLine
 10
77.1023620875
 20
571.615342943564
 30
0.0
 11
63.8015930565
 21
571.615342943564
 31
0.0
  0
LINE
  5
BE
330
A
100
AcDbEntity
  8
0
  6
Continuous
 62
     3
100
AcDbLine
 10
162.702362428
 20
569.9153430373639
 30
0.0
 11
162.702362428
 21
572.115343025464
 31
0.0
  0
LINE
  5
BD
330
A
100
AcDbEntity
  8
0
  6
Continuous
 62
     3
100
AcDbLine
 10
160.7023625658
 20
572.115343025464
 30
0.0
 11
160.7023625658
 21
562.7153440923639
 31
0.0
  0
LINE
  5
BC
330
A
100
AcDbEntity
  8
0
  6
Continuous
 62
     3
100
AcDbLine
 10
160.7023625658
 20
562.7153440923639
 30
0.0
 11
79.6023597033
 21
562.7153440923639
 31
0.0
  0
LINE
  5
BB
330
A
100
AcDbEntity
  8
0
  6
Continuous
 62
     3
100
AcDbLine
 10
79.6023597033
 20
562.7153440923639
 30
0.0
 11
79.6023597033
 21
577.3653434203639
 31
0.0
  0
LINE
  5
BA
330
A
100
AcDbEntity
  8
0
  6
Continuous
 62
     3
100
AcDbLine
 10
79.6023597033
 20
577.3653434203639
 30
0.0
 11
160.7023625658
 21
577.3653434203639
 31
0.0
  0
LINE
  5
B9
330
A
100
AcDbEntity
  8
0
  6
Continuous
 62
     3
100
AcDbLine
 10
160.7023625658
 20
577.3653434203639
 30
0.0
 11
160.7023625658
 21
575.315343177464
 31
0.0
  0
LINE
  5
B8
330
A
100
AcDbEntity
  8
0
  6
Continuous
 62
     3
100
AcDbLine
 10
162.702362428
 20
575.315343177464
 30
0.0
 11
162.702362428
 21
577.5153431655639
 31
0.0
  0
LINE
  5
B7
330
A
100
AcDbEntity
  8
0
  6
Continuous
 62
     3
100
AcDbLine
 10
162.702362428
 20
577.5153431655639
 30
0.0
 11
171.7023626226
 21
577.5153431655639
 31
0.0
  0
LINE
  5
B6
330
A
100
AcDbEntity
  8
0
  6
Continuous
 62
     3
100
AcDbLine
 10
171.7023626226
 20
577.5153431655639
 30
0.0
 11
175.7023626962
 21
576.615342831764
 31
0.0
  0
LINE
  5
B5
330
A
100
AcDbEntity
  8
0
  6
Continuous
 62
     3
100
AcDbLine
 10
175.7023626962
 20
576.615342831764
 30
0.0
 11
179.9023625465
 21
576.615342831764
 31
0.0
  0
LINE
  5
B4
330
A
100
AcDbEntity
  8
0
  6
Continuous
 62
     3
100
AcDbLine
 10
179.9023625465
 20
570.815343371164
 30
0.0
 11
175.7023626962
 21
570.815343371164
 31
0.0
  0
LINE
  5
B3
330
A
100
AcDbEntity
  8
0
  6
Continuous
 62
     3
100
AcDbLine
 10
175.7023626962
 20
570.815343371164
 30
0.0
 11
171.7023626226
 21
569.9153430373639
 31
0.0
  0
LINE
  5
B2
330
A
100
AcDbEntity
  8
0
  6
Continuous
 62
     3
100
AcDbLine
 10
171.7023626226
 20
569.9153430373639
 30
0.0
 11
162.702362428
 21
569.9153430373639
 31
0.0
  0
LINE
  5
B1
330
A
100
AcDbEntity
  8
0
  6
Continuous
 62
     3
100
AcDbLine
 10
227.8016720922
 20
565.215343570864
 30
0.0
 11
176.7023623945
 21
565.215343570864
 31
0.0
  0
LINE
  5
B0
330
A
100
AcDbEntity
  8
0
  6
Continuous
 62
     3
100
AcDbLine
 10
176.7023623945
 20
568.815343043364
 30
0.0
 11
229.0023629577
 21
568.815343043364
 31
0.0
  0
LINE
  5
AF
330
A
100
AcDbEntity
  8
0
  6
Continuous
 62
     3
100
AcDbLine
 10
229.0023629577
 20
568.815343043364
 30
0.0
 11
239.4689534815
 21
570.3105702610639
 31
0.0
  0
LINE
  5
AE
330
A
100
AcDbEntity
  8
0
  6
Continuous
 62
     3
100
AcDbLine
 10
240.0385429175
 20
566.7604170353639
 30
0.0
 11
230.6301024766
 21
565.416352784764
 31
0.0
  0
LINE
  5
AD
330
A
100
AcDbEntity
  8
0
  6
Continuous
 62
     3
100
AcDbLine
 10
253.4643699439
 20
579.624919182164
 30
0.0
 11
257.9899420054
 21
582.793757513664
 31
0.0
  0
LINE
  5
AC
330
A
100
AcDbEntity
  8
0
  6
Continuous
 62
     3
100
AcDbLine
 10
258.5635175021
 20
582.793757513664
 30
0.0
 11
263.0890895636
 21
579.624919182164
 31
0.0
  0
LINE
  5
AB
330
A
100
AcDbEntity
  8
0
  6
Continuous
 62
     3
100
AcDbLine
 10
262.8023018153
 20
578.7153434553639
 30
0.0
 11
253.7511576922
 21
578.7153434553639
 31
0.0
  0
LINE
  5
AA
330
A
100
AcDbEntity
  8
0
  6
Continuous
 62
     3
100
AcDbLine
 10
190.8247982176
 20
576.6249196217639
 30
0.0
 11
197.8227225156
 21
571.724919563664
 31
0.0
  0
LINE
  5
A9
330
A
100
AcDbEntity
  8
0
  6
Continuous
 62
     3
100
AcDbLine
 10
197.5359347673
 20
570.815343371164
 30
0.0
 11
184.7397171916
 21
570.815343371164
 31
0.0
  0
LINE
  5
A8
330
A
100
AcDbEntity
  8
0
  6
Continuous
 62
     3
100
AcDbLine
 10
184.6888017864
 20
576.7153435931639
 30
0.0
 11
190.5380104692
 21
576.7153435931639
 31
0.0
  0
LINE
  5
A7
330
A
100
AcDbEntity
  8
0
  6
Continuous
 62
     3
100
AcDbLine
 10
191.1971186311
 20
578.805767426764
 30
0.0
 11
184.7704517679
 21
583.305767233064
 31
0.0
  0
LINE
  5
A6
330
A
100
AcDbEntity
  8
0
  6
Continuous
 62
     3
100
AcDbLine
 10
185.0572404475
 20
584.215343192764
 30
0.0
 11
216.6731198342
 21
584.215343192764
 31
0.0
  0
LINE
  5
A5
330
A
100
AcDbEntity
  8
0
  6
Continuous
 62
     3
100
AcDbLine
 10
216.9599075825
 20
583.305767233064
 30
0.0
 11
210.5332416506
 21
578.805767426764
 31
0.0
  0
LINE
  5
A4
330
A
100
AcDbEntity
  8
0
  6
Continuous
 62
     3
100
AcDbLine
 10
210.2464539023
 20
578.7153434553639
 30
0.0
 11
191.4839063795
 21
578.7153434553639
 31
0.0
  0
LINE
  5
A3
330
A
100
AcDbEntity
  8
0
  6
Continuous
 62
     3
100
AcDbLine
 10
77.0279680402
 20
562.7153440923639
 30
0.0
 11
64.1023655446
 21
562.7153440923639
 31
0.0
  0
LINE
  5
A2
330
A
100
AcDbEntity
  8
0
  6
Continuous
 62
     3
100
AcDbLine
 10
63.6023645313
 20
563.215343243064
 30
0.0
 11
63.6023645313
 21
568.2153440625639
 31
0.0
  0
LINE
  5
A1
330
A
100
AcDbEntity
  8
0
  6
Continuous
 62
     3
100
AcDbLine
 10
64.1023655446
 20
568.7153432132639
 30
0.0
 11
77.0279680402
 21
568.7153432132639
 31
0.0
  0
LINE
  5
A0
330
A
100
AcDbEntity
  8
0
  6
Continuous
 62
     3
100
AcDbLine
 10
77.6023631008
 20
568.140951877964
 30
0.0
 11
77.6023631008
 21
563.289735427664
 31
0.0
  0
LINE
  5
9F
330
A
100
AcDbEntity
  8
0
  6
Continuous
 62
     3
100
AcDbLine
 10
61.3261302026
 20
584.215343192764
 30
0.0
 11
160.2023624839
 21
584.215343192764
 31
0.0
  0
LINE
  5
9E
330
A
100
AcDbEntity
  8
0
  6
Continuous
 62
     3
100
AcDbLine
 10
160.7023625658
 20
583.715343343664
 30
0.0
 11
160.7023625658
 21
579.2153430716639
 31
0.0
  0
LINE
  5
9D
330
A
100
AcDbEntity
  8
0
  6
Continuous
 62
     3
100
AcDbLine
 10
160.2023624839
 20
578.7153434553639
 30
0.0
 11
61.50159137560001
 21
578.7153434553639
 31
0.0
  0
LINE
  5
9C
330
A
100
AcDbEntity
  8
0
  6
Continuous
 62
     3
100
AcDbLine
 10
195.7683497132
 20
576.7153435931639
 30
0.0
 11
205.9620087059
 21
576.7153435931639
 31
0.0
  0
LINE
  5
9B
330
A
100
AcDbEntity
  8
0
  6
Continuous
 62
     3
100
AcDbLine
 10
206.2487964542
 20
575.8057674006639
 30
0.0
 11
201.1519678892
 21
572.2369290502639
 31
0.0
  0
LINE
  5
9A
330
A
100
AcDbEntity
  8
0
  6
Continuous
 62
     3
100
AcDbLine
 10
200.5783905299
 20
572.2369290502639
 30
0.0
 11
195.4815619649
 21
575.8057674006639
 31
0.0
  0
LINE
  5
99
330
A
100
AcDbEntity
  8
0
  6
Continuous
 62
     3
100
AcDbLine
 10
234.697303644
 20
571.6492114202639
 30
0.0
 11
228.8954024227
 21
570.820368787764
 31
0.0
  0
LINE
  5
98
330
A
100
AcDbEntity
  8
0
  6
Continuous
 62
     3
100
AcDbLine
 10
228.8246926875
 20
570.815343371164
 30
0.0
 11
204.1944217892
 21
570.815343371164
 31
0.0
  0
LINE
  5
97
330
A
100
AcDbEntity
  8
0
  6
Continuous
 62
     3
100
AcDbLine
 10
203.9076340409
 20
571.724919563664
 30
0.0
 11
210.9055620642
 21
576.6249196217639
 31
0.0
  0
LINE
  5
96
330
A
100
AcDbEntity
  8
0
  6
Continuous
 62
     3
100
AcDbLine
 10
211.1923498125
 20
576.7153435931639
 30
0.0
 11
228.8123768778
 21
576.7153435931639
 31
0.0
  0
LINE
  5
95
330
A
100
AcDbEntity
  8
0
  6
Continuous
 62
     3
100
AcDbLine
 10
229.0991646261
 20
576.6249196217639
 30
0.0
 11
234.9133779319
 21
572.553762196164
 31
0.0
  0
LINE
  5
94
330
A
100
AcDbEntity
  8
0
  6
Continuous
 62
     3
100
AcDbLine
 10
247.1456368478
 20
568.670200145364
 30
0.0
 11
266.5023644479
 21
568.670200145364
 31
0.0
  0
LINE
  5
93
330
A
100
AcDbEntity
  8
0
  6
Continuous
 62
     3
100
AcDbLine
 10
267.0023654611
 20
568.170199132164
 30
0.0
 11
267.0023654611
 21
563.215343243064
 31
0.0
  0
LINE
  5
92
330
A
100
AcDbEntity
  8
0
  6
Continuous
 62
     3
100
AcDbLine
 10
266.5023644479
 20
562.7153440923639
 30
0.0
 11
232.9007004411
 21
562.7153440923639
 31
0.0
  0
LINE
  5
91
330
A
100
AcDbEntity
  8
0
  6
Continuous
 62
     3
100
AcDbLine
 10
232.8299869807
 20
563.7103188396639
 30
0.0
 11
240.3213818581
 21
564.780516511364
 31
0.0
  0
LINE
  5
90
330
A
100
AcDbEntity
  8
0
  6
Continuous
 62
     3
100
AcDbLine
 10
241.4133016975
 20
578.7153434553639
 30
0.0
 11
229.7582727881
 21
578.7153434553639
 31
0.0
  0
LINE
  5
8F
330
A
100
AcDbEntity
  8
0
  6
Continuous
 62
     3
100
AcDbLine
 10
229.4714850397
 20
578.805767426764
 30
0.0
 11
223.0448191078
 21
583.305767233064
 31
0.0
  0
LINE
  5
8E
330
A
100
AcDbEntity
  8
0
  6
Continuous
 62
     3
100
AcDbLine
 10
223.3316068561
 20
584.215343192764
 30
0.0
 11
254.9474825175
 21
584.215343192764
 31
0.0
  0
LINE
  5
8D
330
A
100
AcDbEntity
  8
0
  6
Continuous
 62
     3
100
AcDbLine
 10
255.2342702658
 20
583.305767233064
 30
0.0
 11
250.2581168921
 21
579.8214268484639
 31
0.0
  0
LINE
  5
8C
330
A
100
AcDbEntity
  8
0
  6
Continuous
 62
     3
100
AcDbLine
 10
238.6768971594
 20
572.360070383664
 30
0.0
 11
233.7559302361
 21
575.8057674006639
 31
0.0
  0
LINE
  5
8B
330
A
100
AcDbEntity
  8
0
  6
Continuous
 62
     3
100
AcDbLine
 10
234.0427179845
 20
576.7153435931639
 30
0.0
 11
241.1961098225
 21
576.7153435931639
 31
0.0
  0
LINE
  5
8A
330
A
100
AcDbEntity
  8
0
  6
Continuous
 62
     3
100
AcDbLine
 10
267.7458514483
 20
578.805767426764
 30
0.0
 11
261.3191817911
 21
583.305767233064
 31
0.0
  0
LINE
  5
89
330
A
100
AcDbEntity
  8
0
  6
Continuous
 62
     3
100
AcDbLine
 10
261.60597699
 20
584.215343192764
 30
0.0
 11
269.0023620637
 21
584.215343192764
 31
0.0
  0
LINE
  5
88
330
A
100
AcDbEntity
  8
0
  6
Continuous
 62
     3
100
AcDbLine
 10
268.8177068742
 20
578.7153434553639
 30
0.0
 11
268.0326391967
 21
578.7153434553639
 31
0.0
  0
LINE
  5
87
330
A
100
AcDbEntity
  8
0
  6
Continuous
 62
     3
100
AcDbLine
 10
266.5023644479
 20
570.815343371164
 30
0.0
 11
248.8534738333
 21
570.815343371164
 31
0.0
  0
LINE
  5
86
330
A
100
AcDbEntity
  8
0
  6
Continuous
 62
     3
100
AcDbLine
 10
249.8228763254
 20
576.7153435931639
 30
0.0
 11
266.5023644479
 21
576.7153435931639
 31
0.0
  0
LINE
  5
85
330
A
100
AcDbEntity
  8
0
  6
Continuous
 62
     3
100
AcDbLine
 10
267.0023654611
 20
576.2153435112639
 30
0.0
 11
267.0023654611
 21
571.315343453164
 31
0.0
  0
LINE
  5
84
330
A
100
AcDbEntity
  8
0
  6
Continuous
 62
     3
100
AcDbLine
 10
41.5023629577
 20
565.715342721464
 30
0.0
 11
50.8023639233
 21
565.715342721464
 31
0.0
  0
LINE
  5
83
330
A
100
AcDbEntity
  8
0
  6
Continuous
 62
     3
100
AcDbLine
 10
199.5936379792
 20
568.2641472281639
 30
0.0
 11
199.0871028067
 21
568.815343043364
 31
0.0
  0
LINE
  5
82
330
A
100
AcDbEntity
  8
0
  6
Continuous
 62
     3
100
AcDbLine
 10
179.6023630561
 20
565.215343570864
 30
0.0
 11
179.6023630561
 21
568.815343043364
 31
0.0
  0
LINE
  5
81
330
A
100
AcDbEntity
  8
0
  6
Continuous
 62
     3
100
AcDbLine
 10
176.9431418763
 20
572.715342937564
 30
0.0
 11
176.5523626493
 21
572.715342937564
 31
0.0
  0
LINE
  5
80
330
A
100
AcDbEntity
  8
0
  6
Continuous
 62
     3
100
AcDbLine
 10
176.2523626932
 20
572.415343447164
 30
0.0
 11
176.2523626932
 21
570.865343286264
 31
0.0
  0
LINE
  5
7F
330
A
100
AcDbEntity
  8
0
  6
Continuous
 62
     3
100
AcDbLine
 10
176.2523626932
 20
570.865343286264
 30
0.0
 11
176.251111927
 21
570.815343371164
 31
0.0
  0
LINE
  5
7E
330
A
100
AcDbEntity
  8
0
  6
Continuous
 62
     3
100
AcDbLine
 10
199.9187869044
 20
566.7132511348639
 30
0.0
 11
199.4059150131
 21
565.215343570864
 31
0.0
  0
LINE
  5
7D
330
A
100
AcDbEntity
  8
0
  6
Continuous
 62
     3
100
AcDbLine
 10
177.7523624734
 20
576.3841447965639
 30
0.0
 11
177.7523624734
 21
576.615342831764
 31
0.0
  0
LINE
  5
7C
330
A
100
AcDbEntity
  8
0
  6
Continuous
 62
     3
100
AcDbLine
 10
181.4539748268
 20
571.2653435380639
 30
0.0
 11
181.3308232488
 21
571.2653435380639
 31
0.0
  0
LINE
  5
7B
330
A
100
AcDbEntity
  8
0
  6
Continuous
 62
     3
100
AcDbLine
 10
164.7023627558
 20
575.3653430925639
 30
0.0
 11
164.7023627558
 21
572.065343110364
 31
0.0
  0
LINE
  5
7A
330
A
100
AcDbEntity
  8
0
  6
Continuous
 62
     3
100
AcDbLine
 10
79.6523605497
 20
577.0153430835639
 30
0.0
 11
79.6523605497
 21
570.4153440506639
 31
0.0
  0
LINE
  5
79
330
A
100
AcDbEntity
  8
0
  6
Continuous
 62
     3
100
AcDbLine
 10
160.6523626508
 20
577.3153435052639
 30
0.0
 11
160.6523626508
 21
570.115342697664
 31
0.0
  0
LINE
  5
78
330
A
100
AcDbEntity
  8
0
  6
Continuous
 62
     3
100
AcDbLine
 10
165.7023624541
 20
575.286457276464
 30
0.0
 11
165.7023624541
 21
576.915343253464
 31
0.0
  0
LINE
  5
77
330
A
100
AcDbEntity
  8
0
  6
Continuous
 62
     3
100
AcDbLine
 10
166.0023624101
 20
577.215343675164
 30
0.0
 11
170.6497591478
 21
577.215343675164
 31
0.0
  0
LINE
  5
76
330
A
100
AcDbEntity
  8
0
  6
Continuous
 62
     3
100
AcDbLine
 10
165.7023624541
 20
570.515343880764
 30
0.0
 11
165.7023624541
 21
572.144228926464
 31
0.0
  0
LINE
  5
75
330
A
100
AcDbEntity
  8
0
  6
Continuous
 62
     3
100
AcDbLine
 10
170.6497591478
 20
570.2153425277639
 30
0.0
 11
166.0023624101
 21
570.2153425277639
 31
0.0
  0
LINE
  5
74
330
A
100
AcDbEntity
  8
0
  6
Continuous
 62
     3
100
AcDbLine
 10
170.8528291458
 20
577.194507195164
 30
0.0
 11
174.7034852417
 21
576.3959157825639
 31
0.0
  0
LINE
  5
73
330
A
100
AcDbEntity
  8
0
  6
Continuous
 62
     3
100
AcDbLine
 10
174.7034852417
 20
571.0347713516639
 30
0.0
 11
170.8528291458
 21
570.236179939064
 31
0.0
  0
LINE
  5
72
330
A
100
AcDbEntity
  8
0
  6
Continuous
 62
     3
100
AcDbLine
 10
175.2769866982
 20
576.046780644464
 30
0.0
 11
175.3195676975999
 21
575.9903275953639
 31
0.0
  0
LINE
  5
71
330
A
100
AcDbEntity
  8
0
  6
Continuous
 62
     3
100
AcDbLine
 10
175.3195676975999
 20
571.440358607664
 30
0.0
 11
175.2769866982
 21
571.383905558464
 31
0.0
  0
LINE
  5
70
330
A
100
AcDbEntity
  8
0
  6
Continuous
 62
     3
100
AcDbLine
 10
177.266372277
 20
572.6578253866639
 30
0.0
 11
177.2224711278
 21
572.744755035764
 31
0.0
  0
LINE
  5
6F
330
A
100
AcDbEntity
  8
0
  6
Continuous
 62
     3
100
AcDbLine
 10
177.2224711278
 20
574.685931167164
 30
0.0
 11
177.266372277
 21
574.772860816264
 31
0.0
  0
LINE
  5
6E
330
A
100
AcDbEntity
  8
0
  6
Continuous
 62
     3
100
AcDbLine
 10
176.8729294674
 20
574.515343605164
 30
0.0
 11
176.9518190087
 21
574.515343605164
 31
0.0
  0
LINE
  5
6D
330
A
100
AcDbEntity
  8
0
  6
Continuous
 62
     3
100
AcDbLine
 10
176.9518190087
 20
572.9153435291639
 30
0.0
 11
176.8729294674
 21
572.9153435291639
 31
0.0
  0
LINE
  5
6C
330
A
100
AcDbEntity
  8
0
  6
Continuous
 62
     3
100
AcDbLine
 10
165.7023624541
 20
572.144228926464
 30
0.0
 11
165.7023624541
 21
575.286457276464
 31
0.0
  0
LINE
  5
6B
330
A
100
AcDbEntity
  8
0
  6
Continuous
 62
     3
100
AcDbLine
 10
160.6523626508
 20
572.9653434441639
 30
0.0
 11
164.7023627558
 21
572.9653434441639
 31
0.0
  0
LINE
  5
6A
330
A
100
AcDbEntity
  8
0
  6
Continuous
 62
     3
100
AcDbLine
 10
164.7023627558
 20
574.465343690064
 30
0.0
 11
160.6523626508
 21
574.465343690064
 31
0.0
  0
LINE
  5
69
330
A
100
AcDbEntity
  8
0
  6
Continuous
 62
     3
100
AcDbLine
 10
164.7523626709
 20
572.015343195364
 30
0.0
 11
165.7023624541
 21
572.015343195364
 31
0.0
  0
LINE
  5
68
330
A
100
AcDbEntity
  8
0
  6
Continuous
 62
     3
100
AcDbLine
 10
165.7023624541
 20
575.415343007564
 30
0.0
 11
164.7523626709
 21
575.415343007564
 31
0.0
  0
LINE
  5
67
330
A
100
AcDbEntity
  8
0
  6
Continuous
 62
     3
100
AcDbLine
 10
159.7023624019
 20
570.115342697664
 30
0.0
 11
160.6523626508
 21
570.115342697664
 31
0.0
  0
LINE
  5
66
330
A
100
AcDbEntity
  8
0
  6
Continuous
 62
     3
100
AcDbLine
 10
87.6023610146
 20
570.115342697664
 30
0.0
 11
152.7023621859
 21
570.115342697664
 31
0.0
  0
LINE
  5
65
330
A
100
AcDbEntity
  8
0
  6
Continuous
 62
     3
100
AcDbLine
 10
79.95236562799999
 20
570.115342697664
 30
0.0
 11
80.6023617299
 21
570.115342697664
 31
0.0
  0
LINE
  5
64
330
A
100
AcDbEntity
  8
0
  6
Continuous
 62
     3
100
AcDbLine
 10
160.6523626508
 20
577.3153435052639
 30
0.0
 11
79.95236562799999
 21
577.3153435052639
 31
0.0
  0
LINE
  5
63
330
A
100
AcDbEntity
  8
0
  6
Continuous
 62
     3
100
AcDbLine
 10
175.4006607482
 20
557.8132550777639
 30
0.0
 11
175.4006607482
 21
553.6660104603639
 31
0.0
  0
LINE
  5
62
330
A
100
AcDbEntity
  8
0
  6
Continuous
 62
     3
100
AcDbLine
 10
175.4001066113
 20
553.666196724964
 30
0.0
 11
174.4614629099
 21
552.3976944000639
 31
0.0
  0
LINE
  5
61
330
A
100
AcDbEntity
  8
0
  6
Continuous
 62
     3
100
AcDbLine
 10
169.3023626251
 20
553.6669306070639
 30
0.0
 11
173.4067922482
 21
550.6298094601639
 31
0.0
  0
LINE
  5
60
330
A
100
AcDbEntity
  8
0
  6
Continuous
 62
     3
100
AcDbLine
 10
179.6023630562
 20
556.765343955264
 30
0.0
 11
179.6023630562
 21
560.465343257964
 31
0.0
  0
LINE
  5
5F
330
A
100
AcDbEntity
  8
0
  6
Continuous
 62
     3
100
AcDbLine
 10
169.3023626251
 20
560.715343764564
 30
0.0
 11
169.3023626251
 21
553.6669306070639
 31
0.0
  0
LINE
  5
5E
330
A
100
AcDbEntity
  8
0
  6
Continuous
 62
     3
100
AcDbLine
 10
170.80236258
 20
555.0449937195639
 30
0.0
 11
174.5964380937
 21
552.237525543664
 31
0.0
  0
LINE
  5
5D
330
A
100
AcDbEntity
  8
0
  6
Continuous
 62
     3
100
AcDbLine
 10
170.80236258
 20
555.0449937195639
 30
0.0
 11
170.80236258
 21
560.715343764564
 31
0.0
  0
LINE
  5
5C
330
A
100
AcDbEntity
  8
0
  6
Continuous
 62
     3
100
AcDbLine
 10
178.1023628103
 20
560.715343764564
 30
0.0
 11
178.1023628103
 21
557.765344119264
 31
0.0
  0
LINE
  5
5B
330
A
100
AcDbEntity
  8
0
  6
Continuous
 62
     3
100
AcDbLine
 10
191.6023631605
 20
560.715343764564
 30
0.0
 11
191.6023631605
 21
548.265341630764
 31
0.0
  0
LINE
  5
5A
330
A
100
AcDbEntity
  8
0
  6
Continuous
 62
     3
100
AcDbLine
 10
193.5017359467
 20
548.265341630764
 30
0.0
 11
191.6023631605
 21
548.265341630764
 31
0.0
  0
LINE
  5
59
330
A
100
AcDbEntity
  8
0
  6
Continuous
 62
     3
100
AcDbLine
 10
176.6023625644
 20
557.765344119264
 30
0.0
 11
175.5055882061
 21
557.765344119264
 31
0.0
  0
LINE
  5
58
330
A
100
AcDbEntity
  8
0
  6
Continuous
 62
     3
100
AcDbLine
 10
176.3870915422
 20
548.424504658764
 30
0.0
 11
174.2166782754
 21
550.030525735164
 31
0.0
  0
LINE
  5
57
330
A
100
AcDbEntity
  8
0
  6
Continuous
 62
     3
100
AcDbLine
 10
179.6023630562
 20
556.765343955264
 30
0.0
 11
179.6023630562
 21
552.4302199096639
 31
0.0
  0
LINE
  5
56
330
A
100
AcDbEntity
  8
0
  6
Continuous
 62
     3
100
AcDbLine
 10
179.6023630562
 20
556.765343955264
 30
0.0
 11
178.6023628922
 21
557.765344119264
 31
0.0
  0
LINE
  5
55
330
A
100
AcDbEntity
  8
0
  6
Continuous
 62
     3
100
AcDbLine
 10
178.6023628922
 20
557.765344119264
 30
0.0
 11
176.6023625644
 21
557.765344119264
 31
0.0
  0
LINE
  5
54
330
A
100
AcDbEntity
  8
0
  6
Continuous
 62
     3
100
AcDbLine
 10
176.6023625644
 20
557.765344119264
 30
0.0
 11
176.6023625644
 21
553.254593125164
 31
0.0
  0
LINE
  5
53
330
A
100
AcDbEntity
  8
0
  6
Continuous
 62
     3
100
AcDbLine
 10
179.5042910638
 20
552.1328076334639
 30
0.0
 11
176.8066956686
 21
548.487216195564
 31
0.0
  0
LINE
  5
52
330
A
100
AcDbEntity
  8
0
  6
Continuous
 62
     3
100
AcDbLine
 10
174.2166782754
 20
550.030525735164
 30
0.0
 11
173.4067922482
 21
550.6298094601639
 31
0.0
  0
LINE
  5
51
330
A
100
AcDbEntity
  8
0
  6
Continuous
 62
     3
100
AcDbLine
 10
173.4067922482
 20
550.6298094601639
 30
0.0
 11
174.5964380937
 21
552.237525543664
 31
0.0
  0
LINE
  5
50
330
A
100
AcDbEntity
  8
0
  6
Continuous
 62
     3
100
AcDbLine
 10
174.2166782754
 20
550.030525735164
 30
0.0
 11
176.6023625644
 21
553.254593125164
 31
0.0
  0
LINE
  5
4F
330
A
100
AcDbEntity
  8
0
  6
Continuous
 62
     3
100
AcDbLine
 10
175.4006607482
 20
553.6660104603639
 30
0.0
 11
176.6023625644
 21
553.254593125164
 31
0.0
  0
LINE
  5
4E
330
A
100
AcDbEntity
  8
0
  6
Continuous
 62
     3
100
AcDbLine
 10
195.2797108354
 20
549.3615083010639
 30
0.0
 11
197.8492372694
 21
560.715343764564
 31
0.0
  0
LINE
  5
4D
330
A
100
AcDbEntity
  8
0
  6
Continuous
 62
     6
100
AcDbLine
 10
191.105717843615
 20
459.8247188446539
 30
0.0
 11
190.0488419445
 21
457.703071257654
 31
0.0
  0
LINE
  5
4C
330
A
100
AcDbEntity
  8
0
  6
Continuous
 62
     3
100
AcDbLine
 10
179.602369851
 20
463.424718782854
 30
0.0
 11
179.602369851
 21
458.624718787654
 31
0.0
  0
LINE
  5
4B
330
A
100
AcDbEntity
  8
0
  6
Continuous
 62
     6
100
AcDbLine
 10
191.7334815474
 20
461.084936123854
 30
0.0
 11
191.6813870878
 21
460.9803580865539
 31
0.0
  0
LINE
  5
4A
330
A
100
AcDbEntity
  8
0
  6
Continuous
 62
     6
100
AcDbLine
 10
170.5023694188
 20
457.124719007454
 30
0.0
 11
181.3023697571
 21
457.124719007454
 31
0.0
  0
LINE
  5
49
330
A
100
AcDbEntity
  8
0
  6
Continuous
 62
     6
100
AcDbLine
 10
224.0023707957
 20
454.1247189813539
 30
0.0
 11
170.0023693955
 21
454.1247189813539
 31
0.0
  0
LINE
  5
48
330
A
100
AcDbEntity
  8
1
  6
DOT_CENTER
 62
     1
100
AcDbLine
 10
164.674567539493
 20
548.215343764564
 30
0.0
 11
229.853742619219
 21
548.215343764564
 31
0.0
  0
LINE
  5
47
330
A
100
AcDbEntity
  8
1
  6
DOT_CENTER
 62
     1
100
AcDbLine
 10
217.0023693955
 20
562.7476478612861
 30
0.0
 11
217.0023693955
 21
533.2160645141719
 31
0.0
  0
LINE
  5
46
330
A
100
AcDbEntity
  8
1
  6
DOT_CENTER
 62
     1
100
AcDbLine
 10
177.0023693955
 20
562.572904764557
 30
0.0
 11
177.0023693955
 21
534.089779997814
 31
0.0
  0
LINE
  5
45
330
A
100
AcDbEntity
  8
1
  6
DOT_CENTER
 62
     1
100
AcDbLine
 10
217.0023693955
 20
446.960566540089
 30
0.0
 11
217.0023693955
 21
471.424600082077
 31
0.0
  0
LINE
  5
44
330
A
100
AcDbEntity
  8
1
  6
DOT_CENTER
 62
     1
100
AcDbLine
 10
177.0023693955
 20
471.0751138886199
 30
0.0
 11
177.0023693955
 21
445.562621766261
 31
0.0
  0
LINE
  5
43
330
A
100
AcDbEntity
  8
FORMAT
  6
PHANTOM
 62
     1
100
AcDbLine
 10
387.866130642287
 20
597.934924874664
 30
0.0
 11
387.866130642287
 21
585.9153437644409
 31
0.0
  0
LINE
  5
42
330
A
100
AcDbEntity
  8
1
  6
Continuous
 62
     3
100
AcDbLine
 10
398.866130642287
 20
585.9153437644409
 30
0.0
 11
398.866130642287
 21
561.0153437645099
 31
0.0
  0
LINE
  5
41
330
A
100
AcDbEntity
  8
1
  6
Continuous
 62
     3
100
AcDbLine
 10
387.866130642287
 20
585.9153437644409
 30
0.0
 11
387.866130642287
 21
561.015343764564
 31
0.0
  0
LINE
  5
40
330
A
100
AcDbEntity
  8
FORMAT
  6
PHANTOM
 62
     1
100
AcDbLine
 10
387.866130642287
 20
585.9153437644409
 30
0.0
 11
387.866130642287
 21
561.015343764564
 31
0.0
  0
LINE
  5
3F
330
A
100
AcDbEntity
  8
FORMAT
  6
PHANTOM
 62
     1
100
AcDbLine
 10
387.866130642287
 20
561.015343764564
 30
0.0
 11
387.866130642287
 21
494.7180261405639
 31
0.0
  0
LINE
  5
3E
330
A
100
AcDbEntity
  8
1
  6
DOT_CENTER
 62
     1
100
AcDbLine
 10
384.271034704015
 20
548.215343764564
 30
0.0
 11
407.2284175669629
 21
548.215343764564
 31
0.0
  0
POINT
  5
3D
330
A
100
AcDbEntity
  8
0
 62
     6
100
AcDbPoint
 10
398.366130642287
 20
539.2153437645639
 30
0.0
  0
POINT
  5
3C
330
A
100
AcDbEntity
  8
0
 62
     6
100
AcDbPoint
 10
398.366130642287
 20
557.2153437645639
 30
0.0
  0
POINT
  5
3B
330
A
100
AcDbEntity
  8
0
 62
     3
100
AcDbPoint
 10
388.366130642287
 20
560.715343764564
 30
0.0
  0
POINT
  5
3A
330
A
100
AcDbEntity
  8
0
 62
     6
100
AcDbPoint
 10
392.476032593687
 20
557.2153437645639
 30
0.0
  0
POINT
  5
39
330
A
100
AcDbEntity
  8
0
 62
     3
100
AcDbPoint
 10
388.366130642287
 20
586.2153437645639
 30
0.0
  0
POINT
  5
38
330
A
100
AcDbEntity
  8
0
 62
     3
100
AcDbPoint
 10
388.366130642287
 20
560.715343764564
 30
0.0
  0
POINT
  5
37
330
A
100
AcDbEntity
  8
0
 62
     1
100
AcDbPoint
 10
400.866130642287
 20
519.2153437645639
 30
0.0
  0
POINT
  5
36
330
A
100
AcDbEntity
  8
0
 62
     6
100
AcDbPoint
 10
398.366130642287
 20
539.2153437645639
 30
0.0
  0
POINT
  5
35
330
A
100
AcDbEntity
  8
0
 62
     7
100
AcDbPoint
 10
400.866130642287
 20
597.934924874664
 30
0.0
  0
POINT
  5
34
330
A
100
AcDbEntity
  8
0
 62
     7
100
AcDbPoint
 10
387.866130642287
 20
597.934924874664
 30
0.0
  0
POINT
  5
33
330
A
100
AcDbEntity
  8
0
 62
     6
100
AcDbPoint
 10
224.0023693955
 20
544.2153437645639
 30
0.0
  0
POINT
  5
32
330
A
100
AcDbEntity
  8
0
 62
     6
100
AcDbPoint
 10
221.0023693955
 20
545.2153437645639
 30
0.0
  0
POINT
  5
31
330
A
100
AcDbEntity
  8
0
 62
     6
100
AcDbPoint
 10
221.0023693955
 20
551.2153437645639
 30
0.0
  0
POINT
  5
30
330
A
100
AcDbEntity
  8
0
 62
     6
100
AcDbPoint
 10
170.0023693955
 20
544.2153437645639
 30
0.0
  0
POINT
  5
2F
330
A
100
AcDbEntity
  8
0
 62
     6
100
AcDbPoint
 10
224.0023693955
 20
544.2153437645639
 30
0.0
  0
POINT
  5
2E
330
A
100
AcDbEntity
  8
0
 62
     1
100
AcDbPoint
 10
329.002369395
 20
504.2153437645639
 30
0.0
  0
POINT
  5
2D
330
A
100
AcDbEntity
  8
0
 62
     3
100
AcDbPoint
 10
289.0023626001
 20
581.2153432877639
 30
0.0
  0
POINT
  5
2C
330
A
100
AcDbEntity
  8
0
 62
     3
100
AcDbPoint
 10
41.00236260009999
 20
581.2153432877639
 30
0.0
  0
POINT
  5
2B
330
A
100
AcDbEntity
  8
0
 62
     3
100
AcDbPoint
 10
289.0023626001
 20
566.2153432877639
 30
0.0
  0
POINT
  5
2A
330
A
100
AcDbEntity
  8
0
 62
     3
100
AcDbPoint
 10
274.7023626001
 20
569.2153432877639
 30
0.0
  0
POINT
  5
29
330
A
100
AcDbEntity
  8
0
 62
     3
100
AcDbPoint
 10
289.0023626001
 20
566.2153432877639
 30
0.0
  0
ENDSEC
  0
SECTION
  2
OBJECTS
  0
DICTIONARY
  5
19
330
0
100
AcDbDictionary
281
     1
  3
ACAD_COLOR
350
2CE
  3
ACAD_GROUP
350
1A
  3
ACAD_LAYOUT
350
2D1
  3
ACAD_MATERIAL
350
2CD
  3
ACAD_MLINESTYLE
350
1B
  3
ACAD_PLOTSETTINGS
350
2D2
  3
ACAD_PLOTSTYLENAME
350
2CB
  3
ACAD_TABLESTYLE
350
2CF
  3
ACDBHEADERROUNDTRIPXREC
350
406
  3
AcDbVariableDictionary
350
3FF
  3
AcmDictionary
350
398
  3
AMG
350
2D7
  3
AMGSNAPSETTINGS
350
3EE
  3
ASE_INDEX_DICTIONARY
350
3F6
  3
DWGPROPS
350
405
  3
MAPISURF_MODULE
350
364
  0
DICTIONARY
  5
3F9
330
A
100
AcDbDictionary
280
     1
281
     1
  3
ACAD_INDEX
360
3FA
  0
DICTIONARY
  5
2CE
102
{ACAD_REACTORS
330
19
102
}
330
19
100
AcDbDictionary
281
     1
  0
DICTIONARY
  5
1A
102
{ACAD_REACTORS
330
19
102
}
330
19
100
AcDbDictionary
281
     1
  0
DICTIONARY
  5
2D1
102
{ACAD_REACTORS
330
19
102
}
330
19
100
AcDbDictionary
281
     1
  3
Model
350
2D3
  3
レイアウト1
350
2D4
  0
DICTIONARY
  5
2CD
102
{ACAD_REACTORS
330
19
102
}
330
19
100
AcDbDictionary
281
     1
  0
DICTIONARY
  5
1B
102
{ACAD_REACTORS
330
19
102
}
330
19
100
AcDbDictionary
281
     1
  3
STANDARD
350
1C
  0
DICTIONARY
  5
2D2
102
{ACAD_REACTORS
330
19
102
}
330
19
100
AcDbDictionary
281
     1
  0
ACDBDICTIONARYWDFLT
  5
2CB
102
{ACAD_REACTORS
330
19
102
}
330
19
100
AcDbDictionary
281
     1
  3
Normal
350
2CC
100
AcDbDictionaryWithDefault
340
2CC
  0
DICTIONARY
  5
2CF
102
{ACAD_REACTORS
330
19
102
}
330
19
100
AcDbDictionary
281
     1
  3
Standard
350
2D0
  0
DICTIONARY
  5
406
102
{ACAD_REACTORS
330
19
102
}
330
19
100
AcDbDictionary
281
     1
  0
DICTIONARY
  5
3FF
102
{ACAD_REACTORS
330
19
102
}
330
19
100
AcDbDictionary
281
     1
  3
CTABLESTYLE
350
400
  3
DIMASSOC
350
402
  3
INDEXCTL
350
401
  3
PROJECTNAME
350
403
  0
DICTIONARY
  5
398
102
{ACAD_REACTORS
330
19
102
}
330
19
100
AcDbDictionary
281
     1
  3
AcmStdDictionary
350
3A4
  3
AMDTSECTSYM_ARROWCOLOR
350
3C3
  0
DICTIONARY
  5
2D7
102
{ACAD_REACTORS
330
19
102
}
330
19
100
AcDbDictionary
281
     1
  3
AcMgSettings
350
2D8
  0
DICTIONARY
  5
3EE
102
{ACAD_REACTORS
330
19
102
}
330
19
100
AcDbDictionary
281
     1
  3
DIMENSION
350
3F3
  3
FEA
350
3F2
  3
HATCH (1)
350
3EF
  3
HATCH (2)
350
3F0
  3
SIMPLE WELD
350
3F4
  3
SYMBOLS
350
3F1
  0
DICTIONARY
  5
3F6
102
{ACAD_REACTORS
330
19
102
}
330
19
100
AcDbDictionary
281
     1
  3
ASEBlockHierarchyIndexRecord
350
3F8
1001
DCO15
1040
1934882688.388
  0
XRECORD
  5
405
102
{ACAD_REACTORS
330
19
102
}
330
19
100
AcDbXrecord
280
     1
  1
DWGPROPS COOKIE
  2

  3

  4

  6

  7

  8

  9

300
AmdtFileType=84
301
=
302
=
303
=
304
=
305
=
306
=
307
=
308
=
309
=
 40
0.0003027430555556
 41
2305814.417176053
 42
2458197.687411899
  1

 90
        1
  0
DICTIONARY
  5
3FA
102
{ACAD_REACTORS
330
3F9
102
}
330
3F9
100
AcDbDictionary
281
     1
  3
*A1
350
3FB
  0
LAYOUT
  5
2D3
102
{ACAD_XDICTIONARY
360
407
102
}
102
{ACAD_REACTORS
330
2D1
102
}
330
2D1
100
AcDbPlotSettings
  1

  2
Adobe PDF#:3
  4

  6

 40
0.0
 41
0.0
 42
0.0
 43
0.0
 44
0.0
 45
0.0
 46
0.0
 47
0.0
 48
0.0
 49
0.0
140
0.0
141
0.0
142
1.0
143
1.0
 70
  1712
 72
     0
 73
     0
 74
     0
  7

 75
     0
147
1.0
148
0.0
149
0.0
100
AcDbLayout
  1
Model
 70
     1
 71
     0
 10
0.0
 20
0.0
 11
12.0
 21
9.0
 12
0.0
 22
0.0
 32
0.0
 14
0.0
 24
0.0
 34
0.0
 15
0.0
 25
0.0
 35
0.0
146
0.0
 13
0.0
 23
0.0
 33
0.0
 16
1.0
 26
0.0
 36
0.0
 17
0.0
 27
1.0
 37
0.0
 76
     0
330
A
  0
LAYOUT
  5
2D4
102
{ACAD_XDICTIONARY
360
409
102
}
102
{ACAD_REACTORS
330
2D1
102
}
330
2D1
100
AcDbPlotSettings
  1

  2
Adobe PDF#:3
  4

  6

 40
0.0
 41
0.0
 42
0.0
 43
0.0
 44
0.0
 45
0.0
 46
0.0
 47
0.0
 48
0.0
 49
0.0
140
0.0
141
0.0
142
1.0
143
1.0
 70
   688
 72
     0
 73
     0
 74
     5
  7

 75
    16
147
1.0
148
0.0
149
0.0
100
AcDbLayout
  1
レイアウト1
 70
     0
 71
     1
 10
0.0
 20
0.0
 11
12.0
 21
9.0
 12
0.0
 22
0.0
 32
0.0
 14
1.000000000000000E+20
 24
1.000000000000000E+20
 34
1.000000000000000E+20
 15
-1.000000000000000E+20
 25
-1.000000000000000E+20
 35
-1.000000000000000E+20
146
0.0
 13
0.0
 23
0.0
 33
0.0
 16
1.0
 26
0.0
 36
0.0
 17
0.0
 27
1.0
 37
0.0
 76
     0
330
B
  0
MLINESTYLE
  5
1C
102
{ACAD_REACTORS
330
1B
102
}
330
1B
100
AcDbMlineStyle
  2
STANDARD
 70
     0
  3

 62
     0
 51
90.0
 52
90.0
 71
     2
 49
0.5
 62
   256
  6
BYLAYER
 49
-0.5
 62
   256
  6
BYLAYER
  0
ACDBPLACEHOLDER
  5
2CC
102
{ACAD_REACTORS
330
2CB
102
}
330
2CB
  0
TABLESTYLE
  5
2D0
102
{ACAD_REACTORS
330
2CF
102
}
330
2CF
100
AcDbTableStyle
  3
Standard
 70
     0
 71
     0
 40
1.5
 41
1.5
280
     0
281
     0
  7
STANDARD
140
4.5
170
     2
 62
     0
 63
     7
283
     0
274
    -2
284
     1
 64
     0
275
    -2
285
     1
 65
     0
276
    -2
286
     1
 66
     0
277
    -2
287
     1
 67
     0
278
    -2
288
     1
 68
     0
279
    -2
289
     1
 69
     0
  7
STANDARD
140
6.0
170
     5
 62
     0
 63
     7
283
     0
274
    -2
284
     1
 64
     0
275
    -2
285
     1
 65
     0
276
    -2
286
     1
 66
     0
277
    -2
287
     1
 67
     0
278
    -2
288
     1
 68
     0
279
    -2
289
     1
 69
     0
  7
STANDARD
140
4.5
170
     5
 62
     0
 63
     7
283
     0
274
    -2
284
     1
 64
     0
275
    -2
285
     1
 65
     0
276
    -2
286
     1
 66
     0
277
    -2
287
     1
 67
     0
278
    -2
288
     1
 68
     0
279
    -2
289
     1
 69
     0
  0
DICTIONARYVAR
  5
400
102
{ACAD_REACTORS
330
3FF
102
}
330
3FF
100
DictionaryVariables
280
     0
  1
STANDARD
  0
DICTIONARYVAR
  5
402
102
{ACAD_REACTORS
330
3FF
102
}
330
3FF
100
DictionaryVariables
280
     0
  1
1
  0
DICTIONARYVAR
  5
401
102
{ACAD_REACTORS
330
3FF
102
}
330
3FF
100
DictionaryVariables
280
     0
  1
1
  0
DICTIONARYVAR
  5
403
102
{ACAD_REACTORS
330
3FF
102
}
330
3FF
100
DictionaryVariables
280
     0
  1

  0
DICTIONARY
  5
3A4
102
{ACAD_REACTORS
330
398
102
}
330
398
100
AcDbDictionary
281
     1
  0
XRECORD
  5
3C3
102
{ACAD_REACTORS
330
398
102
}
330
398
100
AcDbXrecord
280
     1
 90
-1023410169
  0
DICTIONARY
  5
2D8
102
{ACAD_REACTORS
330
2D7
102
}
330
2D7
100
AcDbDictionary
281
     1
  3
DWGSETTINGS
350
2D9
  3
TRANSSETTINGS
350
2DD
  0
ACAMGFILTERDAT
  5
3F3
102
{ACAD_REACTORS
330
3EE
102
}
330
3EE
100
AcAmgFilterDat
 70
    15
  1
DIMENSION,AMDT_*_DIM
  2
*
  3
*
  4
*
  5
*
290
     1
  0
ACAMGFILTERDAT
  5
3F2
102
{ACAD_REACTORS
330
3EE
102
}
330
3EE
100
AcAmgFilterDat
 70
    15
  1
*
  2
AM_FEA-AM_*
  3
*
  4
*
  5
*
290
     1
  0
ACAMGFILTERDAT
  5
3EF
102
{ACAD_REACTORS
330
3EE
102
}
330
3EE
100
AcAmgFilterDat
 70
    15
  1
HATCH
  2
*
  3
*
  4
*
  5
*
290
     1
  0
ACAMGFILTERDAT
  5
3F0
102
{ACAD_REACTORS
330
3EE
102
}
330
3EE
100
AcAmgFilterDat
 70
    15
  1
LINE
  2
8,8N,*-8,*-8N,AM_8,AM_8N,*-AM_8,*-AM_8N
  3
*
  4
*
  5
INSERT,STDPART2D
290
     1
  0
ACAMGFILTERDAT
  5
3F4
102
{ACAD_REACTORS
330
3EE
102
}
330
3EE
100
AcAmgFilterDat
 70
    15
  1
ARC
  2
AM_5
  3
*
  4
2
  5
INSERT
290
     0
  0
ACAMGFILTERDAT
  5
3F1
102
{ACAD_REACTORS
330
3EE
102
}
330
3EE
100
AcAmgFilterDat
 70
    15
  1
ACMFCFRAME,ACMDATUMTARGET,ACMDATUMID,ACMWELDSYM,ACMSURFSYM,ACMFEATID,ACMPARTREF,ACMBALLOON,AMDTEDGESYM,AMGSCREWCALCTABLE
  2
*
  3
*
  4
*
  5
*
290
     1
  0
XRECORD
  5
3F8
102
{ACAD_REACTORS
330
3F6
102
}
330
3F6
100
AcDbXrecord
280
     1
  0
LAYER_INDEX
  5
3FB
102
{ACAD_REACTORS
330
3FA
102
}
330
3FA
100
AcDbIndex
 40
2458197.687411899
100
AcDbLayerIndex
  8
0
360
3FC
 90
      632
  8
FORMAT
360
3FD
 90
       17
  8
1
360
3FE
 90
       21
  0
DICTIONARY
  5
407
330
2D3
100
AcDbDictionary
280
     1
281
     1
  3
ACAD_XREC_ROUNDTRIP
360
408
  0
DICTIONARY
  5
409
330
2D4
100
AcDbDictionary
280
     1
281
     1
  3
ACAD_XREC_ROUNDTRIP
360
40A
  0
IDBUFFER
  5
3FC
330
0
100
AcDbIdBuffer
330
BB
330
BA
330
B9
330
B8
330
B7
330
B6
330
B5
330
B4
330
B3
330
B2
330
B1
330
B0
330
AF
330
AE
330
AD
330
AC
330
AB
330
AA
330
A9
330
A8
330
A7
330
A6
330
A5
330
A4
330
A3
330
A2
330
A1
330
A0
330
9F
330
9E
330
9D
330
9C
330
9B
330
9A
330
99
330
98
330
97
330
96
330
95
330
94
330
93
330
92
330
91
330
90
330
8F
330
8E
330
8D
330
8C
330
8B
330
8A
330
89
330
88
330
87
330
86
330
85
330
84
330
83
330
82
330
81
330
80
330
7F
330
7E
330
7D
330
7C
330
7B
330
7A
330
79
330
78
330
77
330
76
330
75
330
74
330
73
330
72
330
71
330
70
330
6F
330
6E
330
6D
330
6C
330
6B
330
6A
330
69
330
68
330
67
330
66
330
65
330
64
330
63
330
62
330
61
330
60
330
5F
330
5E
330
5D
330
5C
330
5B
330
5A
330
59
330
58
330
57
330
56
330
55
330
54
330
53
330
52
330
51
330
50
330
4F
330
4E
330
4D
330
4C
330
4B
330
4A
330
49
330
3D
330
3C
330
3B
330
3A
330
39
330
38
330
37
330
36
330
35
330
34
330
33
330
32
330
31
330
30
330
2F
330
2E
330
2D
330
2C
330
2B
330
2A
330
29
330
2C5
330
2C4
330
2C3
330
2C2
330
2C1
330
2C0
330
2BF
330
2BE
330
2BD
330
2BC
330
2BB
330
2BA
330
2B9
330
2B8
330
2B7
330
2B6
330
2B5
330
2B4
330
2B3
330
2B2
330
2B1
330
2B0
330
2AF
330
2AE
330
2AD
330
2AC
330
2AB
330
2AA
330
2A9
330
2A8
330
2A7
330
2A6
330
2A5
330
2A4
330
2A3
330
2A2
330
2A1
330
2A0
330
29F
330
29E
330
29D
330
29C
330
29B
330
29A
330
299
330
298
330
297
330
296
330
295
330
294
330
293
330
292
330
291
330
290
330
28F
330
28E
330
28D
330
28C
330
28B
330
28A
330
289
330
288
330
287
330
286
330
285
330
284
330
283
330
282
330
281
330
280
330
27F
330
27E
330
27D
330
27C
330
27B
330
27A
330
279
330
278
330
277
330
276
330
275
330
274
330
273
330
272
330
271
330
270
330
26F
330
26E
330
26D
330
26C
330
26B
330
26A
330
269
330
268
330
267
330
266
330
265
330
264
330
263
330
262
330
261
330
260
330
25F
330
25E
330
25D
330
25C
330
25B
330
25A
330
259
330
258
330
257
330
256
330
255
330
254
330
253
330
252
330
251
330
250
330
24F
330
24E
330
24D
330
24C
330
24B
330
24A
330
249
330
248
330
247
330
246
330
245
330
244
330
243
330
242
330
241
330
240
330
23F
330
23E
330
23D
330
23C
330
23B
330
23A
330
239
330
238
330
237
330
236
330
235
330
234
330
233
330
232
330
231
330
230
330
22F
330
22E
330
22D
330
22C
330
22B
330
22A
330
229
330
228
330
227
330
226
330
225
330
224
330
223
330
222
330
221
330
220
330
21F
330
21E
330
21D
330
21C
330
21B
330
21A
330
219
330
218
330
217
330
216
330
215
330
214
330
213
330
212
330
211
330
210
330
20F
330
20E
330
20D
330
20C
330
20B
330
20A
330
209
330
208
330
207
330
206
330
205
330
204
330
203
330
202
330
201
330
200
330
1FF
330
1FE
330
1FD
330
1FC
330
1FB
330
1FA
330
1F9
330
1F8
330
1F7
330
1F6
330
1F5
330
1F4
330
1F3
330
1F2
330
1F1
330
1F0
330
1EF
330
1EE
330
1ED
330
1EC
330
1EB
330
1EA
330
1E9
330
1E8
330
1E7
330
1E6
330
1E5
330
1E4
330
1E3
330
1E2
330
1E1
330
1E0
330
1DF
330
1DE
330
1DD
330
1DC
330
1DB
330
1DA
330
1D9
330
1D8
330
1D7
330
1D6
330
1D5
330
1D4
330
1D3
330
1D2
330
1D1
330
1D0
330
1CF
330
1CE
330
1CD
330
1CC
330
1CB
330
1CA
330
1C9
330
1C8
330
1C7
330
1C6
330
1C5
330
1BA
330
1B9
330
1B8
330
1B7
330
1B6
330
1B5
330
1B4
330
1B3
330
1B2
330
1B1
330
1B0
330
1AF
330
1AE
330
1AD
330
1AC
330
1AB
330
1AA
330
1A9
330
1A8
330
1A7
330
1A6
330
1A5
330
1A4
330
1A3
330
1A2
330
1A1
330
1A0
330
19F
330
19E
330
19D
330
19C
330
19B
330
19A
330
199
330
198
330
197
330
196
330
195
330
194
330
193
330
192
330
191
330
190
330
18F
330
18E
330
18D
330
18C
330
18B
330
18A
330
189
330
188
330
187
330
186
330
185
330
184
330
183
330
182
330
181
330
180
330
17F
330
17E
330
17D
330
17C
330
17B
330
17A
330
179
330
178
330
177
330
176
330
175
330
174
330
173
330
172
330
171
330
170
330
16F
330
16E
330
16D
330
16C
330
16B
330
16A
330
169
330
168
330
167
330
166
330
165
330
164
330
163
330
162
330
161
330
160
330
15F
330
15E
330
15D
330
15C
330
15B
330
15A
330
159
330
158
330
157
330
156
330
155
330
154
330
153
330
14E
330
14D
330
14C
330
14B
330
14A
330
149
330
148
330
147
330
146
330
145
330
144
330
143
330
142
330
141
330
140
330
13F
330
13E
330
13D
330
13C
330
13B
330
13A
330
139
330
138
330
137
330
136
330
135
330
134
330
133
330
132
330
131
330
130
330
12F
330
12E
330
12D
330
12C
330
12B
330
12A
330
129
330
128
330
127
330
126
330
125
330
124
330
123
330
122
330
121
330
120
330
11F
330
11E
330
111
330
110
330
10F
330
10E
330
10D
330
10C
330
10B
330
10A
330
109
330
108
330
107
330
106
330
105
330
104
330
103
330
102
330
101
330
100
330
FF
330
FE
330
FD
330
FC
330
FB
330
FA
330
F9
330
F8
330
F7
330
F6
330
F5
330
F4
330
F3
330
F2
330
F1
330
F0
330
EF
330
EE
330
ED
330
EC
330
EB
330
EA
330
E9
330
E8
330
E7
330
E6
330
E5
330
E4
330
E3
330
E2
330
E1
330
E0
330
DF
330
DE
330
DD
330
DC
330
DB
330
DA
330
D9
330
D8
330
D7
330
D6
330
D5
330
D4
330
D3
330
D2
330
D1
330
D0
330
CF
330
CE
330
CD
330
CC
330
CB
330
CA
330
C9
330
C8
330
C7
330
C6
330
C5
330
C4
330
C3
330
C2
330
C1
330
C0
330
BF
330
BE
330
BD
330
BC
  0
IDBUFFER
  5
3FD
330
0
100
AcDbIdBuffer
330
3F
330
1C4
330
1C3
330
1C2
330
1C1
330
1C0
330
1BF
330
1BE
330
1BD
330
1BC
330
1BB
330
152
330
151
330
150
330
14F
330
43
330
40
  0
IDBUFFER
  5
3FE
330
0
100
AcDbIdBuffer
330
45
330
44
330
42
330
41
330
3E
330
2C7
330
11D
330
11C
330
11B
330
11A
330
119
330
118
330
117
330
116
330
115
330
114
330
113
330
112
330
48
330
47
330
46
  0
XRECORD
  5
408
102
{ACAD_REACTORS
330
407
102
}
330
407
100
AcDbXrecord
280
     1
102
SHADEPLOT
 70
     0
102
SHADEPLOTRESLEVEL
 70
     2
102
SHADEPLOTCUSTOMDPI
 70
   300
  0
XRECORD
  5
40A
102
{ACAD_REACTORS
330
409
102
}
330
409
100
AcDbXrecord
280
     1
102
SHADEPLOT
 70
     0
102
SHADEPLOTRESLEVEL
 70
     2
102
SHADEPLOTCUSTOMDPI
 70
   300
  0
ENDSEC
  0
EOF
