  0
SECTION
  2
HEADER
  9
$ACADVER
  1
AC1015
  9
$ACADMAINTVER
 70
    20
  9
$DWGCODEPAGE
  3
ANSI_932
  9
$INSBASE
 10
0.0
 20
0.0
 30
0.0
  9
$EXTMIN
 10
39.768166414353
 20
235.6507003135666
 30
0.0
  9
$EXTMAX
 10
443.2523631358869
 20
404.158665664195
 30
0.0
  9
$LIMMIN
 10
0.0
 20
0.0
  9
$LIMMAX
 10
0.0
 20
0.0
  9
$ORTHOMODE
 70
     0
  9
$REGENMODE
 70
     1
  9
$FILLMODE
 70
     1
  9
$QTEXTMODE
 70
     0
  9
$MIRRTEXT
 70
     1
  9
$LTSCALE
 40
1.0
  9
$ATTMODE
 70
     1
  9
$TEXTSIZE
 40
0.0
  9
$TRACEWID
 40
0.05
  9
$TEXTSTYLE
  7
STANDARD
  9
$CLAYER
  8
0
  9
$CELTYPE
  6
CONTINUOUS
  9
$CECOLOR
 62
   256
  9
$CELTSCALE
 40
1.0
  9
$DISPSILH
 70
     0
  9
$DIMSCALE
 40
1.0
  9
$DIMASZ
 40
0.18
  9
$DIMEXO
 40
0.0625
  9
$DIMDLI
 40
0.38
  9
$DIMRND
 40
0.0
  9
$DIMDLE
 40
0.0
  9
$DIMEXE
 40
0.18
  9
$DIMTP
 40
0.0
  9
$DIMTM
 40
0.0
  9
$DIMTXT
 40
0.18
  9
$DIMCEN
 40
0.09
  9
$DIMTSZ
 40
0.0
  9
$DIMTOL
 70
     0
  9
$DIMLIM
 70
     0
  9
$DIMTIH
 70
     1
  9
$DIMTOH
 70
     1
  9
$DIMSE1
 70
     0
  9
$DIMSE2
 70
     0
  9
$DIMTAD
 70
     0
  9
$DIMZIN
 70
     0
  9
$DIMBLK
  1

  9
$DIMASO
 70
     1
  9
$DIMSHO
 70
     1
  9
$DIMPOST
  1

  9
$DIMAPOST
  1

  9
$DIMALT
 70
     0
  9
$DIMALTD
 70
     2
  9
$DIMALTF
 40
25.4
  9
$DIMLFAC
 40
1.0
  9
$DIMTOFL
 70
     0
  9
$DIMTVP
 40
0.0
  9
$DIMTIX
 70
     0
  9
$DIMSOXD
 70
     0
  9
$DIMSAH
 70
     0
  9
$DIMBLK1
  1

  9
$DIMBLK2
  1

  9
$DIMSTYLE
  2
STANDARD
  9
$DIMCLRD
 70
     0
  9
$DIMCLRE
 70
     0
  9
$DIMCLRT
 70
     0
  9
$DIMTFAC
 40
1.0
  9
$DIMGAP
 40
0.09
  9
$DIMJUST
 70
     0
  9
$DIMSD1
 70
     0
  9
$DIMSD2
 70
     0
  9
$DIMTOLJ
 70
     1
  9
$DIMTZIN
 70
     0
  9
$DIMALTZ
 70
     0
  9
$DIMALTTZ
 70
     0
  9
$DIMUPT
 70
     0
  9
$DIMDEC
 70
     4
  9
$DIMTDEC
 70
     4
  9
$DIMALTU
 70
     2
  9
$DIMALTTD
 70
     2
  9
$DIMTXSTY
  7
STANDARD
  9
$DIMAUNIT
 70
     0
  9
$DIMADEC
 70
     0
  9
$DIMALTRND
 40
0.0
  9
$DIMAZIN
 70
     0
  9
$DIMDSEP
 70
    46
  9
$DIMATFIT
 70
     3
  9
$DIMFRAC
 70
     0
  9
$DIMLDRBLK
  1

  9
$DIMLUNIT
 70
     2
  9
$DIMLWD
 70
    -2
  9
$DIMLWE
 70
    -2
  9
$DIMTMOVE
 70
     0
  9
$LUNITS
 70
     2
  9
$LUPREC
 70
     2
  9
$SKETCHINC
 40
0.1
  9
$FILLETRAD
 40
0.0
  9
$AUNITS
 70
     0
  9
$AUPREC
 70
     0
  9
$MENU
  1
acad
  9
$ELEVATION
 40
0.0
  9
$PELEVATION
 40
0.0
  9
$THICKNESS
 40
0.0
  9
$LIMCHECK
 70
     0
  9
$CHAMFERA
 40
0.0
  9
$CHAMFERB
 40
0.0
  9
$CHAMFERC
 40
0.0
  9
$CHAMFERD
 40
0.0
  9
$SKPOLY
 70
     0
  9
$TDCREATE
 40
2305814.417176053
  9
$TDUCREATE
 40
6.0000000000
  9
$TDUPDATE
 40
2458197.670694907
  9
$TDUUPDATE
 40
2458197.295694907
  9
$TDINDWG
 40
0.0001671065
  9
$TDUSRTIMER
 40
0.0001665625
  9
$USRTIMER
 70
     1
  9
$ANGBASE
 50
0.0
  9
$ANGDIR
 70
     0
  9
$PDMODE
 70
     0
  9
$PDSIZE
 40
0.0
  9
$PLINEWID
 40
0.0
  9
$SPLFRAME
 70
     0
  9
$SPLINETYPE
 70
     6
  9
$SPLINESEGS
 70
     8
  9
$HANDSEED
  5
438
  9
$SURFTAB1
 70
     6
  9
$SURFTAB2
 70
     6
  9
$SURFTYPE
 70
     6
  9
$SURFU
 70
     6
  9
$SURFV
 70
     6
  9
$UCSBASE
  2

  9
$UCSNAME
  2

  9
$UCSORG
 10
0.0
 20
0.0
 30
0.0
  9
$UCSXDIR
 10
1.0
 20
0.0
 30
0.0
  9
$UCSYDIR
 10
0.0
 20
1.0
 30
0.0
  9
$UCSORTHOREF
  2

  9
$UCSORTHOVIEW
 70
     0
  9
$UCSORGTOP
 10
0.0
 20
0.0
 30
0.0
  9
$UCSORGBOTTOM
 10
0.0
 20
0.0
 30
0.0
  9
$UCSORGLEFT
 10
0.0
 20
0.0
 30
0.0
  9
$UCSORGRIGHT
 10
0.0
 20
0.0
 30
0.0
  9
$UCSORGFRONT
 10
0.0
 20
0.0
 30
0.0
  9
$UCSORGBACK
 10
0.0
 20
0.0
 30
0.0
  9
$PUCSBASE
  2

  9
$PUCSNAME
  2

  9
$PUCSORG
 10
0.0
 20
0.0
 30
0.0
  9
$PUCSXDIR
 10
1.0
 20
0.0
 30
0.0
  9
$PUCSYDIR
 10
0.0
 20
1.0
 30
0.0
  9
$PUCSORTHOREF
  2

  9
$PUCSORTHOVIEW
 70
     0
  9
$PUCSORGTOP
 10
0.0
 20
0.0
 30
0.0
  9
$PUCSORGBOTTOM
 10
0.0
 20
0.0
 30
0.0
  9
$PUCSORGLEFT
 10
0.0
 20
0.0
 30
0.0
  9
$PUCSORGRIGHT
 10
0.0
 20
0.0
 30
0.0
  9
$PUCSORGFRONT
 10
0.0
 20
0.0
 30
0.0
  9
$PUCSORGBACK
 10
0.0
 20
0.0
 30
0.0
  9
$USERI1
 70
     0
  9
$USERI2
 70
     0
  9
$USERI3
 70
     0
  9
$USERI4
 70
     0
  9
$USERI5
 70
     0
  9
$USERR1
 40
0.0
  9
$USERR2
 40
0.0
  9
$USERR3
 40
0.0
  9
$USERR4
 40
0.0
  9
$USERR5
 40
0.0
  9
$WORLDVIEW
 70
     1
  9
$SHADEDGE
 70
     3
  9
$SHADEDIF
 70
    70
  9
$TILEMODE
 70
     1
  9
$MAXACTVP
 70
    16
  9
$PINSBASE
 10
0.0
 20
0.0
 30
0.0
  9
$PLIMCHECK
 70
     0
  9
$PEXTMIN
 10
1.000000000000000E+20
 20
1.000000000000000E+20
 30
1.000000000000000E+20
  9
$PEXTMAX
 10
-1.000000000000000E+20
 20
-1.000000000000000E+20
 30
-1.000000000000000E+20
  9
$PLIMMIN
 10
0.0
 20
0.0
  9
$PLIMMAX
 10
12.0
 20
9.0
  9
$UNITMODE
 70
     0
  9
$VISRETAIN
 70
     0
  9
$PLINEGEN
 70
     1
  9
$PSLTSCALE
 70
     0
  9
$TREEDEPTH
 70
  3020
  9
$CMLSTYLE
  2
STANDARD
  9
$CMLJUST
 70
     0
  9
$CMLSCALE
 40
1.0
  9
$PROXYGRAPHICS
 70
     0
  9
$MEASUREMENT
 70
     1
  9
$CELWEIGHT
370
    -1
  9
$ENDCAPS
280
     0
  9
$JOINSTYLE
280
     0
  9
$LWDISPLAY
290
     0
  9
$INSUNITS
 70
     0
  9
$HYPERLINKBASE
  1

  9
$STYLESHEET
  1

  9
$XEDIT
290
     1
  9
$CEPSNTYPE
380
     0
  9
$PSTYLEMODE
290
     1
  9
$FINGERPRINTGUID
  2
{1079DDE1-A479-42D7-B304-8809C8453B6F}
  9
$VERSIONGUID
  2
{A374B5BA-AD65-40FD-A88F-0FB3320C29BC}
  9
$EXTNAMES
290
     1
  9
$PSVPSCALE
 40
0.0
  9
$OLESTARTUP
290
     0
  0
ENDSEC
  0
SECTION
  2
CLASSES
  0
CLASS
  1
IMAGE
  2
AcDbRasterImage
  3
ISM
 90
    32895
280
     0
281
     1
  0
CLASS
  1
DICTIONARYVAR
  2
AcDbDictionaryVar
  3
ObjectDBX Classes
 90
        0
280
     0
281
     0
  0
CLASS
  1
RASTERVARIABLES
  2
AcDbRasterVariables
  3
ISM
 90
    32768
280
     0
281
     0
  0
CLASS
  1
IMAGEDEF
  2
AcDbRasterImageDef
  3
ISM
 90
    32768
280
     0
281
     0
  0
CLASS
  1
IMAGEDEF_REACTOR
  2
AcDbRasterImageDefReactor
  3
ISM
 90
    32769
280
     0
281
     0
  0
CLASS
  1
IDBUFFER
  2
AcDbIdBuffer
  3
ObjectDBX Classes
 90
        0
280
     0
281
     0
  0
CLASS
  1
SPATIAL_FILTER
  2
AcDbSpatialFilter
  3
ObjectDBX Classes
 90
    32768
280
     0
281
     0
  0
CLASS
  1
SORTENTSTABLE
  2
AcDbSortentsTable
  3
ObjectDBX Classes
 90
    32768
280
     0
281
     0
  0
CLASS
  1
LAYER_INDEX
  2
AcDbLayerIndex
  3
ObjectDBX Classes
 90
        0
280
     0
281
     0
  0
CLASS
  1
SPATIAL_INDEX
  2
AcDbSpatialIndex
  3
ObjectDBX Classes
 90
    32768
280
     0
281
     0
  0
CLASS
  1
OBJECT_PTR
  2
CAseDLPNTableRecord
  3
ASE-LPNTableRecord
 90
    32769
280
     0
281
     0
  0
CLASS
  1
LAYOUT
  2
AcDbLayout
  3
ObjectDBX Classes
 90
        0
280
     0
281
     0
  0
CLASS
  1
PLOTSETTINGS
  2
AcDbPlotSettings
  3
ObjectDBX Classes
 90
    32768
280
     0
281
     0
  0
CLASS
  1
ACDBDICTIONARYWDFLT
  2
AcDbDictionaryWithDefault
  3
ObjectDBX Classes
 90
        0
280
     0
281
     0
  0
CLASS
  1
ACDBPLACEHOLDER
  2
AcDbPlaceHolder
  3
ObjectDBX Classes
 90
        0
280
     0
281
     0
  0
CLASS
  1
VBA_PROJECT
  2
AcDbVbaProject
  3
acad
 90
    32768
280
     0
281
     0
  0
CLASS
  1
WIPEOUT
  2
AcDbWipeout
  3
"WipeOut|Product Desc: Object Enabler for WipeOut entity^I^I^I^I^I^I|Company: Autodesk, Inc.^I^I^I^I^I^I|WEB Address: www.autodesk.com"
 90
    32895
280
     0
281
     1
  0
CLASS
  1
WIPEOUTVARIABLES
  2
AcDbWipeoutVariables
  3
"WipeOut|Product Desc:     WipeOut Dbx Application|Company:          Autodesk, Inc.|WEB Address:      www.autodesk.com"
 90
    32768
280
     0
281
     0
  0
CLASS
  1
RTEXT
  2
RText
  3
RText|AutoCAD Express Tool|expresstools@autodesk.com
 90
    32768
280
     0
281
     1
  0
CLASS
  1
ARCALIGNEDTEXT
  2
AcDbArcAlignedText
  3
ATEXT|AutoCAD Express Tool|expresstools@autodesk.com
 90
    32768
280
     0
281
     1
  0
CLASS
  1
TABLESTYLE
  2
AcDbTableStyle
  3
ObjectDBX Classes
 90
     2047
280
     0
281
     0
  0
CLASS
  1
AMGSETTINGSOBJ
  2
AmgSettingsObj
  3
"AcadM|Product Description: AutoCAD Mechanical 2000|Company: Autodesk"
 90
        0
280
     0
281
     0
  0
CLASS
  1
ACME_DOCUMENT
  2
AcMeDbDoc
  3
AcMeServices
 90
        0
280
     0
281
     0
  0
CLASS
  1
ACMESCOPE
  2
AcMeScope
  3
AcMeServices
 90
        0
280
     0
281
     0
  0
CLASS
  1
ACMECOMMANDHISTORY
  2
AcMeCommandHistory
  3
AcMeServices
 90
        0
280
     0
281
     0
  0
CLASS
  1
ACIMSYSVARMAN
  2
AcImSysVarManager
  3
AcMeServices
 90
        0
280
     0
281
     0
  0
CLASS
  1
ACIMREALSYSVAR
  2
AcImRealSysVar
  3
AcMeServices
 90
        0
280
     0
281
     0
  0
CLASS
  1
ACIMINTSYSVAR
  2
AcImIntSysVar
  3
AcMeServices
 90
        0
280
     0
281
     0
  0
CLASS
  1
ACMEDRAWINGMAN
  2
AcMeDrawingMan
  3
AcMeServices
 90
        0
280
     0
281
     0
  0
CLASS
  1
ACMEVIEW
  2
AcMeView
  3
AcMeServices
 90
        0
280
     0
281
     0
  0
CLASS
  1
ACDBENTITYCACHE
  2
AcMeEntityCache
  3
AcMeServices
 90
        0
280
     0
281
     0
  0
CLASS
  1
GSMANAGER
  2
AcMeGSManager
  3
AcMeServices
 90
        0
280
     0
281
     0
  0
CLASS
  1
AMDTINTERNALREACTOR
  2
AmdtInternalReactor
  3
AcMeServices
 90
        0
280
     0
281
     0
  0
CLASS
  1
ACMESTATEMGR
  2
AcMeStateMgr
  3
AcMeServices
 90
        0
280
     0
281
     0
  0
CLASS
  1
ACGREFMASTER
  2
AcGrefMaster
  3
AcAttribServices
 90
        0
280
     0
281
     0
  0
CLASS
  1
AM_DRAWING_MGR
  2
AcDmDwgMgr
  3
AcMechDwgViewMgmt
 90
        0
280
     0
281
     0
  0
CLASS
  1
AM_DWG_DOCUMENT
  2
AcDmDwgDocument
  3
AcMechDwgViewMgmt
 90
        0
280
     0
281
     0
  0
CLASS
  1
AM_DWG_SHEET
  2
AcDmSheet
  3
AcMechDwgViewMgmt
 90
        0
280
     0
281
     0
  0
CLASS
  1
AM_VIEWDIMPARMAP
  2
AcDmViewDimParMap
  3
AcMechDwgViewMgmt
 90
        0
280
     0
281
     0
  0
CLASS
  1
AM_DWGMGR_NAME
  2
AcDmDwgMgrName
  3
AcMechDwgViewMgmt
 90
        0
280
     0
281
     0
  0
CLASS
  1
ACME_DATABASE
  2
AcMeDbDatabase
  3
AcMeServices
 90
        0
280
     0
281
     0
  0
CLASS
  1
ACRFINSADJUSTERMGR
  2
AcRfInsAdjusterMgr
  3
AcMeServices
 90
        0
280
     0
281
     0
  0
CLASS
  1
ACGREFACADMASTER
  2
AcGrefacadMaster
  3
AcGrefServices
 90
        0
280
     0
281
     0
  0
CLASS
  1
AMDTMENUSTATEMGR
  2
AmdtMenuStateMgr
  3
McadcomServices
 90
        0
280
     0
281
     0
  0
CLASS
  1
AMDTMCOMMENUSTATE
  2
AmdtMcomMenuState
  3
McadcomServices
 90
        0
280
     0
281
     0
  0
CLASS
  1
AMIMASTER
  2
AmiMaster
  3
AmiServices
 90
        0
280
     0
281
     0
  0
CLASS
  1
ASAPP
  2
AcAsAppObject
  3
AutoSurfServices
 90
        0
280
     0
281
     0
  0
CLASS
  1
IM_STATIC_MAN
  2
AcImStaticVarManager
  3
AcMeServices
 90
        0
280
     0
281
     0
  0
CLASS
  1
ACIMSTRSYSVAR
  2
AcImStrSysVar
  3
AcMeServices
 90
        0
280
     0
281
     0
  0
CLASS
  1
ACIMDBLSTATICVAR
  2
AcImDblStaticVar
  3
AcMeServices
 90
        0
280
     0
281
     0
  0
CLASS
  1
ACIMSTRSTATICVAR
  2
AcImStrStaticVar
  3
AcMeServices
 90
        0
280
     0
281
     0
  0
CLASS
  1
ACIMINTSTATICVAR
  2
AcImIntStaticVar
  3
AcMeServices
 90
        0
280
     0
281
     0
  0
CLASS
  1
ACASGREFMASTER
  2
AcAsGrefMaster
  3
AutoSurfResolverServices
 90
        0
280
     0
281
     0
  0
CLASS
  1
ACADGREFMODULE
  2
AcAdGrefModule
  3
AdGrefServices
 90
        0
280
     0
281
     0
  0
CLASS
  1
AMDTMAPISURFMOUDULE
  2
AmdtMApiSurfModule
  3
MApiSurfServices
 90
        0
280
     0
281
     0
  0
CLASS
  1
MAPIAMMOUDLE
  2
MApiAmModule
  3
MApiAmServices
 90
        0
280
     0
281
     0
  0
CLASS
  1
AMDTADMENUSTATE
  2
AmdtAdMenuState
  3
DesignerServices
 90
        0
280
     0
281
     0
  0
CLASS
  1
ADAPPL
  2
AcAdAppl
  3
DesignerServices
 90
        0
280
     0
281
     0
  0
CLASS
  1
DEPMGR
  2
AcAdDepMgr
  3
DesignerServices
 90
        0
280
     0
281
     0
  0
CLASS
  1
PARAMMGR
  2
AcAdParamMgr
  3
DesignerServices
 90
        0
280
     0
281
     0
  0
CLASS
  1
PARAMSCOPE
  2
AcAdParamScope
  3
DesignerServices
 90
        0
280
     0
281
     0
  0
CLASS
  1
NAMEDAPPL
  2
AcAdNamedAppl
  3
DesignerServices
 90
        0
280
     0
281
     0
  0
CLASS
  1
AMDTDMMENUSTATE
  2
AmdtDmMenuState
  3
AcMechDwgViewMgmt
 90
        0
280
     0
281
     0
  0
CLASS
  1
MAPIADMODULE
  2
MApiAdModule
  3
MApiAdServices
 90
        0
280
     0
281
     0
  0
CLASS
  1
AMDTAMMENUSTATE
  2
AmdtAmMenuState
  3
DesignerAssemblies
 90
        0
280
     0
281
     0
  0
CLASS
  1
ACAMPROJECT
  2
AcAmProject
  3
DesignerAssemblies
 90
        0
280
     0
281
     0
  0
CLASS
  1
ACAMGRCOMPDEF
  2
AcAmGrCompDef
  3
DesignerAssemblies
 90
        0
280
     0
281
     0
  0
CLASS
  1
ACCMCONTEXT
  2
AcCmContext
  3
DesignerAssemblies
 90
        0
280
     0
281
     0
  0
CLASS
  1
ACAMCOMPDEF
  2
AcAmCompDef
  3
DesignerAssemblies
 90
        0
280
     0
281
     0
  0
CLASS
  1
ACAMCOMPDEFMGR
  2
AcAmCompDefMgr
  3
DesignerAssemblies
 90
        0
280
     0
281
     0
  0
CLASS
  1
AMCONTEXTMGR
  2
AcAmContextMgr
  3
DesignerAssemblies
 90
        0
280
     0
281
     0
  0
CLASS
  1
ACAMCONTEXTMODELER
  2
AcAmContextModeler
  3
DesignerAssemblies
 90
        0
280
     0
281
     0
  0
CLASS
  1
ACMDATADICTIONARY
  2
AcmDataDictionary
  3
"AcmSymBB|Product Description: AutoCAD Mechanical 2004 DX|Company: Autodesk"
 90
        0
280
     0
281
     0
  0
CLASS
  1
ACMDATAENTRYBLOCK
  2
AcmDataEntryBlock
  3
"AcmSymBB|Product Description: AutoCAD Mechanical 2004 DX|Company: Autodesk"
 90
        0
280
     0
281
     0
  0
CLASS
  1
CATALOGSTATE
  2
AcAmCatalogState
  3
DesignerAssemblies
 90
        0
280
     0
281
     0
  0
CLASS
  1
ACAMGRCOMPDEFSET
  2
AcAmGrCompDefSet
  3
DesignerAssemblies
 90
        0
280
     0
281
     0
  0
CLASS
  1
AMDTBROWSERDBTAB
  2
AmdtBrowserDbTab
  3
McadcomServices
 90
        0
280
     0
281
     0
  0
CLASS
  1
CBROWSERAPPOBJECT
  2
CBrowserAppObject
  3
McadcomServices
 90
        0
280
     0
281
     0
  0
CLASS
  1
DM_PLACEHOLDER
  2
AcDmSelsetPlaceholder
  3
AcMechDwgViewMgmt
 90
        0
280
     0
281
     0
  0
CLASS
  1
ACMSTANDARDISO
  2
AcmStandardISO
  3
"Amdt_StdImp|Product Description: AutoCAD Mechanical 2004 DX|Company: Autodesk"
 90
        0
280
     0
281
     0
  0
CLASS
  1
AMGOBJPROPCFG
  2
AmgObjPropCfg
  3
"AmgLay|Product Description: AutoCAD Mechanical 2000|Company: Autodesk"
 90
        1
280
     0
281
     0
  0
CLASS
  1
AMDTEDGESTANDARDISO13715
  2
AmdtEdgeStdISO13715
  3
"Amdt_StdImp|Product Description: AutoCAD Mechanical 2004 DX|Company: Autodesk"
 90
        0
280
     0
281
     0
  0
CLASS
  1
ACMSURFSTANDARDISO
  2
AcmSurfTextStdISO
  3
"Amdt_StdImp|Product Description: AutoCAD Mechanical 2004 DX|Company: Autodesk"
 90
        0
280
     0
281
     0
  0
CLASS
  1
ACMFCFSTANDARDISO
  2
AcmFCFStdISO
  3
"Amdt_StdImp|Product Description: AutoCAD Mechanical 2004 DX|Company: Autodesk"
 90
        0
280
     0
281
     0
  0
CLASS
  1
ACMWELDSTANDARDISO
  2
AcmWeldingStdISO
  3
"Amdt_StdImp|Product Description: AutoCAD Mechanical 2004 DX|Company: Autodesk"
 90
        0
280
     0
281
     0
  0
CLASS
  1
ACMIDSTANDARDISO
  2
AcmIdStdISO
  3
"Amdt_StdImp|Product Description: AutoCAD Mechanical 2004 DX|Company: Autodesk"
 90
        0
280
     0
281
     0
  0
CLASS
  1
ACMDATUMSTANDARDISO
  2
AcmDatumStdISO
  3
"Amdt_StdImp|Product Description: AutoCAD Mechanical 2004 DX|Company: Autodesk"
 90
        0
280
     0
281
     0
  0
CLASS
  1
ACMBOMSTANDARDISO
  2
AcmBOMStdISO
  3
"Amdt_StdImp|Product Description: AutoCAD Mechanical 2004 DX|Company: Autodesk"
 90
        0
280
     0
281
     0
  0
CLASS
  1
ACMDETAILSTANDARDISO
  2
AmdtDetailSymStdISO
  3
"Amdt_StdImp|Product Description: AutoCAD Mechanical 2004 DX|Company: Autodesk"
 90
        0
280
     0
281
     0
  0
CLASS
  1
ACMSECTIONSTANDARDISO
  2
AmdtSectionSymStdISO
  3
"Amdt_StdImp|Product Description: AutoCAD Mechanical 2004 DX|Company: Autodesk"
 90
        0
280
     0
281
     0
  0
CLASS
  1
ACMCENTERLINESTANDARDISO
  2
AmdtCenterLineStdISO
  3
"Amdt_StdImp|Product Description: AutoCAD Mechanical 2004 DX|Company: Autodesk"
 90
        0
280
     0
281
     0
  0
CLASS
  1
ACMTHREADLINESTANDARDISO
  2
AmdtThreadLineStdISO
  3
"Amdt_StdImp|Product Description: AutoCAD Mechanical 2004 DX|Company: Autodesk"
 90
        0
280
     0
281
     0
  0
CLASS
  1
ACMNOTESTANDARDISO
  2
AmdtNoteStdISO
  3
"Amdt_StdImp|Product Description: AutoCAD Mechanical 2004 DX|Company: Autodesk"
 90
        0
280
     0
281
     0
  0
CLASS
  1
AMDTNOTETEMPLATEDB
  2
AmdtNoteTemplateDB
  3
AMDT_STDIMP_MODULE_NAME
 90
        0
280
     0
281
     0
  0
CLASS
  1
ACAMGLAYSTD
  2
AcAmgLayStd
  3
"AcAmgLayStd|Product Description: AutoCAD Mechanical 2000|Company: Autodesk"
 90
        0
280
     0
281
     0
  0
CLASS
  1
ACAMGDIMSTD
  2
AcAmgDimStd
  3
"AcAmgDimStd|Product Description: AutoCAD Mechanical 2000|Company: Autodesk"
 90
        0
280
     0
281
     0
  0
CLASS
  1
ACAMGHOLECHARTSTDISO
  2
AcAmgHoleChartStdISO
  3
ACMSYMBB_MODULE_NAME
 90
        0
280
     0
281
     0
  0
CLASS
  1
ACAMGTITLESTD
  2
AcAmgTitleStd
  3
"TITLEAPP"
 90
        0
280
     0
281
     0
  0
CLASS
  1
ACAMGFILTERDAT
  2
AcAmgFilterDat
  3
"AcadM|Product Description: AutoCAD Mechanical 2000|Company: Autodesk"
 90
        0
280
     0
281
     0
  0
ENDSEC
  0
SECTION
  2
TABLES
  0
TABLE
  2
VPORT
  5
7
330
0
100
AcDbSymbolTable
 70
     3
  0
VPORT
  5
431
330
7
100
AcDbSymbolTableRecord
100
AcDbViewportTableRecord
  2
*Active
 70
     0
 10
0.0
 20
0.0
 11
1.0
 21
1.0
 12
232.9736218530839
 22
315.3254989888809
 13
0.0
 23
0.0
 14
1.0
 24
1.0
 15
0.0
 25
0.0
 16
0.0
 26
0.0
 36
1.0
 17
8.53664292203609
 27
4.579183999999999
 37
0.0
 40
364.7455418924486
 41
1.113389626055488
 42
50.0
 43
0.0
 44
0.0
 50
0.0
 51
0.0
 71
     0
 72
   100
 73
     1
 74
     1
 75
     0
 76
     0
 77
     0
 78
     0
281
     0
 65
     0
110
0.0
120
0.0
130
0.0
111
1.0
121
0.0
131
0.0
112
0.0
122
1.0
132
0.0
 79
     0
146
0.0
  0
ENDTAB
  0
TABLE
  2
LTYPE
  5
4
330
0
100
AcDbSymbolTable
 70
    23
  0
LTYPE
  5
11
330
4
100
AcDbSymbolTableRecord
100
AcDbLinetypeTableRecord
  2
BYBLOCK
 70
     0
  3

 72
    65
 73
     0
 40
0.0
  0
LTYPE
  5
12
330
4
100
AcDbSymbolTableRecord
100
AcDbLinetypeTableRecord
  2
BYLAYER
 70
     0
  3

 72
    65
 73
     0
 40
0.0
  0
LTYPE
  5
13
330
4
100
AcDbSymbolTableRecord
100
AcDbLinetypeTableRecord
  2
CONTINUOUS
 70
     0
  3
Solid line
 72
    65
 73
     0
 40
0.0
  0
LTYPE
  5
1D
330
4
100
AcDbSymbolTableRecord
100
AcDbLinetypeTableRecord
  2
DASHED
 70
     0
  3
Dashed
 72
    65
 73
     2
 40
15.0
 49
12.0
 74
     0
 49
-3.0
 74
     0
  0
LTYPE
  5
1E
330
4
100
AcDbSymbolTableRecord
100
AcDbLinetypeTableRecord
  2
DOTTED
 70
     0
  3
Dotted
 72
    65
 73
     2
 40
3.5
 49
0.5
 74
     0
 49
-3.0
 74
     0
  0
LTYPE
  5
1F
330
4
100
AcDbSymbolTableRecord
100
AcDbLinetypeTableRecord
  2
DOT_CENTER
 70
     0
  3
Dot_Center
 72
    65
 73
     4
 40
2.0
 49
1.25
 74
     0
 49
-0.25
 74
     0
 49
0.25
 74
     0
 49
-0.25
 74
     0
  0
LTYPE
  5
20
330
4
100
AcDbSymbolTableRecord
100
AcDbLinetypeTableRecord
  2
LONG_DASHED
 70
     0
  3
Long_Dashed
 72
    65
 73
     2
 40
2.0
 49
1.5
 74
     0
 49
-0.5
 74
     0
  0
LTYPE
  5
21
330
4
100
AcDbSymbolTableRecord
100
AcDbLinetypeTableRecord
  2
DASH_CENTER
 70
     0
  3
Dash_Center
 72
    65
 73
     4
 40
36.0
 49
24.0
 74
     0
 49
-3.0
 74
     0
 49
6.0
 74
     0
 49
-3.0
 74
     0
  0
LTYPE
  5
22
330
4
100
AcDbSymbolTableRecord
100
AcDbLinetypeTableRecord
  2
PHANTOM
 70
     0
  3
Phantom
 72
    65
 73
     6
 40
2.5
 49
1.25
 74
     0
 49
-0.25
 74
     0
 49
0.25
 74
     0
 49
-0.25
 74
     0
 49
0.25
 74
     0
 49
-0.25
 74
     0
  0
LTYPE
  5
23
330
4
100
AcDbSymbolTableRecord
100
AcDbLinetypeTableRecord
  2
CENTER_DASH_DASH
 70
     0
  3
Center_Dash_Dash
 72
    65
 73
     6
 40
22.0
 49
12.0
 74
     0
 49
-3.0
 74
     0
 49
0.5
 74
     0
 49
-3.0
 74
     0
 49
0.5
 74
     0
 49
-3.0
 74
     0
  0
LTYPE
  5
33B
330
4
100
AcDbSymbolTableRecord
100
AcDbLinetypeTableRecord
  2
HIDDEN
 70
     0
  3
Hidden __ __ __ __ __ __ __ __ __ __ __ __ __ _
 72
    65
 73
     2
 40
9.524999999999998
 49
6.349999999999999
 74
     0
 49
-3.174999999999999
 74
     0
  0
LTYPE
  5
33C
330
4
100
AcDbSymbolTableRecord
100
AcDbLinetypeTableRecord
  2
PHANTOM2
 70
     0
  3
Phantom (.5x) ___ _ _ ___ _ _ ___ _ _ ___ _ _
 72
    65
 73
     6
 40
31.75
 49
15.875
 74
     0
 49
-3.174999999999999
 74
     0
 49
3.174999999999999
 74
     0
 49
-3.174999999999999
 74
     0
 49
3.174999999999999
 74
     0
 49
-3.174999999999999
 74
     0
  0
LTYPE
  5
33D
330
4
100
AcDbSymbolTableRecord
100
AcDbLinetypeTableRecord
  2
CENTER
 70
     0
  3
Center ____ _ ____ _ ____ _ ____ _ ____ _ ____
 72
    65
 73
     4
 40
50.8
 49
31.75
 74
     0
 49
-6.349999999999999
 74
     0
 49
6.349999999999999
 74
     0
 49
-6.349999999999999
 74
     0
  0
LTYPE
  5
38C
330
4
100
AcDbSymbolTableRecord
100
AcDbLinetypeTableRecord
  2
ASULTYPE
 70
     0
  3
実線
 72
    65
 73
     2
 40
3.0
 49
2.5
 74
     0
 49
0.5
 74
     0
  0
LTYPE
  5
38D
330
4
100
AcDbSymbolTableRecord
100
AcDbLinetypeTableRecord
  2
ASVLTYPE
 70
     0
  3
__ __ __ __ __ __ __ __ __ __ __ __ __ __ __ __ __ __ __ __ __
 72
    65
 73
     2
 40
0.75
 49
0.5
 74
     0
 49
-0.25
 74
     0
  0
LTYPE
  5
3D4
330
4
100
AcDbSymbolTableRecord
100
AcDbLinetypeTableRecord
  2
AM_ISO02W050
 70
     0
  3
__ __ __ __ __ __ __ __ __ __ __ __ __ __ __
 72
    65
 73
     2
 40
7.5
 49
6.0
 74
     0
 49
-1.5
 74
     0
  0
LTYPE
  5
3D5
330
4
100
AcDbSymbolTableRecord
100
AcDbLinetypeTableRecord
  2
AM_ISO08W050
 70
     0
  3
____ . ____ . ____ . ____ . ____ . ____ . ____
 72
    65
 73
     4
 40
18.0
 49
12.0
 74
     0
 49
-1.5
 74
     0
 49
3.0
 74
     0
 49
-1.5
 74
     0
  0
LTYPE
  5
3D6
330
4
100
AcDbSymbolTableRecord
100
AcDbLinetypeTableRecord
  2
AM_ISO09W050
 70
     0
  3
_____ . . _____ . . _____ . . ____ .. ____
 72
    65
 73
     6
 40
22.5
 49
12.0
 74
     0
 49
-1.5
 74
     0
 49
3.0
 74
     0
 49
-1.5
 74
     0
 49
3.0
 74
     0
 49
-1.5
 74
     0
  0
LTYPE
  5
3D7
330
4
100
AcDbSymbolTableRecord
100
AcDbLinetypeTableRecord
  2
Amconstr
 70
     0
  3
_______________________
 72
    65
 73
     2
 40
9999.0
 49
9999.0
 74
     0
 49
0.0
 74
     0
  0
LTYPE
  5
3D8
330
4
100
AcDbSymbolTableRecord
100
AcDbLinetypeTableRecord
  2
AM_ISO08W050x2
 70
     0
  3
__ . __ . __ . __ . __ . __
 72
    65
 73
     4
 40
9.0
 49
6.0
 74
     0
 49
-0.75
 74
     0
 49
1.5
 74
     0
 49
-0.75
 74
     0
  0
LTYPE
  5
3D9
330
4
100
AcDbSymbolTableRecord
100
AcDbLinetypeTableRecord
  2
AM_ISO02W050x2
 70
     0
  3
 _ _ _ _ _ _ _ _ _ _ _ _
 72
    65
 73
     2
 40
3.75
 49
3.0
 74
     0
 49
-0.75
 74
     0
  0
LTYPE
  5
3DC
330
4
100
AcDbSymbolTableRecord
100
AcDbLinetypeTableRecord
  2
Amzigzag
 70
     0
  3
/\/-/\/-/\/-/\/-/\/-/\/
 72
    65
 73
     2
 40
11.0001
 49
0.0001
 74
     4
 75
   136
340
3DB
 46
0.04
 50
0.0
 44
0.0
 45
0.0
 49
-11.0
 74
     0
  0
LTYPE
  5
3EB
330
4
100
AcDbSymbolTableRecord
100
AcDbLinetypeTableRecord
  2
ACISOWELD
 70
     0
  3
_ _ _ _ _
 72
    65
 73
     2
 40
2.0
 49
2.0
 74
     0
 49
-1.0
 74
     0
  0
LTYPE
  5
3EC
330
4
100
AcDbSymbolTableRecord
100
AcDbLinetypeTableRecord
  2
ACISOTGB
 70
     0
  3
__ . . __ . .
 72
    65
 73
     6
 40
9.0
 49
4.0
 74
     0
 49
-1.0
 74
     0
 49
1.0
 74
     0
 49
-1.0
 74
     0
 49
1.0
 74
     0
 49
-1.0
 74
     0
  0
LTYPE
  5
3ED
330
4
100
AcDbSymbolTableRecord
100
AcDbLinetypeTableRecord
  2
ACISOTGL
 70
     0
  3
_ _ _ _ _
 72
    65
 73
     2
 40
3.0
 49
2.0
 74
     0
 49
-1.0
 74
     0
  0
ENDTAB
  0
TABLE
  2
LAYER
  5
2
330
0
100
AcDbSymbolTable
 70
     3
  0
LAYER
  5
14
330
2
100
AcDbSymbolTableRecord
100
AcDbLayerTableRecord
  2
0
 70
     0
 62
     7
  6
CONTINUOUS
370
    -3
390
2F9
  0
LAYER
  5
24
330
2
100
AcDbSymbolTableRecord
100
AcDbLayerTableRecord
  2
FORMAT
 70
     0
 62
     7
  6
CONTINUOUS
370
    -3
390
2F9
  0
LAYER
  5
25
330
2
100
AcDbSymbolTableRecord
100
AcDbLayerTableRecord
  2
1
 70
     0
 62
     7
  6
CONTINUOUS
370
    -3
390
2F9
  0
ENDTAB
  0
TABLE
  2
STYLE
  5
3
330
0
100
AcDbSymbolTable
 70
     5
  0
STYLE
  5
17
330
3
100
AcDbSymbolTableRecord
100
AcDbTextStyleTableRecord
  2
STANDARD
 70
     0
 40
0.0
 41
1.0
 50
0.0
 71
     0
 42
0.0
  3
txt
  4

  0
STYLE
  5
2F3
330
3
100
AcDbSymbolTableRecord
100
AcDbTextStyleTableRecord
  2
CONVERTER_1
 70
     0
 40
0.0
 41
0.9
 50
0.0
 71
     0
 42
0.0
  3
txt
  4

  0
STYLE
  5
3DB
330
3
100
AcDbSymbolTableRecord
100
AcDbTextStyleTableRecord
  2

 70
     1
 40
0.0
 41
1.0
 50
0.0
 71
     0
 42
0.2
  3
genltshp.shx
  4

  0
STYLE
  5
3DD
330
3
100
AcDbSymbolTableRecord
100
AcDbTextStyleTableRecord
  2
ACISOTS
 70
     0
 40
1.0
 41
1.0
 50
0.0
 71
     0
 42
0.2
  3
isocp.shx
  4
extfont.shx
  0
STYLE
  5
3EA
330
3
100
AcDbSymbolTableRecord
100
AcDbTextStyleTableRecord
  2
ACISOGDT
 70
     0
 40
0.0
 41
1.0
 50
0.0
 71
     0
 42
0.2
  3
AMGDT
  4

  0
ENDTAB
  0
TABLE
  2
VIEW
  5
5
330
0
100
AcDbSymbolTable
 70
     0
  0
ENDTAB
  0
TABLE
  2
UCS
  5
6
330
0
100
AcDbSymbolTable
 70
     0
  0
ENDTAB
  0
TABLE
  2
APPID
  5
8
330
0
100
AcDbSymbolTable
 70
    16
  0
APPID
  5
16
330
8
100
AcDbSymbolTableRecord
100
AcDbRegAppTableRecord
  2
ACAD
 70
     0
  0
APPID
  5
307
330
8
100
AcDbSymbolTableRecord
100
AcDbRegAppTableRecord
  2
GENIUS_GENDIM_13
 70
     0
  0
APPID
  5
308
330
8
100
AcDbSymbolTableRecord
100
AcDbRegAppTableRecord
  2
GENIUS_GENDTOL_13
 70
     0
  0
APPID
  5
309
330
8
100
AcDbSymbolTableRecord
100
AcDbRegAppTableRecord
  2
GENIUS_GE3DTOL_13
 70
     0
  0
APPID
  5
30C
330
8
100
AcDbSymbolTableRecord
100
AcDbRegAppTableRecord
  2
MCAD_NO_VIS
 70
     0
  0
APPID
  5
30D
330
8
100
AcDbSymbolTableRecord
100
AcDbRegAppTableRecord
  2
ACAD_TEMP_GRAPHIC
 70
     0
  0
APPID
  5
33F
330
8
100
AcDbSymbolTableRecord
100
AcDbRegAppTableRecord
  2
AD_DRAW
 70
     0
  0
APPID
  5
342
330
8
100
AcDbSymbolTableRecord
100
AcDbRegAppTableRecord
  2
ACATTRIBSERVICES
 70
     0
  0
APPID
  5
38E
330
8
100
AcDbSymbolTableRecord
100
AcDbRegAppTableRecord
  2
ASURF_PCURVE_APPNAME
 70
     0
  0
APPID
  5
393
330
8
100
AcDbSymbolTableRecord
100
AcDbRegAppTableRecord
  2
AMG_3D2D_5.0
 70
     0
  0
APPID
  5
3C4
330
8
100
AcDbSymbolTableRecord
100
AcDbRegAppTableRecord
  2
DESIGNERASSEMBLIES
 70
     0
  0
APPID
  5
3CB
330
8
100
AcDbSymbolTableRecord
100
AcDbRegAppTableRecord
  2
ACADM_DIM_EDIT
 70
     0
  0
APPID
  5
3CC
330
8
100
AcDbSymbolTableRecord
100
AcDbRegAppTableRecord
  2
AMDT_DM_ADJ
 70
     0
  0
APPID
  5
3FA
330
8
100
AcDbSymbolTableRecord
100
AcDbRegAppTableRecord
  2
ACAD_DSTYLE_DIMARC_LENGTH_SYMBOL
 70
     0
  0
APPID
  5
3FB
330
8
100
AcDbSymbolTableRecord
100
AcDbRegAppTableRecord
  2
ACAD_DSTYLE_DIMJOGGED_JOGANGLE_SYMBOL
 70
     0
  0
APPID
  5
424
330
8
100
AcDbSymbolTableRecord
100
AcDbRegAppTableRecord
  2
DCO15
 70
     0
  0
ENDTAB
  0
TABLE
  2
DIMSTYLE
  5
9
330
0
100
AcDbSymbolTable
 70
     8
100
AcDbDimStyleTable
 71
     0
  0
DIMSTYLE
105
18
330
9
100
AcDbSymbolTableRecord
100
AcDbDimStyleTableRecord
  2
STANDARD
 70
     0
340
17
  0
DIMSTYLE
105
3F9
330
9
100
AcDbSymbolTableRecord
100
AcDbDimStyleTableRecord
  2
AM_ISO
 70
     0
  4
"
 41
2.5
 42
1.0
 43
10.0
 44
1.0
 47
0.1
 48
0.1
 73
     0
 74
     0
 77
     1
 78
     8
 79
     2
140
3.5
141
0.0
143
0.0393701
146
0.71
147
1.5
172
     1
176
   256
177
   256
178
     2
271
     2
272
     3
274
     4
283
     0
284
     8
340
17
371
    -1
372
    -1
1001
ACAD_DSTYLE_DIMARC_LENGTH_SYMBOL
1070
   379
1070
     1
1001
ACAD_DSTYLE_DIMJOGGED_JOGANGLE_SYMBOL
1070
   384
1040
0.7853981633974483
  0
DIMSTYLE
105
402
330
9
100
AcDbSymbolTableRecord
100
AcDbDimStyleTableRecord
  2
AM_ISO$3
 70
     0
  4
"
 41
2.5
 42
1.0
 43
10.0
 44
1.0
 47
0.1
 48
0.1
 73
     0
 77
     1
 78
     8
 79
     2
140
3.5
141
0.0
143
0.0393701
146
0.71
147
1.5
176
   256
177
   256
178
     2
271
     2
272
     3
274
     4
283
     0
284
     8
288
     1
289
     0
340
17
371
    -1
372
    -1
1001
ACAD_DSTYLE_DIMARC_LENGTH_SYMBOL
1070
   379
1070
     1
1001
ACAD_DSTYLE_DIMJOGGED_JOGANGLE_SYMBOL
1070
   384
1040
0.7853981633974483
  0
DIMSTYLE
105
405
330
9
100
AcDbSymbolTableRecord
100
AcDbDimStyleTableRecord
  2
AM_ISO$4
 70
     0
  4
"
 41
2.5
 42
1.0
 43
10.0
 44
1.0
 47
0.1
 48
0.1
 73
     0
 77
     1
 78
     8
 79
     2
140
3.5
141
0.0
143
0.0393701
146
0.71
147
1.5
176
   256
177
   256
178
     2
271
     2
272
     3
274
     4
283
     0
284
     8
288
     1
289
     0
340
17
371
    -1
372
    -1
1001
ACAD_DSTYLE_DIMARC_LENGTH_SYMBOL
1070
   379
1070
     1
1001
ACAD_DSTYLE_DIMJOGGED_JOGANGLE_SYMBOL
1070
   384
1040
0.7853981633974483
  0
DIMSTYLE
105
408
330
9
100
AcDbSymbolTableRecord
100
AcDbDimStyleTableRecord
  2
AM_ISO$6
 70
     0
  4
"
 41
2.5
 42
1.0
 43
10.0
 44
1.0
 47
0.1
 48
0.1
 73
     0
 74
     0
 78
     8
 79
     2
140
3.5
141
0.0
143
0.0393701
146
0.71
147
1.5
172
     1
176
   256
177
   256
178
     2
271
     2
272
     3
274
     4
283
     0
284
     8
340
17
371
    -1
372
    -1
1001
ACAD_DSTYLE_DIMARC_LENGTH_SYMBOL
1070
   379
1070
     1
1001
ACAD_DSTYLE_DIMJOGGED_JOGANGLE_SYMBOL
1070
   384
1040
0.7853981633974483
  0
DIMSTYLE
105
40B
330
9
100
AcDbSymbolTableRecord
100
AcDbDimStyleTableRecord
  2
AM_ISO$7
 70
     0
  4
"
 41
2.5
 42
1.0
 43
10.0
 44
1.0
 47
0.1
 48
0.1
 73
     0
 74
     0
 77
     1
 78
     8
 79
     2
140
5.0
141
0.0
143
0.0393701
146
0.71
147
1.5
172
     1
176
   256
177
   256
178
     2
271
     2
272
     3
274
     4
283
     0
284
     8
340
17
371
    -1
372
    -1
1001
ACAD_DSTYLE_DIMARC_LENGTH_SYMBOL
1070
   379
1070
     1
1001
ACAD_DSTYLE_DIMJOGGED_JOGANGLE_SYMBOL
1070
   384
1040
0.7853981633974483
  0
DIMSTYLE
105
40E
330
9
100
AcDbSymbolTableRecord
100
AcDbDimStyleTableRecord
  2
AM_ISO$SF
 70
     0
  4
"
 41
2.5
 42
1.0
 43
10.0
 44
1.0
 47
0.1
 48
0.1
 73
     0
 74
     0
 75
     1
 76
     1
 77
     1
 78
     8
 79
     2
140
3.5
141
0.0
143
0.0393701
146
0.71
147
1.5
172
     1
176
   256
177
   256
178
     2
271
     2
272
     3
274
     4
283
     0
284
     8
340
17
371
    -1
372
    -1
1001
ACAD_DSTYLE_DIMARC_LENGTH_SYMBOL
1070
   379
1070
     1
1001
ACAD_DSTYLE_DIMJOGGED_JOGANGLE_SYMBOL
1070
   384
1040
0.7853981633974483
  0
DIMSTYLE
105
415
330
9
100
AcDbSymbolTableRecord
100
AcDbDimStyleTableRecord
  2
AM_ISO$SH
 70
     0
  4
"
 41
2.5
 42
1.0
 43
10.0
 44
1.0
 47
0.1
 48
0.1
 73
     0
 74
     0
 75
     1
 76
     1
 77
     1
 78
     8
 79
     2
140
3.5
141
0.0
143
0.0393701
144
2.0
146
0.71
147
1.5
172
     1
173
     1
176
   256
177
   256
178
     2
271
     2
272
     3
274
     4
283
     0
284
     8
340
17
343
40F
371
    -1
372
    -1
1001
ACAD_DSTYLE_DIMARC_LENGTH_SYMBOL
1070
   379
1070
     1
1001
ACAD_DSTYLE_DIMJOGGED_JOGANGLE_SYMBOL
1070
   384
1040
0.7853981633974483
  0
ENDTAB
  0
TABLE
  2
BLOCK_RECORD
  5
1
330
0
100
AcDbSymbolTable
 70
     2
  0
BLOCK_RECORD
  5
A
102
{ACAD_XDICTIONARY
360
426
102
}
330
1
100
AcDbSymbolTableRecord
100
AcDbBlockTableRecord
  2
*MODEL_SPACE
340
300
  0
BLOCK_RECORD
  5
B
330
1
100
AcDbSymbolTableRecord
100
AcDbBlockTableRecord
  2
*PAPER_SPACE
340
301
  0
BLOCK_RECORD
  5
40F
330
1
100
AcDbSymbolTableRecord
100
AcDbBlockTableRecord
  2
GENAXEH
340
0
  0
ENDTAB
  0
ENDSEC
  0
SECTION
  2
BLOCKS
  0
BLOCK
  5
D
330
A
100
AcDbEntity
  8
0
100
AcDbBlockBegin
  2
*MODEL_SPACE
 70
     0
 10
0.0
 20
0.0
 30
0.0
  3
*MODEL_SPACE
  1

  0
ENDBLK
  5
E
330
A
100
AcDbEntity
  8
0
100
AcDbBlockEnd
  0
BLOCK
  5
F
330
B
100
AcDbEntity
 67
     1
  8
0
100
AcDbBlockBegin
  2
*PAPER_SPACE
 70
     0
 10
0.0
 20
0.0
 30
0.0
  3
*PAPER_SPACE
  1

  0
ENDBLK
  5
10
330
B
100
AcDbEntity
 67
     1
  8
0
100
AcDbBlockEnd
  0
BLOCK
  5
411
330
40F
100
AcDbEntity
  8
0
100
AcDbBlockBegin
  2
GENAXEH
 70
     0
 10
0.0
 20
0.0
 30
0.0
  3
GENAXEH
  1

  0
LINE
  5
410
330
40F
100
AcDbEntity
  8
0
100
AcDbLine
 10
-1.0
 20
0.0
 30
0.0
 11
1.0
 21
0.0
 31
0.0
  0
ENDBLK
  5
412
330
40F
100
AcDbEntity
  8
0
100
AcDbBlockEnd
  0
ENDSEC
  0
SECTION
  2
ENTITIES
  0
MTEXT
  5
2F4
330
A
100
AcDbEntity
  8
1
 62
     1
100
AcDbMText
 10
404.080180170503
 20
239.8840336469
 30
0.0
 40
3.174999999999999
 41
0.0
 71
     2
 72
     1
  1
LARGO S50  L Angle Strike
  7
CONVERTER_1
 73
     1
 44
1.0
1001
ACAD
1000
MTEXTBEGIN
1070
    73
1070
     1
1070
    44
1040
1.0
1070
    74
1070
     0
1000
MTEXTEND
  0
SPLINE
  5
2F2
330
A
100
AcDbEntity
  8
0
  6
Continuous
 62
     6
100
AcDbSpline
210
0.0
220
0.0
230
1.0
 70
     8
 71
     3
 72
    19
 73
    15
 74
    13
 42
0.0000000001
 43
0.0000000001
 44
0.00000000001
 40
0.0
 40
0.0
 40
0.0
 40
0.0
 40
0.0256427625821464
 40
0.0503382154803487
 40
0.0854910206618083
 40
0.1255570197740768
 40
0.1742964906657998
 40
0.2200558078488089
 40
0.2604537739956967
 40
0.302535938190312
 40
0.3311052310209549
 40
0.3556908713862153
 40
0.372733972701776
 40
0.3918407866409745
 40
0.3918407866409745
 40
0.3918407866409745
 40
0.3918407866409745
 10
186.743437221856
 20
348.7477877522621
 30
0.0
 10
186.7425255714415
 20
348.7392881890653
 30
0.0
 10
186.7407359493265
 20
348.7226030584238
 30
0.0
 10
186.7385163917198
 20
348.6941946127933
 30
0.0
 10
186.7312784203084
 20
348.6613986569379
 30
0.0
 10
186.7127749416324
 20
348.6241486050471
 30
0.0
 10
186.6872952961162
 20
348.5870165637827
 30
0.0
 10
186.654971843436
 20
348.5552948703357
 30
0.0
 10
186.6191913405512
 20
348.53154529825
 30
0.0
 10
186.5854702078967
 20
348.5160134115762
 30
0.0
 10
186.555249560672
 20
348.5059870656922
 30
0.0
 10
186.5320355507193
 20
348.502360619766
 30
0.0
 10
186.5118163055234
 20
348.5013106165214
 30
0.0
 10
186.499798150099
 20
348.5004312985296
 30
0.0
 10
186.493446028442
 20
348.499966540448
 30
0.0
 11
186.743437221856
 21
348.7477877522621
 31
0.0
 11
186.7408275349541
 21
348.7222781304084
 31
0.0
 11
186.7383142566068
 21
348.6977108996773
 31
0.0
 11
186.7303721520328
 21
348.6634670288818
 31
0.0
 11
186.7133452035904
 21
348.6271990359458
 31
0.0
 11
186.6854673653499
 21
348.5872195142148
 31
0.0
 11
186.6527296956371
 21
348.5552482757209
 31
0.0
 11
186.619173604163
 21
348.5327541788556
 31
0.0
 11
186.5810244786368
 21
348.5149903739453
 31
0.0
 11
186.55378012191
 21
348.506390983305
 31
0.0
 11
186.5295091505634
 21
348.5024700571309
 31
0.0
 11
186.5125069684078
 21
348.5012897586937
 31
0.0
 11
186.493446028442
 21
348.499966540448
 31
0.0
  0
SPLINE
  5
2F1
330
A
100
AcDbEntity
  8
0
  6
Continuous
 62
     6
100
AcDbSpline
210
0.0
220
0.0
230
1.0
 70
     8
 71
     3
 72
    19
 73
    15
 74
    13
 42
0.0000000001
 43
0.0000000001
 44
0.00000000001
 40
0.0
 40
0.0
 40
0.0
 40
0.0
 40
0.0256415503462333
 40
0.0503361674266746
 40
0.0854892586203372
 40
0.1255555220517538
 40
0.1742949422768799
 40
0.2200540786654542
 40
0.2604523480630914
 40
0.3025348044027639
 40
0.3311040398178696
 40
0.355689638013713
 40
0.3727328319749604
 40
0.3918396901998529
 40
0.3918396901998529
 40
0.3918396901998529
 40
0.3918396901998529
 10
186.743437221856
 20
362.2521494860569
 30
0.0
 10
186.7425254655854
 20
362.2606486310766
 30
0.0
 10
186.7407356238765
 20
362.2773330507359
 30
0.0
 10
186.7385154873921
 20
362.3057408652644
 30
0.0
 10
186.7312774173054
 20
362.338536613198
 30
0.0
 10
186.7127753703463
 20
362.3757874496657
 30
0.0
 10
186.6872968467885
 20
362.4129204772045
 30
0.0
 10
186.6549719862784
 20
362.4446409821327
 30
0.0
 10
186.6191905860899
 20
362.4683892002504
 30
0.0
 10
186.585470170886
 20
362.4839227525549
 30
0.0
 10
186.5552499247021
 20
362.493950776464
 30
0.0
 10
186.5320357652145
 20
362.497576762448
 30
0.0
 10
186.5118164314136
 20
362.4986256416496
 30
0.0
 10
186.4997981875204
 20
362.4995043827432
 30
0.0
 10
186.493446028442
 20
362.4999688352259
 30
0.0
 11
186.743437221856
 21
362.2521494860569
 31
0.0
 11
186.7408271910798
 21
362.2776578541644
 31
0.0
 11
186.7383135478055
 21
362.3022242073785
 31
0.0
 11
186.7303713612817
 21
362.3364683527714
 31
0.0
 11
186.7133454039693
 21
362.3727371029973
 31
0.0
 11
186.6854684459978
 21
362.4127171767609
 31
0.0
 11
186.652730010536
 21
362.4446873723584
 31
0.0
 11
186.6191731306091
 21
362.4671808376293
 31
0.0
 11
186.5810243618643
 21
362.4849461007805
 31
0.0
 11
186.5537804028264
 21
362.4935465605441
 31
0.0
 11
186.5295094112411
 21
362.497467097002
 31
0.0
 11
186.5125070781662
 21
362.4986465589176
 31
0.0
 11
186.493446028442
 21
362.4999688352259
 31
0.0
  0
SPLINE
  5
2F0
330
A
100
AcDbEntity
  8
0
  6
Continuous
 62
     6
100
AcDbSpline
210
0.0
220
0.0
230
1.0
 70
     8
 71
     3
 72
    19
 73
    15
 74
    13
 42
0.0000000001
 43
0.0000000001
 44
0.00000000001
 40
0.0
 40
0.0
 40
0.0
 40
0.0
 40
0.0191068509952349
 40
0.0361500484584333
 40
0.0607356181653507
 40
0.0893048185469394
 40
0.1313869622568555
 40
0.1717848593633409
 40
0.2175436847814531
 40
0.2662828106369801
 40
0.3063489414332361
 40
0.3415019540613733
 40
0.366196620686599
 40
0.3918381950893574
 40
0.3918381950893574
 40
0.3918381950893574
 40
0.3918381950893574
 10
207.511278709979
 20
362.4999688352259
 30
0.0
 10
207.5049265536183
 20
362.499504378865
 30
0.0
 10
207.492908311559
 20
362.4986256301921
 30
0.0
 10
207.4726889892355
 20
362.4975767336366
 30
0.0
 10
207.4494748517329
 20
362.4939507603694
 30
0.0
 10
207.4192546875365
 20
362.4839229048173
 30
0.0
 10
207.3855344548119
 20
362.4683894681924
 30
0.0
 10
207.3497537206787
 20
362.4446407942802
 30
0.0
 10
207.3174296816496
 20
362.4129199751405
 30
0.0
 10
207.2919512792844
 20
362.3757872145826
 30
0.0
 10
207.2734491388476
 20
362.3385366006265
 30
0.0
 10
207.2662110778255
 20
362.3057408989423
 30
0.0
 10
207.2639909657583
 20
362.2773330848629
 30
0.0
 10
207.2622011313062
 20
362.2606486396434
 30
0.0
 10
207.26128937921
 20
362.2521494860569
 30
0.0
 11
207.511278709979
 21
362.4999688352259
 31
0.0
 11
207.49221766837
 21
362.4986465464012
 31
0.0
 11
207.4752153326069
 21
362.4974670726332
 31
0.0
 11
207.450944366344
 21
362.4935465580657
 31
0.0
 11
207.4237004149389
 21
362.484946190499
 31
0.0
 11
207.3855519601413
 21
362.4671809937431
 31
0.0
 11
207.3519957145861
 21
362.4446872507272
 31
0.0
 11
207.3192579659306
 21
362.4127167969204
 31
0.0
 11
207.2913812345223
 21
362.3727369240447
 31
0.0
 11
207.2743552185153
 21
362.3364683478952
 31
0.0
 11
207.266413029005
 21
362.3022242838459
 31
0.0
 11
207.2638993962622
 21
362.2776578797507
 31
0.0
 11
207.26128937921
 21
362.2521494860569
 31
0.0
  0
SPLINE
  5
2EF
330
A
100
AcDbEntity
  8
0
  6
Continuous
 62
     6
100
AcDbSpline
210
0.0
220
0.0
230
1.0
 70
     8
 71
     3
 72
    19
 73
    15
 74
    13
 42
0.0000000001
 43
0.0000000001
 44
0.00000000001
 40
0.0
 40
0.0
 40
0.0
 40
0.0
 40
0.0191068067097419
 40
0.0361499115264429
 40
0.0607355234025446
 40
0.0893047811996054
 40
0.1313866327713632
 40
0.1717842266413389
 40
0.2175432328666695
 40
0.2662824093950601
 40
0.306348275873104
 40
0.341501002489313
 40
0.3661965049317954
 40
0.3918392915711826
 40
0.3918392915711826
 40
0.3918392915711826
 40
0.3918392915711826
 10
207.511278709979
 20
348.499966540448
 30
0.0
 10
207.5049265910399
 20
348.5004313024077
 30
0.0
 10
207.4929084374498
 20
348.501310627979
 30
0.0
 10
207.4726892037329
 20
348.5023606485786
 30
0.0
 10
207.4494752157632
 20
348.5059870817885
 30
0.0
 10
207.419254650535
 20
348.5160132593234
 30
0.0
 10
207.3855337003446
 20
348.5315450303256
 30
0.0
 10
207.3497538635208
 20
348.5552950581968
 30
0.0
 10
207.3174312323112
 20
348.5870170658253
 30
0.0
 10
207.2919517079863
 20
348.6241488401319
 30
0.0
 10
207.2734481358397
 20
348.6613986695071
 30
0.0
 10
207.2662101734946
 20
348.6941945791158
 30
0.0
 10
207.263990640307
 20
348.7226030242966
 30
0.0
 10
207.2622010254497
 20
348.7392881804982
 30
0.0
 10
207.26128937921
 20
348.7477877522621
 30
0.0
 11
207.511278709979
 21
348.499966540448
 31
0.0
 11
207.4922177781289
 21
348.5012897712102
 31
0.0
 11
207.4752155932866
 21
348.5024700815011
 31
0.0
 11
207.4509446472623
 21
348.5063909857852
 31
0.0
 11
207.4237002981722
 21
348.5149902842297
 31
0.0
 11
207.3855514865872
 21
348.5327540227538
 31
0.0
 11
207.3519960294784
 21
348.5552483973552
 31
0.0
 11
207.3192590465674
 21
348.5872198940454
 31
0.0
 11
207.2913814348912
 21
348.6271992148988
 31
0.0
 11
207.2743544277588
 21
348.6634670337573
 31
0.0
 11
207.2664123202
 21
348.6977108232099
 31
0.0
 11
207.2638990523865
 21
348.7222781048215
 31
0.0
 11
207.26128937921
 21
348.7477877522621
 31
0.0
  0
SPLINE
  5
2EE
330
A
100
AcDbEntity
  8
0
  6
Continuous
 62
     6
100
AcDbSpline
210
0.0
220
0.0
230
1.0
 70
     8
 71
     3
 72
    19
 73
    15
 74
    13
 42
0.0000000001
 43
0.0000000001
 44
0.00000000001
 40
0.0
 40
0.0
 40
0.0
 40
0.0
 40
0.0256880982407825
 40
0.0504686750009774
 40
0.0857315411106197
 40
0.1258889737219967
 40
0.1745992821120507
 40
0.2203098373263889
 40
0.2606257152694023
 40
0.302646490838923
 40
0.3311813828519907
 40
0.3557283342989944
 40
0.3727494299688595
 40
0.3918413440932729
 40
0.3918413440932729
 40
0.3918413440932729
 40
0.3918413440932729
 10
191.9434377016729
 20
348.7477877522621
 30
0.0
 10
191.9425208949621
 20
348.7392735307266
 30
0.0
 10
191.9407196709284
 20
348.7225458821658
 30
0.0
 10
191.9384825046444
 20
348.6940586012106
 30
0.0
 10
191.9312087138108
 20
348.6611705634377
 30
0.0
 10
191.9126324830098
 20
348.6238897724635
 30
0.0
 10
191.8870994462515
 20
348.5867904070542
 30
0.0
 10
191.8547832098628
 20
348.5551387311262
 30
0.0
 10
191.819033820941
 20
348.5314594914817
 30
0.0
 10
191.7853576885379
 20
348.5159738390123
 30
0.0
 10
191.7551769709677
 20
348.5059707210352
 30
0.0
 10
191.7319939887864
 20
348.5023526884366
 30
0.0
 10
191.7117997449957
 20
348.5013068143075
 30
0.0
 10
191.6997937395349
 20
348.5004300569536
 30
0.0
 10
191.693446508259
 20
348.499966540448
 30
0.0
 11
191.9434377016729
 21
348.7477877522621
 31
0.0
 11
191.9408127352204
 21
348.722234123511
 31
0.0
 11
191.9382805048444
 21
348.6975832656377
 31
0.0
 11
191.9302935398896
 21
348.6632368230697
 31
0.0
 11
191.9131852040038
 21
348.6269060614873
 31
0.0
 11
191.8852708281423
 21
348.5869876225935
 31
0.0
 11
191.8525337551636
 21
348.5550856021122
 31
0.0
 11
191.8190251607791
 21
348.53266810634
 31
0.0
 11
191.780920905551
 21
348.5149533861059
 31
0.0
 11
191.7537066192524
 21
348.5063730199448
 31
0.0
 11
191.7294731623829
 21
348.5024624709435
 31
0.0
 11
191.7124927686134
 21
348.5012860674258
 31
0.0
 11
191.693446508259
 21
348.499966540448
 31
0.0
  0
SPLINE
  5
2ED
330
A
100
AcDbEntity
  8
0
  6
Continuous
 62
     6
100
AcDbSpline
210
0.0
220
0.0
230
1.0
 70
     8
 71
     3
 72
    19
 73
    15
 74
    13
 42
0.0000000001
 43
0.0000000001
 44
0.00000000001
 40
0.0
 40
0.0
 40
0.0
 40
0.0
 40
0.0190925735928525
 40
0.0361141874028167
 40
0.0606611070428504
 40
0.089195852159229
 40
0.131216452923568
 40
0.1715322733284581
 40
0.2172432708587133
 40
0.2659541546960978
 40
0.3061119283955945
 40
0.3413749624069045
 40
0.3661555640433606
 40
0.3918436526571253
 40
0.3918436526571253
 40
0.3918436526571253
 40
0.3918436526571253
 10
202.311280092806
 20
348.499966540448
 30
0.0
 10
202.3049326382085
 20
348.5004300184242
 30
0.0
 10
202.2929262335322
 20
348.5013067012038
 30
0.0
 10
202.2727315977077
 20
348.5023523782856
 30
0.0
 10
202.2495484747746
 20
348.5059703783298
 30
0.0
 10
202.2193680329805
 20
348.5159740259035
 30
0.0
 10
202.1856923004372
 20
348.5314601556256
 30
0.0
 10
202.1499427022868
 20
348.5551391233662
 30
0.0
 10
202.117625611127
 20
348.5867903456314
 30
0.0
 10
202.0920911769712
 20
348.6238892594479
 30
0.0
 10
202.0735137399829
 20
348.6611699530842
 30
0.0
 10
202.0662404040912
 20
348.6940583725968
 30
0.0
 10
202.0640042627139
 20
348.7225457926284
 30
0.0
 10
202.0622035715908
 20
348.7392735043445
 30
0.0
 10
202.061287036747
 20
348.7477877522621
 30
0.0
 11
202.311280092806
 21
348.499966540448
 31
0.0
 11
202.2922331627141
 21
348.5012859420059
 31
0.0
 11
202.2752522414824
 21
348.5024622288836
 31
0.0
 11
202.2510188143095
 21
348.5063727622577
 31
0.0
 11
202.2238047927913
 21
348.5149534796909
 31
0.0
 11
202.1857009174143
 21
348.5326686023221
 31
0.0
 11
202.1521922320956
 21
348.5550858586917
 31
0.0
 11
202.1194541997567
 21
348.5869875284565
 31
0.0
 11
202.0915383548853
 21
348.6269056422563
 31
0.0
 11
202.0744291488581
 21
348.6632363710905
 31
0.0
 11
202.0664425979314
 21
348.6975830823155
 31
0.0
 11
202.0639111688951
 21
348.7222340474994
 31
0.0
 11
202.061287036747
 21
348.7477877522621
 31
0.0
  0
SPLINE
  5
2EC
330
A
100
AcDbEntity
  8
0
  6
Continuous
 62
     6
100
AcDbSpline
210
0.0
220
0.0
230
1.0
 70
     8
 71
     3
 72
    19
 73
    15
 74
    13
 42
0.0000000001
 43
0.0000000001
 44
0.00000000001
 40
0.0
 40
0.0
 40
0.0
 40
0.0
 40
0.0190926136653607
 40
0.0361143119482638
 40
0.060661194119582
 40
0.0891959018718388
 40
0.1312167989579402
 40
0.1715328985820249
 40
0.2172436964279701
 40
0.2659545435841371
 40
0.306112610973658
 40
0.3413759386559056
 40
0.3661556905204427
 40
0.3918425593334718
 40
0.3918425593334718
 40
0.3918425593334718
 40
0.3918425593334718
 10
202.311280092806
 20
362.4999688352259
 30
0.0
 10
202.3049326021818
 20
362.499505663687
 30
0.0
 10
202.2929261131535
 20
362.4986295593597
 30
0.0
 10
202.2727313912707
 20
362.497585008981
 30
0.0
 10
202.2495481135611
 20
362.493967466356
 30
0.0
 10
202.219368064074
 20
362.4839621354274
 30
0.0
 10
202.185693046258
 20
362.4684743431909
 30
0.0
 10
202.1499425598963
 20
362.4447967406861
 30
0.0
 10
202.1176240732623
 20
362.4131467108509
 30
0.0
 10
202.0920907569625
 20
362.3760468021941
 30
0.0
 10
202.0735147365869
 20
362.3387653105182
 30
0.0
 10
202.0662412975571
 20
362.3058770918106
 30
0.0
 10
202.0640045829804
 20
362.2773903071437
 30
0.0
 10
202.0622036756831
 20
362.2606633133855
 30
0.0
 10
202.061287036747
 20
362.2521494860569
 30
0.0
 11
202.311280092806
 21
362.4999688352259
 31
0.0
 11
202.2922330571376
 21
362.4986503782412
 31
0.0
 11
202.2752519931505
 21
362.4974749301129
 31
0.0
 11
202.2510185412657
 21
362.4935647850932
 31
0.0
 11
202.2238048984663
 21
362.4849829908697
 31
0.0
 11
202.1857013742401
 21
362.4672664101198
 31
0.0
 11
202.1521919199403
 21
362.444849801067
 31
0.0
 11
202.1194531380209
 21
362.4129491866819
 31
0.0
 11
202.0915381630793
 21
362.3730305092905
 31
0.0
 11
202.0744299315536
 21
362.3366989969282
 31
0.0
 11
202.0664432961693
 21
362.3023520038362
 31
0.0
 11
202.0639115072896
 21
362.2777019298498
 31
0.0
 11
202.061287036747
 21
362.2521494860569
 31
0.0
  0
SPLINE
  5
2EB
330
A
100
AcDbEntity
  8
0
  6
Continuous
 62
     3
100
AcDbSpline
210
0.0
220
0.0
230
1.0
 70
     8
 71
     3
 72
    17
 73
    13
 74
    11
 42
0.0000000001
 43
0.0000000001
 44
0.00000000001
 40
0.0
 40
0.0
 40
0.0
 40
0.0
 40
0.1383268627792485
 40
0.2790747151243531
 40
0.5035686770239863
 40
0.7545866862231005
 40
1.086746955245934
 40
1.417515727658626
 40
1.668114325655914
 40
1.891754662369505
 40
2.045196990314284
 40
2.202921400930661
 40
2.202921400930661
 40
2.202921400930661
 40
2.202921400930661
 10
195.2594191791719
 20
354.650674142948
 30
0.0
 10
195.2389222339094
 20
354.6093658142282
 30
0.0
 10
195.1975696069133
 20
354.5260261805654
 30
0.0
 10
195.1269264603117
 20
354.3738092843767
 30
0.0
 10
195.015230784133
 20
354.1991961066832
 30
0.0
 10
194.8165892350637
 20
354.0146848584839
 30
0.0
 10
194.5666337139644
 20
353.8393292424706
 30
0.0
 10
194.2959316254216
 20
353.6981432416173
 30
0.0
 10
194.0432828144404
 20
353.6042388731322
 30
0.0
 10
193.8356357636144
 20
353.5706525992505
 30
0.0
 10
193.6576176328049
 20
353.5614781771516
 30
0.0
 10
193.5541710313117
 20
353.5538386649534
 30
0.0
 10
193.5017359467449
 20
353.549966343752
 30
0.0
 11
195.2594191791719
 21
354.650674142948
 31
0.0
 11
195.1984694864887
 21
354.5264990410629
 31
0.0
 11
195.1364530554508
 21
354.4001506329959
 31
0.0
 11
195.0131813924144
 21
354.2125296426413
 31
0.0
 11
194.8335692981886
 21
354.0371741849272
 31
0.0
 11
194.5624525948387
 21
353.8452727063452
 31
0.0
 11
194.2688779426382
 21
353.6928853565132
 31
0.0
 11
194.032574908707
 21
353.6094555448565
 31
0.0
 11
193.8121414768737
 21
353.5717182644088
 31
0.0
 11
193.6590745155072
 21
353.5609919722662
 31
0.0
 11
193.5017359467449
 21
353.549966343752
 31
0.0
  0
SPLINE
  5
2EA
330
A
100
AcDbEntity
  8
0
  6
Continuous
 62
     3
100
AcDbSpline
210
0.0
220
0.0
230
1.0
 70
     8
 71
     3
 72
    13
 73
     9
 74
     7
 42
0.0000000001
 43
0.0000000001
 44
0.00000000001
 40
0.0
 40
0.0
 40
0.0
 40
0.0
 40
0.0167076745704073
 40
0.0547533238154823
 40
0.0947935918464978
 40
0.1132471140419767
 40
0.1226088257169947
 40
0.138075407975652
 40
0.138075407975652
 40
0.138075407975652
 40
0.138075407975652
 10
50.91055380424869
 20
289.560572125466
 30
0.0
 10
50.90508654124415
 20
289.5595418928115
 30
0.0
 10
50.88716957617457
 20
289.5561656801673
 30
0.0
 10
50.85590221230377
 20
289.5499081293522
 30
0.0
 10
50.82509572366864
 20
289.5452592062783
 30
0.0
 10
50.8032962829087
 20
289.5309714767389
 30
0.0
 10
50.80399858980187
 20
289.5157887881211
 30
0.0
 10
50.80299136551619
 20
289.5076652421647
 30
0.0
 10
50.80236392340079
 20
289.5026047457769
 30
0.0
 11
50.91055380424869
 21
289.560572125466
 31
0.0
 11
50.89413867732296
 21
289.5574592493742
 31
0.0
 11
50.85675919888634
 21
289.5503708067888
 31
0.0
 11
50.81814816269596
 21
289.5397684038395
 31
0.0
 11
50.80450718760952
 21
289.5273403597412
 31
0.0
 11
50.80369905227732
 21
289.5180135938081
 31
0.0
 11
50.80236392340079
 21
289.5026047457769
 31
0.0
  0
SPLINE
  5
2E9
330
A
100
AcDbEntity
  8
0
  6
Continuous
 62
     3
100
AcDbSpline
210
0.0
220
0.0
230
1.0
 70
     8
 71
     3
 72
    21
 73
    17
 74
    15
 42
0.0000000001
 43
0.0000000001
 44
0.00000000001
 40
0.0
 40
0.0
 40
0.0
 40
0.0
 40
0.5629149553027134
 40
1.061311202104096
 40
1.551025387347143
 40
2.106821337212304
 40
2.642113100879796
 40
3.130519979355522
 40
3.490300098782019
 40
3.865753641242602
 40
4.153583167319595
 40
4.443477828138059
 40
4.581735735257686
 40
4.693421038393464
 40
4.733924441388358
 40
4.777781563901972
 40
4.777781563901972
 40
4.777781563901972
 40
4.777781563901972
 10
55.80235915502919
 20
289.802604701818
 30
0.0
 10
55.61472578506261
 20
289.8012332959973
 30
0.0
 10
55.2609647141261
 20
289.7986476685478
 30
0.0
 10
54.7439629524737
 20
289.7959814736959
 30
0.0
 10
54.22936152987748
 20
289.7889365130293
 30
0.0
 10
53.70262984683788
 20
289.7738046140848
 30
0.0
 10
53.17647156893432
 20
289.7548999881692
 30
0.0
 10
52.71570701471414
 20
289.7356177976037
 30
0.0
 10
52.30840575008624
 20
289.7137412820598
 30
0.0
 10
51.96810828393598
 20
289.6913743930623
 30
0.0
 10
51.65137151937301
 20
289.6661879207598
 30
0.0
 10
51.41371158396847
 20
289.644383718965
 30
0.0
 10
51.2348506862295
 20
289.6242329122219
 30
0.0
 10
51.1394097974824
 20
289.6075300646186
 30
0.0
 10
51.07560139425373
 20
289.5934224385694
 30
0.0
 10
51.04810892198873
 20
289.5875140340986
 30
0.0
 10
51.03381620964419
 20
289.5844423887149
 30
0.0
 11
55.80235915502919
 21
289.802604701818
 31
0.0
 11
55.23945771036634
 21
289.7987046377245
 31
0.0
 11
54.74107342567777
 21
289.7952515809383
 31
0.0
 11
54.25141162290007
 21
289.7880890305026
 31
0.0
 11
53.69582244279407
 21
289.7729298472901
 31
0.0
 11
53.16087304901671
 21
289.7537877902562
 31
0.0
 11
52.67292090837358
 21
289.7327167821128
 31
0.0
 11
52.3136640369541
 21
289.7133200124736
 31
0.0
 11
51.93903248301721
 21
289.6884893592194
 31
0.0
 11
51.65210938065289
 21
289.6656646048649
 31
0.0
 11
51.36349811840967
 21
289.6384166016826
 31
0.0
 11
51.22625480530258
 21
289.6216976935696
 31
0.0
 11
51.11627539765366
 21
289.602251952912
 31
0.0
 11
51.07668486994596
 21
289.5937011769242
 31
0.0
 11
51.03381620964419
 21
289.5844423887149
 31
0.0
  0
SPLINE
  5
2E8
330
A
100
AcDbEntity
  8
0
  6
Continuous
 62
     3
100
AcDbSpline
210
0.0
220
0.0
230
1.0
 70
     8
 71
     3
 72
    21
 73
    17
 74
    15
 42
0.0000000001
 43
0.0000000001
 44
0.00000000001
 40
0.0
 40
0.0
 40
0.0
 40
0.0
 40
0.0090859478074577
 40
0.0254399447367698
 40
0.1202176452997546
 40
0.2346265975916028
 40
0.5013161412613863
 40
0.7729343200229199
 40
1.150872940336181
 40
1.511444141542766
 40
2.001733177836055
 40
2.537636169484888
 40
3.092891707254129
 40
3.582406088303457
 40
4.080958639387669
 40
4.643989028742983
 40
4.643989028742983
 40
4.643989028742983
 40
4.643989028742983
 10
51.16515504440679
 20
278.995333120675
 30
0.0
 10
51.16812678328265
 20
278.9947487422915
 30
0.0
 10
51.17644742020202
 20
278.9931125284263
 30
0.0
 10
51.21574513420732
 20
278.9852708351089
 30
0.0
 10
51.29002864821889
 20
278.9733558122887
 30
0.0
 10
51.44781179753127
 20
278.9567579596022
 30
0.0
 10
51.66459384061012
 20
278.9382390740389
 30
0.0
 10
51.96906439432526
 20
278.9141867445774
 30
0.0
 10
52.30502534877722
 20
278.8915737642803
 30
0.0
 10
52.71404490672351
 20
278.8695962036247
 30
0.0
 10
53.17590662812286
 20
278.8503575833312
 30
0.0
 10
53.70271458669588
 20
278.8314064684958
 30
0.0
 10
54.22940304109016
 20
278.816264662237
 30
0.0
 10
54.74380989942662
 20
278.8092246445172
 30
0.0
 10
55.26083564322386
 20
278.8065606946176
 30
0.0
 10
55.61468730222266
 20
278.8039757403297
 30
0.0
 10
55.80235915502919
 20
278.802604761423
 30
0.0
 11
51.16515504440679
 21
278.995333120675
 31
0.0
 11
51.17406967139777
 21
278.9935770246721
 31
0.0
 11
51.19011530422833
 21
278.9904161889233
 31
0.0
 11
51.28365767228221
 21
278.9751637168981
 31
0.0
 11
51.39734033020432
 21
278.9622927553069
 31
0.0
 11
51.6629806237691
 21
278.9386591534312
 31
0.0
 11
51.93376687430201
 21
278.9174167063957
 31
0.0
 11
52.31085361470995
 21
278.8920554971816
 31
0.0
 11
52.67089572428805
 21
278.8725293488128
 31
0.0
 11
53.16073068070627
 21
278.851433032069
 31
0.0
 11
53.69629098329229
 21
278.8322711231834
 31
0.0
 11
54.25133965068098
 21
278.817115627367
 31
0.0
 11
54.74080166521193
 21
278.8099556283849
 31
0.0
 11
55.23934226388792
 21
278.8065034313525
 31
0.0
 11
55.80235915502919
 21
278.802604761423
 31
0.0
  0
SPLINE
  5
2E7
330
A
100
AcDbEntity
  8
0
  6
Continuous
 62
     3
100
AcDbSpline
210
0.0
220
0.0
230
1.0
 70
     8
 71
     3
 72
    13
 73
     9
 74
     7
 42
0.0000000001
 43
0.0000000001
 44
0.00000000001
 40
0.0
 40
0.0
 40
0.0
 40
0.0
 40
0.0208784048296418
 40
0.0361774680517772
 40
0.0796295968188621
 40
0.1475183991898439
 40
0.2744527918943482
 40
0.388243097084377
 40
0.388243097084377
 40
0.388243097084377
 40
0.388243097084377
 10
50.80236392340079
 20
279.1026047174651
 30
0.0
 10
50.80681961098696
 20
279.0972660198263
 30
0.0
 10
50.81454029159511
 20
279.0880152861212
 30
0.0
 10
50.83047368546355
 20
279.0666314926913
 30
0.0
 10
50.86876666159808
 20
279.045108786149
 30
0.0
 10
50.94699918773065
 20
279.0306753445485
 30
0.0
 10
51.04856918365552
 20
279.014701119503
 30
0.0
 10
51.12773394639879
 20
279.0015497560173
 30
0.0
 10
51.16515504440679
 20
278.995333120675
 30
0.0
 11
50.80236392340079
 21
279.1026047174651
 31
0.0
 11
50.81557052234014
 21
279.0864339558045
 31
0.0
 11
50.82524791837554
 21
279.0745845110306
 31
0.0
 11
50.86181766266154
 21
279.0511166330428
 31
0.0
 11
50.92763151314503
 21
279.0344605058848
 31
0.0
 11
51.0528779272332
 21
279.013828593484
 31
0.0
 11
51.16515504440679
 21
278.995333120675
 31
0.0
  0
SPLINE
  5
2E6
330
A
100
AcDbEntity
  8
0
  6
Continuous
 62
     3
100
AcDbSpline
210
0.0
220
0.0
230
1.0
 70
     8
 71
     3
 72
    13
 73
     9
 74
     7
 42
0.0000000001
 43
0.0000000001
 44
0.00000000001
 40
0.0
 40
0.0
 40
0.0
 40
0.0
 40
0.031693933895424
 40
0.0587714907690208
 40
0.0794371797039003
 40
0.1030947448738729
 40
0.1194370809853269
 40
0.1316112299690224
 40
0.1316112299690224
 40
0.1316112299690224
 40
0.1316112299690224
 10
192.16283122322
 20
282.630924598762
 30
0.0
 10
192.1528934198056
 20
282.6273365136927
 30
0.0
 10
192.1344653028176
 20
282.620682965754
 30
0.0
 10
192.109846660839
 20
282.6109388801937
 30
0.0
 10
192.08680157509
 20
282.6045608679501
 30
0.0
 10
192.0665255002332
 20
282.6032647304473
 30
0.0
 10
192.0491508294881
 20
282.6029670430409
 30
0.0
 10
192.0396473829227
 20
282.6027131150512
 30
0.0
 10
192.0355902077849
 20
282.6026047090829
 30
0.0
 11
192.16283122322
 21
282.630924598762
 31
0.0
 11
192.1330800615762
 21
282.6199987657679
 31
0.0
 11
192.1076623026411
 21
282.6106643339717
 31
0.0
 11
192.0876567024314
 21
282.6054829577641
 31
0.0
 11
192.0640975300926
 21
282.6033275486426
 31
0.0
 11
192.0477604450264
 21
282.6029133009889
 31
0.0
 11
192.0355902077849
 21
282.6026047090829
 31
0.0
  0
SPLINE
  5
2E5
330
A
100
AcDbEntity
  8
0
  6
Continuous
 62
     3
100
AcDbSpline
210
0.0
220
0.0
230
1.0
 70
     8
 71
     3
 72
    15
 73
    11
 74
     9
 42
0.0000000001
 43
0.0000000001
 44
0.00000000001
 40
0.0
 40
0.0
 40
0.0
 40
0.0
 40
0.0385543927623371
 40
0.0756683516969998
 40
0.1137819917317425
 40
0.1562055315181568
 40
0.1893564003218876
 40
0.2186444638413383
 40
0.2285192872143719
 40
0.2353552890792419
 40
0.2353552890792419
 40
0.2353552890792419
 40
0.2353552890792419
 10
191.978827959508
 20
282.6026047090829
 30
0.0
 10
191.9915915590013
 20
282.6041248599225
 30
0.0
 10
192.016641896101
 20
282.6071083671215
 30
0.0
 10
192.0544230820134
 20
282.6102668401517
 30
0.0
 10
192.0930146684767
 20
282.6190985138666
 30
0.0
 10
192.1264343851713
 20
282.6377143562076
 30
0.0
 10
192.1550096833705
 20
282.657828346518
 30
0.0
 10
192.1733990993941
 20
282.6734898266191
 30
0.0
 10
192.1844011590803
 20
282.6841689335687
 30
0.0
 10
192.188429924272
 20
282.6880156896456
 30
0.0
 10
192.190077996463
 20
282.6895893062289
 30
0.0
 11
191.978827959508
 21
282.6026047090829
 31
0.0
 11
192.0171382951816
 21
282.6069359192892
 31
0.0
 11
192.0540173152644
 21
282.6111053107958
 31
0.0
 11
192.0909866558432
 21
282.6203744754756
 31
0.0
 11
192.1286491883847
 21
282.6399011334224
 31
0.0
 11
192.155741932644
 21
282.6590051463764
 31
0.0
 11
192.1780047313954
 21
282.6780356076548
 31
0.0
 11
192.1851391103611
 21
282.6848629624445
 31
0.0
 11
192.190077996463
 21
282.6895893062289
 31
0.0
  0
SPLINE
  5
2E4
330
A
100
AcDbEntity
  8
0
  6
Continuous
 62
     3
100
AcDbSpline
210
0.0
220
0.0
230
1.0
 70
     8
 71
     3
 72
    17
 73
    13
 74
    11
 42
0.0000000001
 43
0.0000000001
 44
0.00000000001
 40
0.0
 40
0.0
 40
0.0
 40
0.0
 40
0.3268539664401102
 40
0.6315710971841565
 40
0.9668113018805147
 40
1.349347452417064
 40
1.679873684013742
 40
1.975026942997812
 40
2.102676891034497
 40
2.218061454939006
 40
2.256811073029715
 40
2.290347896813605
 40
2.290347896813605
 40
2.290347896813605
 40
2.290347896813605
 10
193.5017359467449
 20
283.9903170801529
 30
0.0
 10
193.5795595816361
 20
284.0665658379911
 30
0.0
 10
193.729936090786
 20
284.2138992547191
 30
0.0
 10
193.9590593552576
 20
284.4405326192465
 30
0.0
 10
194.2061480194183
 20
284.6753550651475
 30
0.0
 10
194.4666706065937
 20
284.9083076150756
 30
0.0
 10
194.7227131087104
 20
285.126060187163
 30
0.0
 10
194.9204516871823
 20
285.2810079481971
 30
0.0
 10
195.0665478397865
 20
285.385218448673
 30
0.0
 10
195.1460986436456
 20
285.4352633534908
 30
0.0
 10
195.2000922351859
 20
285.4668537868542
 30
0.0
 10
195.2208402955386
 20
285.4791059201543
 30
0.0
 10
195.230466222972
 20
285.48479021758
 30
0.0
 11
193.5017359467449
 21
283.9903170801529
 31
0.0
 11
193.7350190061101
 21
284.2192549092483
 31
0.0
 11
193.9525025057753
 21
284.4326874680163
 31
0.0
 11
194.1957937704119
 21
284.6633286512346
 31
0.0
 11
194.4807119299864
 21
284.9185845009462
 31
0.0
 11
194.7331857008452
 21
285.1319025376938
 31
0.0
 11
194.9662678647266
 21
285.3129775253904
 31
0.0
 11
195.0706049589349
 21
285.3865185343985
 31
0.0
 11
195.1681993102092
 21
285.4480729021296
 31
0.0
 11
195.2015778944453
 21
285.4677554582789
 31
0.0
 11
195.230466222972
 21
285.48479021758
 31
0.0
  0
SPLINE
  5
2E3
330
A
100
AcDbEntity
  8
0
  6
Continuous
 62
     3
100
AcDbSpline
210
0.0
220
0.0
230
1.0
 70
     8
 71
     3
 72
    41
 73
    37
 74
    35
 42
0.0000000001
 43
0.0000000001
 44
0.00000000001
 40
0.0
 40
0.0
 40
0.0
 40
0.0
 40
0.0646715293948095
 40
0.1231342958847326
 40
0.1685848097846901
 40
0.2183179146446409
 40
0.2503759712643339
 40
0.278279006970096
 40
0.2865406846864786
 40
0.2931499127747002
 40
0.2952523323064096
 40
0.2979971318975228
 40
0.300555189087824
 40
0.3032714000997694
 40
0.3054579295166887
 40
0.307469714041635
 40
0.3091210194015893
 40
0.3108068633634073
 40
0.3127782982257632
 40
0.3145597372642185
 40
0.318001483688653
 40
0.3214684006922997
 40
0.3305414582012299
 40
0.3388399151092554
 40
0.3700845202786857
 40
0.4072063729749284
 40
0.5068729043102112
 40
0.608808222637097
 40
0.7999683457716383
 40
1.005917196344193
 40
1.299152515244143
 40
1.595705095907654
 40
1.84007091405443
 40
2.060347316651137
 40
2.216093657686648
 40
2.374149762757338
 40
2.374149762757338
 40
2.374149762757338
 40
2.374149762757338
 10
195.230466222972
 20
285.48479021758
 30
0.0
 10
195.2481399874078
 20
285.4971362949618
 30
0.0
 10
195.2817907539785
 20
285.5206431697734
 30
0.0
 10
195.328695633895
 20
285.5515822849692
 30
0.0
 10
195.3687449013264
 20
285.5838117363577
 30
0.0
 10
195.3963482114022
 20
285.6162839165262
 30
0.0
 10
195.4175960495003
 20
285.6460497002586
 30
0.0
 10
195.4291072645704
 20
285.6657255362291
 30
0.0
 10
195.4353114411079
 20
285.6785613845813
 30
0.0
 10
195.4376678728655
 20
285.6837106349334
 30
0.0
 10
195.4389997908878
 20
285.6872907656502
 30
0.0
 10
195.4397732581377
 20
285.6896354599701
 30
0.0
 10
195.4404962577684
 20
285.6922106616416
 30
0.0
 10
195.4409866491593
 20
285.6946508183185
 30
0.0
 10
195.4413383134311
 20
285.6969290863016
 30
0.0
 10
195.4415496568745
 20
285.6988684200173
 30
0.0
 10
195.4416411932649
 20
285.7006500913453
 30
0.0
 10
195.4416259832429
 20
285.7024202842188
 30
0.0
 10
195.4415298061949
 20
285.7042314730907
 30
0.0
 10
195.4412724050973
 20
285.7066167189399
 30
0.0
 10
195.4407626485642
 20
285.7094724604902
 30
0.0
 10
195.4394235306138
 20
285.7146303532335
 30
0.0
 10
195.4371775513073
 20
285.7212245714459
 30
0.0
 10
195.4300794021438
 20
285.7358177128138
 30
0.0
 10
195.4161202139474
 20
285.7573003351308
 30
0.0
 10
195.3836909487532
 20
285.8029481804516
 30
0.0
 10
195.330154806649
 20
285.8624276470609
 30
0.0
 10
195.2282426436277
 20
285.9450545588599
 30
0.0
 10
195.0727752618027
 20
286.0165129045632
 30
0.0
 10
194.8395015026977
 20
286.0204439499234
 30
0.0
 10
194.5760250911858
 20
285.9976399878353
 30
0.0
 10
194.2974649582037
 20
285.999687111926
 30
0.0
 10
194.0438671768593
 20
286.003178112608
 30
0.0
 10
193.8370434203106
 20
286.0034742743415
 30
0.0
 10
193.6590226272499
 20
286.0029355186205
 30
0.0
 10
193.5544214815055
 20
286.0027155486808
 30
0.0
 10
193.5017359467449
 20
286.0026047541591
 30
0.0
 11
195.230466222972
 21
285.48479021758
 31
0.0
 11
195.2836553813012
 21
285.5215777175017
 31
0.0
 11
195.331738136917
 21
285.5548334490084
 31
0.0
 11
195.3666797041968
 21
285.583899513238
 31
0.0
 11
195.3994799230901
 21
285.6212830304557
 31
0.0
 11
195.4179728853541
 21
285.6474694647478
 31
0.0
 11
195.4319114591086
 21
285.6716416711694
 31
0.0
 11
195.4355225993956
 21
285.6790723497734
 31
0.0
 11
195.4381803782457
 21
285.6851236395125
 31
0.0
 11
195.4389143377209
 21
285.6870937845264
 31
0.0
 11
195.4397724635521
 21
285.6897009946931
 31
0.0
 11
195.4404516876913
 21
285.6921672288989
 31
0.0
 11
195.4409990873247
 21
285.6948277092883
 31
0.0
 11
195.4413304274227
 21
285.6969889877596
 31
0.0
 11
195.4415416699101
 21
285.6989896510462
 31
0.0
 11
195.4416242778777
 21
285.7006388888446
 31
0.0
 11
195.4416152859849
 21
285.7023247088259
 31
0.0
 11
195.4415077087435
 21
285.7042932063631
 31
0.0
 11
195.4413179026431
 21
285.7060645049522
 31
0.0
 11
195.4407210350832
 21
285.7094541019144
 31
0.0
 11
195.4398702781297
 21
285.7128150134152
 31
0.0
 11
195.4369129308194
 21
285.7213925695617
 31
0.0
 11
195.4333668047978
 21
285.7288951942554
 31
0.0
 11
195.417034517466
 21
285.7555312927441
 31
0.0
 11
195.3954466779641
 21
285.7857305830212
 31
0.0
 11
195.328928436402
 21
285.8599514763593
 31
0.0
 11
195.2495488691896
 21
285.9239021873138
 31
0.0
 11
195.0749549799087
 21
286.0017428354518
 31
0.0
 11
194.8695741372969
 21
286.0170280747454
 31
0.0
 11
194.5767103820856
 21
286.002270936342
 31
0.0
 11
194.2801653016412
 21
286.0001618222106
 31
0.0
 11
194.035813301916
 21
286.0027605351293
 31
0.0
 11
193.8155375929028
 21
286.0033133096425
 31
0.0
 11
193.6597916488974
 21
286.0029616395859
 31
0.0
 11
193.5017359467449
 21
286.0026047541591
 31
0.0
  0
SPLINE
  5
2E2
330
A
100
AcDbEntity
  8
0
  6
Continuous
 62
     3
100
AcDbSpline
210
0.0
220
0.0
230
1.0
 70
     8
 71
     3
 72
    13
 73
     9
 74
     7
 42
0.0000000001
 43
0.0000000001
 44
0.00000000001
 40
0.0
 40
0.0
 40
0.0
 40
0.0
 40
0.0651975875831917
 40
0.1252780176016234
 40
0.2094017126298593
 40
0.3057918439841106
 40
0.4318590668811558
 40
0.5511994665487123
 40
0.5511994665487123
 40
0.5511994665487123
 40
0.5511994665487123
 10
197.9838022055329
 20
285.345747133234
 30
0.0
 10
197.9932637519434
 20
285.3261823187777
 30
0.0
 10
198.0114442371682
 20
285.2885882718094
 30
0.0
 10
198.0418328730491
 20
285.2257499832904
 30
0.0
 10
198.0767480634226
 20
285.1535512132609
 30
0.0
 10
198.1212389561744
 20
285.061550619098
 30
0.0
 10
198.1708403850581
 20
284.9589819489528
 30
0.0
 10
198.2064537710409
 20
284.8853386028233
 30
0.0
 10
198.223772368044
 20
284.84952624187
 30
0.0
 11
197.9838022055329
 21
285.345747133234
 31
0.0
 11
198.0121868490562
 21
285.2870526919407
 31
0.0
 11
198.0383436694539
 21
285.232964996317
 31
0.0
 11
198.074967906622
 21
285.1572321677877
 31
0.0
 11
198.1169322194864
 21
285.0704562847999
 31
0.0
 11
198.1718165816011
 21
284.956963326938
 31
0.0
 11
198.223772368044
 21
284.84952624187
 31
0.0
  0
SPLINE
  5
2E1
330
A
100
AcDbEntity
  8
0
  6
Continuous
 62
     3
100
AcDbSpline
210
0.0
220
0.0
230
1.0
 70
    24
 71
     3
 72
    19
 73
    15
 74
    13
 42
0.0000000001
 43
0.0000000001
 44
0.00000000001
 40
0.0
 40
0.0
 40
0.0
 40
0.0
 40
0.4208905633190625
 40
0.7956032351099509
 40
1.137635885923117
 40
1.531665320460433
 40
1.818228241903909
 40
2.05695703694721
 40
2.146069580335847
 40
2.237028505576091
 40
2.262097627591998
 40
2.27847267547969
 40
2.282088660635906
 40
2.287909388542033
 40
2.287909388542033
 40
2.287909388542033
 40
2.287909388542033
 10
194.904434403986
 20
282.852604750061
 30
0.0
 10
194.7641375495463
 20
282.852604750061
 30
0.0
 10
194.4989364711764
 20
282.8526047500611
 30
0.0
 10
194.119724509202
 20
282.8526047500609
 30
0.0
 10
193.7494662568215
 20
282.8526047500611
 30
0.0
 10
193.4085912545568
 20
282.852604750061
 30
0.0
 10
193.1021508708821
 20
282.852604750061
 30
0.0
 10
192.8973494509237
 20
282.8526047500611
 30
0.0
 10
192.7577493630329
 20
282.8526047500609
 30
0.0
 10
192.6893691661514
 20
282.8526047500611
 30
0.0
 10
192.6452348011034
 20
282.852604750061
 30
0.0
 10
192.6302147494168
 20
282.8526047500609
 30
0.0
 10
192.6216108291001
 20
282.852604750061
 30
0.0
 10
192.6184652580793
 20
282.8526047500609
 30
0.0
 10
192.616525015444
 20
282.852604750061
 30
0.0
 11
194.904434403986
 21
282.852604750061
 31
0.0
 11
194.4835438406669
 21
282.852604750061
 31
0.0
 11
194.108831168876
 21
282.852604750061
 31
0.0
 11
193.7667985180629
 21
282.852604750061
 31
0.0
 11
193.3727690835256
 21
282.852604750061
 31
0.0
 11
193.0862061620821
 21
282.852604750061
 31
0.0
 11
192.8474773670388
 21
282.852604750061
 31
0.0
 11
192.7583648236501
 21
282.852604750061
 31
0.0
 11
192.6674058984099
 21
282.852604750061
 31
0.0
 11
192.642336776394
 21
282.852604750061
 31
0.0
 11
192.6259617285063
 21
282.852604750061
 31
0.0
 11
192.6223457433501
 21
282.852604750061
 31
0.0
 11
192.616525015444
 21
282.852604750061
 31
0.0
  0
SPLINE
  5
2E0
330
A
100
AcDbEntity
  8
0
  6
Continuous
 62
     3
100
AcDbSpline
210
0.0
220
0.0
230
1.0
 70
     8
 71
     3
 72
    17
 73
    13
 74
    11
 42
0.0000000001
 43
0.0000000001
 44
0.00000000001
 40
0.0
 40
0.0
 40
0.0
 40
0.0
 40
0.0363702797323927
 40
0.0718983154172412
 40
0.1136322613667602
 40
0.1590472626089158
 40
0.2055077346737375
 40
0.2516681665384917
 40
0.2756351713527433
 40
0.2942601221936333
 40
0.303097527952084
 40
0.3138661959668471
 40
0.3138661959668471
 40
0.3138661959668471
 40
0.3138661959668471
 10
198.498575857491
 20
285.4526047571391
 30
0.0
 10
198.4874733643877
 20
285.4574742916009
 30
0.0
 10
198.4655254839501
 20
285.4671005943748
 30
0.0
 10
198.4307834531093
 20
285.4821901177046
 30
0.0
 10
198.3935311879255
 20
285.4990650411023
 30
0.0
 10
198.3534714566449
 20
285.5185368736666
 30
0.0
 10
198.3125784787257
 20
285.5396420911823
 30
0.0
 10
198.2784895415548
 20
285.5582991136915
 30
0.0
 10
198.2530270944898
 20
285.5734113476545
 30
0.0
 10
198.2392991292063
 20
285.5837516042409
 30
0.0
 10
198.2298304018355
 20
285.5922830039024
 30
0.0
 10
198.224913790728
 20
285.5965884686412
 30
0.0
 10
198.222213334054
 20
285.5989532521751
 30
0.0
 11
198.498575857491
 21
285.4526047571391
 31
0.0
 11
198.4652595816943
 21
285.4671932119871
 31
0.0
 11
198.4327148269082
 21
285.4814438349749
 31
0.0
 11
198.3947256122123
 21
285.498722197493
 31
0.0
 11
198.353865246843
 21
285.5185452366068
 31
0.0
 11
198.3125795647793
 21
285.5398541061457
 31
0.0
 11
198.2721674118744
 21
285.5621620277775
 31
0.0
 11
198.2517637482385
 21
285.5747361213829
 31
0.0
 11
198.2369298006534
 21
285.5859985719541
 31
0.0
 11
198.2302963773493
 21
285.5918378729232
 31
0.0
 11
198.222213334054
 21
285.5989532521751
 31
0.0
  0
SPLINE
  5
2DF
330
A
100
AcDbEntity
  8
0
  6
Continuous
 62
     3
100
AcDbSpline
210
0.0
220
0.0
230
1.0
 70
     8
 71
     3
 72
    17
 73
    13
 74
    11
 42
0.0000000001
 43
0.0000000001
 44
0.00000000001
 40
0.0
 40
0.0
 40
0.0
 40
0.0
 40
0.0276148350471485
 40
0.0538221682624934
 40
0.0871887291009725
 40
0.1240085920485898
 40
0.1714521837611344
 40
0.2193259253944876
 40
0.2576845452374667
 40
0.2918078532585667
 40
0.3197263059787911
 40
0.3500058270020713
 40
0.3500058270020713
 40
0.3500058270020713
 40
0.3500058270020713
 10
198.498575857491
 20
285.4526047571391
 30
0.0
 10
198.4977391309335
 20
285.4617725615874
 30
0.0
 10
198.4961083249742
 20
285.4796408962261
 30
0.0
 10
198.4942097244537
 20
285.5086348754746
 30
0.0
 10
198.4883750592799
 20
285.5404469768596
 30
0.0
 10
198.4727572368233
 20
285.57666397995
 30
0.0
 10
198.4502410740639
 20
285.6146238610636
 30
0.0
 10
198.4230441595304
 20
285.6500247467401
 30
0.0
 10
198.3948571214631
 20
285.6788649110335
 30
0.0
 10
198.3667914211937
 20
285.6974536593068
 30
0.0
 10
198.3393517849927
 20
285.7113785680242
 30
0.0
 10
198.3222857674223
 20
285.720605961711
 30
0.0
 10
198.313406577915
 20
285.7254068343731
 30
0.0
 11
198.498575857491
 21
285.4526047571391
 31
0.0
 11
198.4961864520105
 21
285.4801160249422
 31
0.0
 11
198.4939188322512
 21
285.5062250696372
 31
0.0
 11
198.4874381642523
 21
285.5389562218393
 31
0.0
 11
198.4735623470219
 21
285.5730614121139
 31
0.0
 11
198.4495338057908
 21
285.6139701349111
 31
0.0
 11
198.4202911569457
 21
285.6518747866902
 31
0.0
 11
198.3929448193138
 21
285.6787738858272
 31
0.0
 11
198.3647250891455
 21
285.6979584363701
 31
0.0
 11
198.3401068191731
 21
285.7111258501577
 31
0.0
 11
198.313406577915
 21
285.7254068343731
 31
0.0
  0
SPLINE
  5
2DE
330
A
100
AcDbEntity
  8
0
  6
Continuous
 62
     3
100
AcDbSpline
210
0.0
220
0.0
230
1.0
 70
     8
 71
     3
 72
    17
 73
    13
 74
    11
 42
0.0000000001
 43
0.0000000001
 44
0.00000000001
 40
0.0
 40
0.0
 40
0.0
 40
0.0
 40
0.0803424449518218
 40
0.1682365916804117
 40
0.2796727231055423
 40
0.3977362496324131
 40
0.49768812086029
 40
0.5903554194721825
 40
0.6319594385690765
 40
0.6690196147440349
 40
0.6762181674807439
 40
0.6794939347592567
 40
0.6794939347592567
 40
0.6794939347592567
 40
0.6794939347592567
 10
199.338075614184
 20
285.7526047131809
 30
0.0
 10
199.3646442581549
 20
285.7491929724243
 30
0.0
 10
199.4202788372361
 20
285.7420488080048
 30
0.0
 10
199.5129787286802
 20
285.7329195877189
 30
0.0
 10
199.6170789090899
 20
285.7084186266752
 30
0.0
 10
199.7127767412429
 20
285.6521184660575
 30
0.0
 10
199.7942011550474
 20
285.5881121139266
 30
0.0
 10
199.8509138089791
 20
285.5341900419464
 30
0.0
 10
199.8888580081156
 20
285.4914779662085
 30
0.0
 10
199.9066813884338
 20
285.4690597693298
 30
0.0
 10
199.9160619770412
 20
285.4562901336112
 30
0.0
 10
199.918137728331
 20
285.4534827468855
 30
0.0
 10
199.9187869044249
 20
285.4526047571391
 30
0.0
 11
199.338075614184
 21
285.7526047131809
 31
0.0
 11
199.4178109346684
 21
285.7427463599671
 31
0.0
 11
199.5050408909177
 21
285.7319613814374
 31
0.0
 11
199.6128757008974
 21
285.7038604002508
 31
0.0
 11
199.7162223533398
 21
285.6467774279657
 31
0.0
 11
199.7950755134778
 21
285.5853562939953
 31
0.0
 11
199.8619562353173
 21
285.5212142853095
 31
0.0
 11
199.8895587607104
 21
285.4900856008378
 31
0.0
 11
199.9125623776982
 21
285.461028927532
 31
0.0
 11
199.9168402290372
 21
285.4552393550587
 31
0.0
 11
199.9187869044249
 21
285.4526047571391
 31
0.0
  0
SPLINE
  5
2DD
330
A
100
AcDbEntity
  8
0
  6
Continuous
 62
     3
100
AcDbSpline
210
0.0
220
0.0
230
1.0
 70
     8
 71
     3
 72
    15
 73
    11
 74
     9
 42
0.0000000001
 43
0.0000000001
 44
0.00000000001
 40
0.0
 40
0.0
 40
0.0
 40
0.0
 40
0.0628438058524435
 40
0.1110739957283226
 40
0.1650753262758038
 40
0.237749008608334
 40
0.3104979863288138
 40
0.3645710150828463
 40
0.4129847891924731
 40
0.4760692849120203
 40
0.4760692849120203
 40
0.4760692849120203
 40
0.4760692849120203
 10
278.902362600366
 20
278.802604731202
 30
0.0
 10
278.9232943161026
 20
278.8031207393221
 30
0.0
 10
278.9602903139225
 20
278.8040327637125
 30
0.0
 10
279.0150561311964
 20
278.814265756145
 30
0.0
 10
279.0659300118671
 20
278.8446132682893
 30
0.0
 10
279.1150682101116
 20
278.8895364180063
 30
0.0
 10
279.1600834422751
 20
278.9386210111909
 30
0.0
 10
279.1905849189261
 20
278.9895327907752
 30
0.0
 10
279.2009239286547
 20
279.044454793541
 30
0.0
 10
279.2018427442959
 20
279.0815925800034
 30
0.0
 10
279.202362600088
 20
279.102604731445
 30
0.0
 11
278.902362600366
 21
278.802604731202
 31
0.0
 11
278.9651110749061
 21
278.8060649157214
 31
0.0
 11
279.0122109191281
 21
278.8164454691615
 31
0.0
 11
279.0594752600172
 21
278.842564921323
 31
0.0
 11
279.1142958585065
 21
278.8902741037206
 31
0.0
 11
279.1621448630183
 21
278.945072703398
 31
0.0
 11
279.1883856466324
 21
278.9923518078095
 31
0.0
 11
279.1988683617486
 21
279.0396170826667
 31
0.0
 11
279.202362600088
 21
279.102604731445
 31
0.0
  0
SPLINE
  5
2DC
330
A
100
AcDbEntity
  8
0
  6
Continuous
 62
     3
100
AcDbSpline
210
0.0
220
0.0
230
1.0
 70
    24
 71
     3
 72
    29
 73
    25
 74
    23
 42
0.0000000001
 43
0.0000000001
 44
0.00000000001
 40
0.0
 40
0.0
 40
0.0
 40
0.0
 40
0.1209807088512775
 40
0.2820226904989909
 40
0.4219921083128498
 40
0.5169108599544075
 40
0.6135078374888395
 40
0.7562141458810743
 40
0.9188063640090149
 40
1.035433264559117
 40
1.1745898112963
 40
1.36859576615592
 40
1.576690847070892
 40
1.726105321931754
 40
1.891993669378052
 40
2.123033742494328
 40
2.357906716906029
 40
2.514972100591705
 40
2.734726249021036
 40
3.062578831476287
 40
3.49607305724902
 40
3.824692333047721
 40
4.204222927550688
 40
4.70000000030302
 40
4.70000000030302
 40
4.70000000030302
 40
4.70000000030302
 10
278.902362600481
 20
278.802604731235
 30
0.0
 10
278.8620356975306
 20
278.8026047312351
 30
0.0
 10
278.7680281340308
 20
278.802604731235
 30
0.0
 10
278.6273640979266
 20
278.8026047312351
 30
0.0
 10
278.4953873808922
 20
278.8026047312349
 30
0.0
 10
278.3848923318957
 20
278.8026047312351
 30
0.0
 10
278.2734849860395
 20
278.802604731235
 30
0.0
 10
278.1395198180213
 20
278.8026047312349
 30
0.0
 10
277.998878008998
 20
278.8026047312351
 30
0.0
 10
277.8594194538595
 20
278.802604731235
 30
0.0
 10
277.7094896531439
 20
278.802604731235
 30
0.0
 10
277.5290704589732
 20
278.8026047312349
 30
0.0
 10
277.3452319554282
 20
278.8026047312351
 30
0.0
 10
277.1707659876875
 20
278.8026047312349
 30
0.0
 10
276.988651689213
 20
278.8026047312351
 30
0.0
 10
276.7780512242214
 20
278.8026047312349
 30
0.0
 10
276.5703917471504
 20
278.8026047312351
 30
0.0
 10
276.3664942449747
 20
278.8026047312349
 30
0.0
 10
276.1316035401181
 20
278.8026047312352
 30
0.0
 10
275.8045698878989
 20
278.8026047312349
 30
0.0
 10
275.44124785989
 20
278.8026047312351
 30
0.0
 10
275.0606998278652
 20
278.8026047312349
 30
0.0
 10
274.6593908468473
 20
278.8026047312351
 30
0.0
 10
274.3676216244288
 20
278.802604731235
 30
0.0
 10
274.202362600178
 20
278.802604731235
 30
0.0
 11
278.902362600481
 21
278.802604731235
 31
0.0
 11
278.7813818916297
 21
278.8026047312351
 31
0.0
 11
278.620339909982
 21
278.802604731235
 31
0.0
 11
278.4803704921682
 21
278.802604731235
 31
0.0
 11
278.3854517405266
 21
278.802604731235
 31
0.0
 11
278.2888547629922
 21
278.802604731235
 31
0.0
 11
278.1461484545999
 21
278.802604731235
 31
0.0
 11
277.983556236472
 21
278.802604731235
 31
0.0
 11
277.8669293359219
 21
278.802604731235
 31
0.0
 11
277.7277727891847
 21
278.802604731235
 31
0.0
 11
277.5337668343251
 21
278.802604731235
 31
0.0
 11
277.3256717534101
 21
278.802604731235
 31
0.0
 11
277.1762572785493
 21
278.802604731235
 31
0.0
 11
277.010368931103
 21
278.802604731235
 31
0.0
 11
276.7793288579867
 21
278.802604731235
 31
0.0
 11
276.544455883575
 21
278.802604731235
 31
0.0
 11
276.3873904998893
 21
278.802604731235
 31
0.0
 11
276.16763635146
 21
278.8026047312351
 31
0.0
 11
275.8397837690047
 21
278.802604731235
 31
0.0
 11
275.406289543232
 21
278.802604731235
 31
0.0
 11
275.0776702674333
 21
278.802604731235
 31
0.0
 11
274.6981396729303
 21
278.802604731235
 31
0.0
 11
274.202362600178
 21
278.802604731235
 31
0.0
  0
SPLINE
  5
2DB
330
A
100
AcDbEntity
  8
0
  6
Continuous
 62
     3
100
AcDbSpline
210
0.0
220
0.0
230
1.0
 70
     8
 71
     3
 72
    15
 73
    11
 74
     9
 42
0.0000000001
 43
0.0000000001
 44
0.00000000001
 40
0.0
 40
0.0
 40
0.0
 40
0.0
 40
0.0630844957195473
 40
0.111498269829174
 40
0.1655712985831568
 40
0.238320276303674
 40
0.3109939586360493
 40
0.364995289183338
 40
0.4132254790592171
 40
0.4760692849116889
 40
0.4760692849116889
 40
0.4760692849116889
 40
0.4760692849116889
 10
279.202362600088
 20
289.5026047317971
 30
0.0
 10
279.2018427442958
 20
289.5236168832386
 30
0.0
 10
279.2009239286546
 20
289.5607546697011
 30
0.0
 10
279.1905849189263
 20
289.6156766724669
 30
0.0
 10
279.1600834422749
 20
289.6665884520512
 30
0.0
 10
279.1150682101116
 20
289.7156730452357
 30
0.0
 10
279.0659300118672
 20
289.7605961949527
 30
0.0
 10
279.0150561311962
 20
289.7909437070964
 30
0.0
 10
278.9602903139225
 20
289.801176699529
 30
0.0
 10
278.9232943161025
 20
289.8020887239196
 30
0.0
 10
278.902362600366
 20
289.80260473204
 30
0.0
 11
279.202362600088
 21
289.5026047317971
 31
0.0
 11
279.1988683617486
 21
289.5655923805754
 31
0.0
 11
279.1883856466324
 21
289.6128576554326
 31
0.0
 11
279.1621448630183
 21
289.660136759844
 31
0.0
 11
279.1142958585065
 21
289.7149353595215
 31
0.0
 11
279.0594752600172
 21
289.7626445419188
 31
0.0
 11
279.0122109191281
 21
289.7887639940799
 31
0.0
 11
278.9651110749061
 21
289.7991445475201
 31
0.0
 11
278.902362600366
 21
289.80260473204
 31
0.0
  0
SPLINE
  5
2DA
330
A
100
AcDbEntity
  8
0
  6
Continuous
 62
     3
100
AcDbSpline
210
0.0
220
0.0
230
1.0
 70
    24
 71
     3
 72
    41
 73
    37
 74
    35
 42
0.0000000001
 43
0.0000000001
 44
0.00000000001
 40
0.0
 40
0.0
 40
0.0
 40
0.0
 40
0.0697219948610837
 40
0.1354635988624295
 40
0.2195286896898096
 40
0.3126366542668961
 40
0.4247495759858566
 40
0.5274483826545975
 40
0.6458190278731309
 40
0.7696838644258151
 40
0.9345198746981964
 40
1.099308386345001
 40
1.303112540262134
 40
1.511663433303738
 40
1.731902913721114
 40
1.938817775270706
 40
2.171592657914004
 40
2.416221934985287
 40
2.722863370772813
 40
3.038510326241976
 40
3.343687146166871
 40
3.641894511227746
 40
3.853384847951531
 40
4.056704561974356
 40
4.178632367740135
 40
4.297071814388289
 40
4.376874805387217
 40
4.461086655738654
 40
4.523907433068018
 40
4.585947300561485
 40
4.627121981010873
 40
4.670061071500015
 40
4.685600820011472
 40
4.694907812508063
 40
4.696846119682732
 40
4.70000000030302
 40
4.70000000030302
 40
4.70000000030302
 40
4.70000000030302
 10
274.202362600178
 20
289.8026047316209
 30
0.0
 10
274.2256032651317
 20
289.8026047316209
 30
0.0
 10
274.2707577980858
 20
289.8026047316209
 30
0.0
 10
274.3439340279824
 20
289.8026047316209
 30
0.0
 10
274.4249055811177
 20
289.8026047316209
 30
0.0
 10
274.5213342401588
 20
289.8026047316209
 30
0.0
 10
274.6239741378138
 20
289.802604731621
 30
0.0
 10
274.7350349290158
 20
289.8026047316209
 30
0.0
 10
274.8500130251625
 20
289.8026047316209
 30
0.0
 10
274.9857035225104
 20
289.8026047316209
 30
0.0
 10
275.136866642001
 20
289.8026047316209
 30
0.0
 10
275.3146762006131
 20
289.8026047316209
 30
0.0
 10
275.5070573868149
 20
289.8026047316209
 30
0.0
 10
275.7179222292737
 20
289.802604731621
 30
0.0
 10
275.9298239742765
 20
289.8026047316209
 30
0.0
 10
276.14980038248
 20
289.802604731621
 30
0.0
 10
276.3779067229013
 20
289.8026047316209
 30
0.0
 10
276.6392552547354
 20
289.8026047316211
 30
0.0
 10
276.9282278108447
 20
289.802604731621
 30
0.0
 10
277.2373828812385
 20
289.8026047316209
 30
0.0
 10
277.5437265947235
 20
289.8026047316209
 30
0.0
 10
277.8153514352935
 20
289.802604731621
 30
0.0
 10
278.0530239072291
 20
289.8026047316209
 30
0.0
 10
278.2319365260666
 20
289.8026047316208
 30
0.0
 10
278.3798321815456
 20
289.8026047316209
 30
0.0
 10
278.4865555960166
 20
289.802604731621
 30
0.0
 10
278.5807070253494
 20
289.8026047316209
 30
0.0
 10
278.6563188982427
 20
289.8026047316209
 30
0.0
 10
278.7260097299673
 20
289.8026047316209
 30
0.0
 10
278.7813548383915
 20
289.8026047316209
 30
0.0
 10
278.8300727178688
 20
289.8026047316209
 30
0.0
 10
278.8632905576853
 20
289.8026047316208
 30
0.0
 10
278.8858858348512
 20
289.8026047316211
 30
0.0
 10
278.8948141842454
 20
289.8026047316207
 30
0.0
 10
278.8996139110093
 20
289.8026047316211
 30
0.0
 10
278.9013113069409
 20
289.802604731621
 30
0.0
 10
278.902362600481
 20
289.8026047316209
 30
0.0
 11
274.202362600178
 21
289.8026047316209
 31
0.0
 11
274.2720845950391
 21
289.8026047316209
 31
0.0
 11
274.3378261990404
 21
289.8026047316209
 31
0.0
 11
274.4218912898678
 21
289.8026047316209
 31
0.0
 11
274.5149992544449
 21
289.8026047316209
 31
0.0
 11
274.6271121761639
 21
289.8026047316209
 31
0.0
 11
274.7298109828326
 21
289.8026047316209
 31
0.0
 11
274.8481816280511
 21
289.8026047316209
 31
0.0
 11
274.9720464646038
 21
289.8026047316209
 31
0.0
 11
275.1368824748762
 21
289.8026047316209
 31
0.0
 11
275.301670986523
 21
289.8026047316209
 31
0.0
 11
275.5054751404401
 21
289.8026047316209
 31
0.0
 11
275.7140260334817
 21
289.8026047316209
 31
0.0
 11
275.9342655138991
 21
289.8026047316209
 31
0.0
 11
276.1411803754487
 21
289.8026047316209
 31
0.0
 11
276.373955258092
 21
289.8026047316209
 31
0.0
 11
276.6185845351633
 21
289.8026047316209
 31
0.0
 11
276.9252259709508
 21
289.8026047316209
 31
0.0
 11
277.24087292642
 21
289.8026047316209
 31
0.0
 11
277.5460497463448
 21
289.8026047316209
 31
0.0
 11
277.8442571114057
 21
289.8026047316209
 31
0.0
 11
278.0557474481295
 21
289.8026047316209
 31
0.0
 11
278.2590671621524
 21
289.8026047316209
 31
0.0
 11
278.3809949679181
 21
289.8026047316209
 31
0.0
 11
278.4994344145663
 21
289.8026047316209
 31
0.0
 11
278.5792374055652
 21
289.8026047316209
 31
0.0
 11
278.6634492559167
 21
289.8026047316209
 31
0.0
 11
278.726270033246
 21
289.8026047316209
 31
0.0
 11
278.7883099007395
 21
289.8026047316209
 31
0.0
 11
278.8294845811889
 21
289.8026047316209
 31
0.0
 11
278.872423671678
 21
289.8026047316209
 31
0.0
 11
278.8879634201895
 21
289.8026047316209
 31
0.0
 11
278.8972704126861
 21
289.8026047316209
 31
0.0
 11
278.8992087198607
 21
289.8026047316209
 31
0.0
 11
278.902362600481
 21
289.8026047316209
 31
0.0
  0
SPLINE
  5
2D9
330
A
100
AcDbEntity
  8
0
  6
Continuous
 62
     3
100
AcDbSpline
210
0.0
220
0.0
230
1.0
 70
     8
 71
     3
 72
    17
 73
    13
 74
    11
 42
0.0000000001
 43
0.0000000001
 44
0.00000000001
 40
0.0
 40
0.0
 40
0.0
 40
0.0
 40
0.0016221241609414
 40
0.0043603096226505
 40
0.01109662630004
 40
0.0175267662744486
 40
0.0275456310863448
 40
0.0390327010130918
 40
0.0481798171903678
 40
0.0549787173510793
 40
0.0596450144195191
 40
0.0655943131731593
 40
0.0655943131731593
 40
0.0655943131731593
 40
0.0655943131731593
 10
192.190077996463
 20
282.6895893062289
 30
0.0
 10
192.1899792238469
 20
282.6890576929562
 30
0.0
 10
192.1897137206265
 20
282.6876287034099
 30
0.0
 10
192.1890526918244
 20
282.6839895061869
 30
0.0
 10
192.1879598904875
 20
282.678798662214
 30
0.0
 10
192.1858569915097
 20
282.6713554113881
 30
0.0
 10
192.1825732174174
 20
282.6626277087378
 30
0.0
 10
192.1783129711598
 20
282.653338373438
 30
0.0
 10
192.1741207511031
 20
282.6451976491341
 30
0.0
 10
192.1702072963529
 20
282.639522206622
 30
0.0
 10
192.1663748516677
 20
282.6351587211109
 30
0.0
 10
192.1641039209852
 20
282.6324452881149
 30
0.0
 10
192.16283122322
 20
282.630924598762
 30
0.0
 11
192.190077996463
 21
282.6895893062289
 31
0.0
 11
192.1897824755844
 21
282.6879943284222
 31
0.0
 11
192.1892836290766
 21
282.6853019666738
 31
0.0
 11
192.1878630650673
 21
282.6787171386371
 31
0.0
 11
192.1861150053904
 21
282.6725291674464
 31
0.0
 11
192.1826457442312
 21
282.663130131372
 31
0.0
 11
192.1778992950584
 21
282.6526695388576
 31
0.0
 11
192.1735675343144
 21
282.6446131387175
 31
0.0
 11
192.1696805921669
 21
282.6390349020662
 31
0.0
 11
192.1666698153087
 21
282.6354698563385
 31
0.0
 11
192.16283122322
 21
282.630924598762
 31
0.0
  0
SPLINE
  5
2D8
330
A
100
AcDbEntity
  8
0
  6
Continuous
 62
     3
100
AcDbSpline
210
0.0
220
0.0
230
1.0
 70
     8
 71
     3
 72
    17
 73
    13
 74
    11
 42
0.0000000001
 43
0.0000000001
 44
0.00000000001
 40
0.0
 40
0.0
 40
0.0
 40
0.0
 40
0.2761686085716521
 40
0.5391388519277718
 40
0.8515037351040366
 40
1.195913271484009
 40
1.570994595975883
 40
1.937320127435762
 40
2.183549979194749
 40
2.404239417608486
 40
2.553657593071733
 40
2.712084899751165
 40
2.712084899751165
 40
2.712084899751165
 40
2.712084899751165
 10
197.942023074836
 20
285.432265603432
 30
0.0
 10
197.849975223584
 20
285.4335058828088
 30
0.0
 10
197.6702785770204
 20
285.4359271674097
 30
0.0
 10
197.3864678985125
 20
285.4396081980582
 30
0.0
 10
197.0799209052266
 20
285.444260532268
 30
0.0
 10
196.7360338924228
 20
285.450978410212
 30
0.0
 10
196.374176877521
 20
285.4586702960055
 30
0.0
 10
196.0450457128975
 20
285.4659792668352
 30
0.0
 10
195.7673703494075
 20
285.4723429756882
 30
0.0
 10
195.5619792257272
 20
285.4770835056088
 30
0.0
 10
195.3858485763674
 20
285.4811810964603
 30
0.0
 10
195.2832610854304
 20
285.483563932555
 30
0.0
 10
195.230466222972
 20
285.48479021758
 30
0.0
 11
197.942023074836
 21
285.432265603432
 31
0.0
 11
197.6658792136577
 21
285.4359626690218
 31
0.0
 11
197.4029325349931
 21
285.4394830482669
 31
0.0
 11
197.0906050139705
 21
285.4443141820425
 31
0.0
 11
196.7462579403209
 21
285.450873268749
 31
0.0
 11
196.3712602234325
 21
285.4587923792502
 31
0.0
 11
196.0050248642715
 21
285.4669199065216
 31
0.0
 11
195.7588592748376
 21
285.4725450710461
 31
0.0
 11
195.5382286503113
 21
285.477639749493
 31
0.0
 11
195.3888507869458
 21
285.4811103539267
 31
0.0
 11
195.230466222972
 21
285.48479021758
 31
0.0
  0
SPLINE
  5
2D7
330
A
100
AcDbEntity
  8
0
  6
Continuous
 62
     3
100
AcDbSpline
210
0.0
220
0.0
230
1.0
 70
     8
 71
     3
 72
    13
 73
     9
 74
     7
 42
0.0000000001
 43
0.0000000001
 44
0.00000000001
 40
0.0
 40
0.0
 40
0.0
 40
0.0
 40
0.0473724335439172
 40
0.0948618177976343
 40
0.1383840768649838
 40
0.1809927069499879
 40
0.2206014801894991
 40
0.2603496706862329
 40
0.2603496706862329
 40
0.2603496706862329
 40
0.2603496706862329
 10
198.00872812292
 20
285.4539194353681
 30
0.0
 10
198.0228981162542
 20
285.4608934499776
 30
0.0
 10
198.051273085098
 20
285.4748586962973
 30
0.0
 10
198.0929750219118
 20
285.4945060571127
 30
0.0
 10
198.1320991390127
 20
285.5161606103816
 30
0.0
 10
198.1642794239025
 20
285.5432959865201
 30
0.0
 10
198.1933329192808
 20
285.5717031010814
 30
0.0
 10
198.2125752605766
 20
285.5898592360201
 30
0.0
 10
198.222213334054
 20
285.5989532521751
 30
0.0
 11
198.00872812292
 21
285.4539194353681
 31
0.0
 11
198.0512908646228
 21
285.4747175237084
 31
0.0
 11
198.0939586831074
 21
285.4955669573353
 31
0.0
 11
198.1315557434063
 21
285.5174906452369
 31
0.0
 11
198.1646559439578
 21
285.5443210772344
 31
0.0
 11
198.1933840795269
 21
285.5715891747892
 31
0.0
 11
198.222213334054
 21
285.5989532521751
 31
0.0
  0
SPLINE
  5
2D6
330
A
100
AcDbEntity
  8
0
  6
Continuous
 62
     3
100
AcDbSpline
210
0.0
220
0.0
230
1.0
 70
     8
 71
     3
 72
    17
 73
    13
 74
    11
 42
0.0000000001
 43
0.0000000001
 44
0.00000000001
 40
0.0
 40
0.0
 40
0.0
 40
0.0
 40
0.0020416041454865
 40
0.0039899653586345
 40
0.0070177334459294
 40
0.0100395820710355
 40
0.0173942263085454
 40
0.0263250369188847
 40
0.037627356569943
 40
0.0469806700108863
 40
0.0575462551951728
 40
0.0702076737196016
 40
0.0702076737196016
 40
0.0702076737196016
 40
0.0702076737196016
 10
197.941963470191
 20
285.4322661855089
 30
0.0
 10
197.9425951937829
 20
285.4325192761257
 30
0.0
 10
197.9438297892619
 20
285.4330138983548
 30
0.0
 10
197.9459993631845
 20
285.4338884932433
 30
0.0
 10
197.948482982546
 20
285.4348582947957
 30
0.0
 10
197.9526889622814
 20
285.43636730726
 30
0.0
 10
197.9588005952388
 20
285.438386379994
 30
0.0
 10
197.9675815848518
 20
285.4411178100532
 30
0.0
 10
197.9770144767287
 20
285.4439958246338
 30
0.0
 10
197.986950489322
 20
285.4470915653822
 30
0.0
 10
197.9973122668637
 20
285.4503435390573
 30
0.0
 10
198.0047006142598
 20
285.4526578608275
 30
0.0
 10
198.00872812292
 20
285.4539194353681
 30
0.0
 11
197.941963470191
 21
285.4322661855089
 31
0.0
 11
197.9438583597653
 21
285.4330261466842
 31
0.0
 11
197.9456667070681
 21
285.4337513993638
 31
0.0
 11
197.9484897432333
 21
285.4348458610584
 31
0.0
 11
197.951331854663
 21
285.4358724923135
 31
0.0
 11
197.9583074721277
 21
285.4382030615245
 31
0.0
 11
197.9668288478236
 21
285.4408761747667
 31
0.0
 11
197.9776322857192
 21
285.4441970419923
 31
0.0
 11
197.9865637776973
 21
285.446974257031
 31
0.0
 11
197.9966459768668
 21
285.4501335053898
 31
0.0
 11
198.00872812292
 21
285.4539194353681
 31
0.0
  0
SPLINE
  5
2D5
330
A
100
AcDbEntity
  8
0
  6
Continuous
 62
     3
100
AcDbSpline
210
0.0
220
0.0
230
1.0
 70
     8
 71
     3
 72
    21
 73
    17
 74
    15
 42
0.0000000001
 43
0.0000000001
 44
0.00000000001
 40
0.0
 40
0.0
 40
0.0
 40
0.0
 40
0.0981453730916982
 40
0.1849619492346991
 40
0.268796234552388
 40
0.3638369253643371
 40
0.4540099521058968
 40
0.5358961768238898
 40
0.5951173585008675
 40
0.6545499623918462
 40
0.7140015114914763
 40
0.7804546530546736
 40
0.8259987947520791
 40
0.8610490338388268
 40
0.8868244189480943
 40
0.9190093349189595
 40
0.9190093349189595
 40
0.9190093349189595
 40
0.9190093349189595
 10
198.498575857491
 20
284.7268747840841
 30
0.0
 10
198.4738756062389
 20
284.7483269867535
 30
0.0
 10
198.4273262226637
 20
284.7887551913253
 30
0.0
 10
198.3590323140143
 20
284.8467550773215
 30
0.0
 10
198.2940372964262
 20
284.9070090373217
 30
0.0
 10
198.2331250970268
 20
284.972923331238
 30
0.0
 10
198.1751391293168
 20
285.0404862971556
 30
0.0
 10
198.1268928720138
 20
285.1006610688969
 30
0.0
 10
198.0880797085259
 20
285.155124720114
 30
0.0
 10
198.0564396888266
 20
285.205403296794
 30
0.0
 10
198.0277779313686
 20
285.2602604544461
 30
0.0
 10
198.0048410051042
 20
285.3124189711407
 30
0.0
 10
197.9885828018873
 20
285.359338163609
 30
0.0
 10
197.9906263107523
 20
285.395591449212
 30
0.0
 10
198.000680999318
 20
285.4249695393406
 30
0.0
 10
198.0058550254289
 20
285.4435833354452
 30
0.0
 10
198.00872812292
 20
285.4539194353681
 30
0.0
 11
198.498575857491
 21
284.7268747840841
 31
0.0
 11
198.4243499538864
 21
284.7910856047718
 31
0.0
 11
198.3586918529587
 21
284.8478846512053
 31
0.0
 11
198.2974948242599
 21
284.9051830898679
 31
0.0
 11
198.2324768290992
 21
284.9745040334224
 31
0.0
 11
198.1737413121113
 21
285.0429241605482
 31
0.0
 11
198.1228805582962
 21
285.1070999933821
 31
0.0
 11
198.0885904627875
 21
285.1553839214454
 31
0.0
 11
198.057126459894
 21
285.2058046605036
 31
0.0
 11
198.0294463991436
 21
285.2584193060617
 31
0.0
 11
198.0029592423608
 21
285.319365598395
 31
0.0
 11
197.9907626051055
 21
285.3632462419934
 31
0.0
 11
197.9925998664391
 21
285.3982482952308
 31
0.0
 11
197.9997722243148
 21
285.4230056731217
 31
0.0
 11
198.00872812292
 21
285.4539194353681
 31
0.0
  0
SPLINE
  5
2D4
330
A
100
AcDbEntity
  8
0
  6
Continuous
 62
     3
100
AcDbSpline
210
0.0
220
0.0
230
1.0
 70
     8
 71
     3
 72
    21
 73
    17
 74
    15
 42
0.0000000001
 43
0.0000000001
 44
0.00000000001
 40
0.0
 40
0.0
 40
0.0
 40
0.0
 40
0.0064229153532116
 40
0.0117663950681156
 40
0.0153850067637799
 40
0.0183801733909779
 40
0.0270137062419136
 40
0.0387999392097651
 40
0.0640339787634625
 40
0.0883612309981959
 40
0.1210679151145737
 40
0.1572262509412503
 40
0.1851690320947414
 40
0.2073149118341998
 40
0.219924550609799
 40
0.2340292369816307
 40
0.2340292369816307
 40
0.2340292369816307
 40
0.2340292369816307
 10
198.498575857491
 20
284.7268747840841
 30
0.0
 10
198.4972370001484
 20
284.7252040060945
 30
0.0
 10
198.4947842939291
 20
284.7221432411905
 30
0.0
 10
198.4915810909222
 20
284.7181392228281
 30
0.0
 10
198.4890816400639
 20
284.7150323818468
 30
0.0
 10
198.4856463577252
 20
284.7112850777985
 30
0.0
 10
198.4809158658532
 20
284.7050443549861
 30
0.0
 10
198.4732579346692
 20
284.6918936827225
 30
0.0
 10
198.4644086323045
 20
284.6732321854055
 30
0.0
 10
198.4595751538322
 20
284.6461647098558
 30
0.0
 10
198.4523781120157
 20
284.6156691267238
 30
0.0
 10
198.4348379667873
 20
284.5880651897681
 30
0.0
 10
198.4167165640384
 20
284.5657010211145
 30
0.0
 10
198.4005951661934
 20
284.5521525880522
 30
0.0
 10
198.3866731396579
 20
284.5436877394683
 30
0.0
 10
198.379196036427
 20
284.5388519600753
 30
0.0
 10
198.3752482595149
 20
284.5362987549569
 30
0.0
 11
198.498575857491
 21
284.7268747840841
 31
0.0
 11
198.4945601521658
 21
284.7218620051765
 31
0.0
 11
198.4912193265803
 21
284.7176916742699
 31
0.0
 11
198.4889191036925
 21
284.7148982310056
 31
0.0
 11
198.4869346608298
 21
284.7126547939886
 31
0.0
 11
198.4816779692282
 21
284.7058060654282
 31
0.0
 11
198.4756018042972
 21
284.6957067829139
 31
0.0
 11
198.4653762687518
 21
284.6726374271577
 31
0.0
 11
198.4598757624324
 21
284.6489401777071
 31
0.0
 11
198.4510298353444
 21
284.6174524537525
 31
0.0
 11
198.4327594607511
 21
284.5862495907112
 31
0.0
 11
198.4147656723324
 21
284.5648715038712
 31
0.0
 11
198.3977507238244
 21
284.5506964724178
 31
0.0
 11
198.3871291586178
 21
284.5439004925316
 31
0.0
 11
198.3752482595149
 21
284.5362987549569
 31
0.0
  0
SPLINE
  5
2D3
330
A
100
AcDbEntity
  8
0
  6
Continuous
 62
     3
100
AcDbSpline
210
0.0
220
0.0
230
1.0
 70
     8
 71
     3
 72
    15
 73
    11
 74
     9
 42
0.0000000001
 43
0.0000000001
 44
0.00000000001
 40
0.0
 40
0.0
 40
0.0
 40
0.0
 40
0.1074743762083498
 40
0.2404214648056071
 40
0.6209044573397553
 40
1.066827774403212
 40
1.692505447999964
 40
2.253292613437732
 40
2.853166334046632
 40
3.500000015660717
 40
3.500000015660717
 40
3.500000015660717
 40
3.500000015660717
 10
391.6661608324329
 20
365.9999680007651
 30
0.0
 10
391.6661587073674
 20
365.9641432087574
 30
0.0
 10
391.6661539535703
 20
365.8840027206268
 30
0.0
 10
391.6661391460814
 20
365.6770345687403
 30
0.0
 10
391.6661464660852
 20
365.3572501011115
 30
0.0
 10
391.6662384875964
 20
364.8732221148552
 30
0.0
 10
391.6663415401635
 20
364.3290927381485
 30
0.0
 10
391.6663520036436
 20
363.7336465495673
 30
0.0
 10
391.6663161550729
 20
363.1311483616155
 30
0.0
 10
391.6662997056371
 20
362.7155792278235
 30
0.0
 10
391.6662911711171
 20
362.4999680007651
 30
0.0
 11
391.6661608324329
 21
365.9999680007651
 31
0.0
 11
391.6661542614345
 21
365.8924936247576
 31
0.0
 11
391.6661461330311
 21
365.7595465364088
 31
0.0
 11
391.6661557314581
 21
365.3790635439957
 31
0.0
 11
391.6662270512751
 21
364.9331402326357
 31
0.0
 11
391.6663267397295
 21
364.3074625669805
 31
0.0
 11
391.6663448137471
 21
363.746675401834
 31
0.0
 11
391.6663190027156
 21
363.1468016817804
 31
0.0
 11
391.6662911711171
 21
362.4999680007651
 31
0.0
  0
SPLINE
  5
2D2
330
A
100
AcDbEntity
  8
0
  6
Continuous
 62
     6
100
AcDbSpline
210
0.0
220
0.0
230
1.0
 70
     8
 71
     3
 72
    21
 73
    17
 74
    15
 42
0.0000000001
 43
0.0000000001
 44
0.00000000001
 40
0.0
 40
0.0
 40
0.0
 40
0.0
 40
0.0327998091644102
 40
0.0643749555272502
 40
0.1013697398319912
 40
0.1422518893345334
 40
0.1850222218427319
 40
0.2252438544516412
 40
0.2552376022188381
 40
0.2842758536399106
 40
0.3094637791408157
 40
0.3366186174023152
 40
0.3582709040195946
 40
0.3778035588073224
 40
0.392738280586535
 40
0.408529951498683
 40
0.408529951498683
 40
0.408529951498683
 40
0.408529951498683
 10
391.0429478151201
 20
348.4999680007651
 30
0.0
 10
391.0320698943985
 20
348.5010825243476
 30
0.0
 10
391.0107202072962
 20
348.5032699579908
 30
0.0
 10
390.9770273168134
 20
348.5056801418224
 30
0.0
 10
390.9409952490005
 20
348.5131330052323
 30
0.0
 10
390.9047703399151
 20
348.5313329483562
 30
0.0
 10
390.8705279248967
 20
348.5545184170437
 30
0.0
 10
390.8423957870784
 20
348.5797831268458
 30
0.0
 10
390.8208560917397
 20
348.6049724196127
 30
0.0
 10
390.8049299742034
 20
348.6281722015715
 30
0.0
 10
390.7923558361649
 20
348.6522697496308
 30
0.0
 10
390.783124018093
 20
348.675168541777
 30
0.0
 10
390.7764241612308
 20
348.6970078520864
 30
0.0
 10
390.7738230217345
 20
348.7155958449741
 30
0.0
 10
390.7728960226567
 20
348.7323214855438
 30
0.0
 10
390.7721435289408
 20
348.7425364424954
 30
0.0
 10
390.77175678868
 20
348.7477863668904
 30
0.0
 11
391.0429478151201
 21
348.4999680007651
 31
0.0
 11
391.0103018472325
 21
348.5031410532233
 31
0.0
 11
390.9788747980982
 21
348.5061956318423
 31
0.0
 11
390.9427837429408
 21
348.5143227348554
 31
0.0
 11
390.9058133029473
 21
348.5317737151897
 31
0.0
 11
390.870428235117
 21
348.5557986671669
 31
0.0
 11
390.8405857990146
 21
348.5827654752317
 31
0.0
 11
390.8210741492932
 21
348.6055453003029
 31
0.0
 11
390.8047397801538
 21
348.6295538077619
 31
0.0
 11
390.7930202956371
 21
348.6518492170136
 31
0.0
 11
390.7828412735586
 21
348.6770240606186
 31
0.0
 11
390.7768047341812
 21
348.6978178507517
 31
0.0
 11
390.773918797808
 21
348.7171361315838
 31
0.0
 11
390.7728679421109
 21
348.7320338366731
 31
0.0
 11
390.77175678868
 21
348.7477863668904
 31
0.0
  0
SPLINE
  5
2D1
330
A
100
AcDbEntity
  8
0
  6
Continuous
 62
     6
100
AcDbSpline
210
0.0
220
0.0
230
1.0
 70
     8
 71
     3
 72
    21
 73
    17
 74
    15
 42
0.0000000001
 43
0.0000000001
 44
0.00000000001
 40
0.0
 40
0.0
 40
0.0
 40
0.0
 40
0.0327998091644102
 40
0.0643749555272667
 40
0.1013697398319952
 40
0.1422518893344888
 40
0.1850222218427193
 40
0.2252438544515142
 40
0.2552376022188839
 40
0.2842758536398623
 40
0.3094637791407675
 40
0.3366186174024251
 40
0.3582709040197432
 40
0.3778035588074232
 40
0.3927382805866925
 40
0.4085299514986703
 40
0.4085299514986703
 40
0.4085299514986703
 40
0.4085299514986703
 10
391.0429478151201
 20
362.4999680007651
 30
0.0
 10
391.0320698943987
 20
362.4988534771826
 30
0.0
 10
391.0107202072964
 20
362.4966660435396
 30
0.0
 10
390.9770273168133
 20
362.4942558597074
 30
0.0
 10
390.9409952490006
 20
362.4868029962978
 30
0.0
 10
390.9047703399147
 20
362.4686030531741
 30
0.0
 10
390.8705279248969
 20
362.4454175844864
 30
0.0
 10
390.8423957870782
 20
362.4201528746846
 30
0.0
 10
390.8208560917397
 20
362.3949635819172
 30
0.0
 10
390.8049299742034
 20
362.3717637999587
 30
0.0
 10
390.792355836165
 20
362.3476662518994
 30
0.0
 10
390.7831240180927
 20
362.324767459753
 30
0.0
 10
390.7764241612309
 20
362.3029281494436
 30
0.0
 10
390.7738230217344
 20
362.2843401565559
 30
0.0
 10
390.7728960226568
 20
362.2676145159862
 30
0.0
 10
390.7721435289408
 20
362.2573995590346
 30
0.0
 10
390.77175678868
 20
362.2521496346396
 30
0.0
 11
391.0429478151201
 21
362.4999680007651
 31
0.0
 11
391.0103018472325
 21
362.4967949483069
 31
0.0
 11
390.9788747980982
 21
362.4937403696876
 31
0.0
 11
390.9427837429408
 21
362.4856132666746
 31
0.0
 11
390.9058133029473
 21
362.4681622863404
 31
0.0
 11
390.870428235117
 21
362.4441373343632
 31
0.0
 11
390.8405857990146
 21
362.4171705262985
 31
0.0
 11
390.8210741492932
 21
362.3943907012272
 31
0.0
 11
390.8047397801538
 21
362.3703821937683
 31
0.0
 11
390.7930202956371
 21
362.3480867845165
 31
0.0
 11
390.7828412735586
 21
362.3229119409114
 31
0.0
 11
390.7768047341812
 21
362.3021181507782
 31
0.0
 11
390.773918797808
 21
362.2827998699462
 31
0.0
 11
390.7728679421109
 21
362.2679021648569
 31
0.0
 11
390.77175678868
 21
362.2521496346396
 31
0.0
  0
SPLINE
  5
2D0
330
A
100
AcDbEntity
  8
0
  6
Continuous
 62
     3
100
AcDbSpline
210
0.0
220
0.0
230
1.0
 70
     8
 71
     3
 72
    13
 73
     9
 74
     7
 42
0.0000000001
 43
0.0000000001
 44
0.00000000001
 40
0.0
 40
0.0
 40
0.0
 40
0.0
 40
0.8947941014822969
 40
1.63728240225627
 40
2.187351373718602
 40
2.83715454331584
 40
3.236479839286813
 40
3.500021061162375
 40
3.500021061162375
 40
3.500021061162375
 40
3.500021061162375
 10
392.233430164876
 20
365.9999680007651
 30
0.0
 10
392.2326041760419
 20
365.701704443501
 30
0.0
 10
392.2310927926072
 20
365.1559457346161
 30
0.0
 10
392.2292007126635
 20
364.4268310613001
 30
0.0
 10
392.2271276711648
 20
363.7793808191076
 30
0.0
 10
392.2248633159031
 20
363.2463197507628
 30
0.0
 10
392.2229094253966
 20
362.8087675596963
 30
0.0
 10
392.2219319106429
 20
362.5878142153269
 30
0.0
 10
392.2215432721681
 20
362.4999680007651
 30
0.0
 11
392.233430164876
 21
365.9999680007651
 31
0.0
 11
392.2309806078828
 21
365.1051772521998
 31
0.0
 11
392.2289479979153
 21
364.362691733632
 31
0.0
 11
392.2271461944675
 21
363.8126257131672
 31
0.0
 11
392.2244794553844
 21
363.1628280156326
 31
0.0
 11
392.2227106343616
 21
362.7635066371985
 31
0.0
 11
392.2215432721681
 21
362.4999680007651
 31
0.0
  0
SPLINE
  5
2CF
330
A
100
AcDbEntity
  8
0
  6
Continuous
 62
     6
100
AcDbSpline
210
0.0
220
0.0
230
1.0
 70
     8
 71
     3
 72
    21
 73
    17
 74
    15
 42
0.0000000001
 43
0.0000000001
 44
0.00000000001
 40
0.0
 40
0.0
 40
0.0
 40
0.0
 40
0.0478297565400619
 40
0.0912859776507751
 40
0.1239781946640495
 40
0.1555202806262761
 40
0.1759589335120316
 40
0.1965304254682389
 40
0.2158476805394972
 40
0.2353216446934256
 40
0.2519667899316127
 40
0.2684684668531723
 40
0.286322745726429
 40
0.3043201206225707
 40
0.3251793131251266
 40
0.3474361031967623
 40
0.3474361031967623
 40
0.3474361031967623
 40
0.3474361031967623
 10
169.3023626007
 20
349.0702056943151
 30
0.0
 10
169.2864149111167
 20
349.0699537126415
 30
0.0
 10
169.2559777828476
 20
349.0694727904061
 30
0.0
 10
169.2148199642706
 20
349.065218760285
 30
0.0
 10
169.1793784654188
 20
349.0594558516665
 30
0.0
 10
169.1517668813846
 20
349.0535406563215
 30
0.0
 10
169.1283703823619
 20
349.0473900353778
 30
0.0
 10
169.1092083536708
 20
349.0412563548343
 30
0.0
 10
169.0907026894372
 20
349.0342254466135
 30
0.0
 10
169.0738121436191
 20
349.0267009702855
 30
0.0
 10
169.0583003501356
 20
349.0184745756673
 30
0.0
 10
169.0439641103891
 20
349.0093167166282
 30
0.0
 10
169.0301209263866
 20
348.9985852323027
 30
0.0
 10
169.0169333491922
 20
348.9850894447656
 30
0.0
 10
169.0049479927771
 20
348.9679141156449
 30
0.0
 10
169.0032428223333
 20
348.9534223714561
 30
0.0
 10
169.0023626007
 20
348.9459416255951
 30
0.0
 11
169.3023626007
 21
349.0702056943151
 31
0.0
 11
169.2545558658445
 21
349.0687218772306
 31
0.0
 11
169.2113177743388
 21
349.0643732457026
 31
0.0
 11
169.1790500048274
 21
349.059122331115
 31
0.0
 11
169.1482153508465
 21
349.052479492812
 31
0.0
 11
169.1284625630004
 21
349.0472291686226
 31
0.0
 11
169.1088725071232
 21
349.0409509529501
 31
0.0
 11
169.0908194115563
 21
349.0340776652402
 31
0.0
 11
169.0730541842363
 21
349.0261006997685
 31
0.0
 11
169.0583724691161
 21
349.0182579897056
 31
0.0
 11
169.0444765142833
 21
349.0093581143971
 31
0.0
 11
169.0304422048736
 21
348.9983212020808
 31
0.0
 11
169.0179024646528
 21
348.9854114995921
 31
0.0
 11
169.0068020982003
 21
348.9677511548481
 31
0.0
 11
169.0023626007
 21
348.9459416255951
 31
0.0
  0
SPLINE
  5
2CE
330
A
100
AcDbEntity
  8
0
  6
Continuous
 62
     6
100
AcDbSpline
210
0.0
220
0.0
230
1.0
 70
     8
 71
     3
 72
    21
 73
    17
 74
    15
 42
0.0000000001
 43
0.0000000001
 44
0.00000000001
 40
0.0
 40
0.0
 40
0.0
 40
0.0
 40
0.0222567900718264
 40
0.0431159825747385
 40
0.06111335747054
 40
0.0789676363432413
 40
0.0954693132647732
 40
0.1121144585030606
 40
0.1315884226570407
 40
0.1509056777282725
 40
0.171477169684418
 40
0.1919158225702852
 40
0.2234579085324998
 40
0.2561501255458956
 40
0.299606346657016
 40
0.3474361031965062
 40
0.3474361031965062
 40
0.3474361031965062
 40
0.3474361031965062
 10
225.0023626007
 20
348.9459416255951
 30
0.0
 10
225.0014823790666
 20
348.9534223714561
 30
0.0
 10
224.9997772086224
 20
348.9679141156451
 30
0.0
 10
224.9877918522071
 20
348.9850894447656
 30
0.0
 10
224.9746042750129
 20
348.9985852323028
 30
0.0
 10
224.9607610910107
 20
349.0093167166282
 30
0.0
 10
224.9464248512645
 20
349.0184745756675
 30
0.0
 10
224.9309130577808
 20
349.0267009702853
 30
0.0
 10
224.9140225119628
 20
349.0342254466135
 30
0.0
 10
224.8955168477291
 20
349.0412563548344
 30
0.0
 10
224.8763548190381
 20
349.0473900353777
 30
0.0
 10
224.8529583200153
 20
349.0535406563215
 30
0.0
 10
224.8253467359811
 20
349.0594558516664
 30
0.0
 10
224.789905237129
 20
349.065218760285
 30
0.0
 10
224.7487474185521
 20
349.0694727904061
 30
0.0
 10
224.7183102902831
 20
349.0699537126415
 30
0.0
 10
224.7023626007
 20
349.0702056943151
 30
0.0
 11
225.0023626007
 21
348.9459416255951
 31
0.0
 11
224.9979231031993
 21
348.9677511548482
 31
0.0
 11
224.9868227367464
 21
348.9854114995925
 31
0.0
 11
224.9742829965259
 21
348.9983212020809
 31
0.0
 11
224.9602486871167
 21
349.009358114397
 31
0.0
 11
224.946352732284
 21
349.0182579897056
 31
0.0
 11
224.9316710171637
 21
349.0261006997685
 31
0.0
 11
224.9139057898436
 21
349.0340776652402
 31
0.0
 11
224.8958526942768
 21
349.0409509529501
 31
0.0
 11
224.8762626383996
 21
349.0472291686225
 31
0.0
 11
224.8565098505534
 21
349.052479492812
 31
0.0
 11
224.8256751965725
 21
349.059122331115
 31
0.0
 11
224.793407427061
 21
349.0643732457026
 31
0.0
 11
224.7501693355549
 21
349.0687218772307
 31
0.0
 11
224.7023626007
 21
349.0702056943151
 31
0.0
  0
SPLINE
  5
2CD
330
A
100
AcDbEntity
  8
0
  6
Continuous
 62
     3
100
AcDbSpline
210
0.0
220
0.0
230
1.0
 70
     8
 71
     3
 72
    11
 73
     7
 74
     5
 42
0.0000000001
 43
0.0000000001
 44
0.00000000001
 40
0.0
 40
0.0
 40
0.0
 40
0.0
 40
0.035407752183553
 40
0.0683792174860555
 40
0.0953133096885652
 40
0.1197389805071253
 40
0.1197389805071253
 40
0.1197389805071253
 40
0.1197389805071253
 10
174.461462993792
 20
357.682318861176
 30
0.0
 10
174.4636882255933
 20
357.6706841042126
 30
0.0
 10
174.4679855785714
 20
357.6482151383017
 30
0.0
 10
174.4818530697258
 20
357.6192714057413
 30
0.0
 10
174.4987367721852
 20
357.5965206767427
 30
0.0
 10
174.5118333574167
 20
357.5854228580047
 30
0.0
 10
174.518061830075
 20
357.58014495851
 30
0.0
 11
174.461462993792
 21
357.682318861176
 31
0.0
 11
174.4696540086603
 21
357.6478715653442
 31
0.0
 11
174.4837243615236
 21
357.6180530694986
 31
0.0
 11
174.5000128722655
 21
357.5966024345293
 31
0.0
 11
174.518061830075
 21
357.58014495851
 31
0.0
  0
SPLINE
  5
2CC
330
A
100
AcDbEntity
  8
0
  6
Continuous
 62
     3
100
AcDbSpline
210
0.0
220
0.0
230
1.0
 70
     8
 71
     3
 72
    11
 73
     7
 74
     5
 42
0.0000000001
 43
0.0000000001
 44
0.00000000001
 40
0.0
 40
0.0
 40
0.0
 40
0.0
 40
0.0351278802075966
 40
0.0677794820163059
 40
0.0942891918635476
 40
0.1182495124536052
 40
0.1182495124536052
 40
0.1182495124536052
 40
0.1182495124536052
 10
175.400660628348
 20
363.0978790063281
 30
0.0
 10
175.4092998185842
 20
363.0899116541271
 30
0.0
 10
175.4259691944701
 20
363.0745385942662
 30
0.0
 10
175.4540408341466
 20
363.0596981529224
 30
0.0
 10
175.48076630178
 20
363.0516081111845
 30
0.0
 10
175.4975977760361
 20
363.0504959785647
 30
0.0
 10
175.5055884096
 20
363.0499680007949
 30
0.0
 11
175.400660628348
 21
363.0978790063281
 31
0.0
 11
175.4275209429212
 21
363.0752407319038
 31
0.0
 11
175.4562983513249
 21
363.0598138765457
 31
0.0
 11
175.4817526907581
 21
363.0524083839756
 31
0.0
 11
175.5055884096
 21
363.0499680007949
 31
0.0
  0
SPLINE
  5
2CB
330
A
100
AcDbEntity
  8
0
  6
Continuous
 62
     6
100
AcDbSpline
210
0.0
220
0.0
230
1.0
 70
     8
 71
     3
 72
    27
 73
    23
 74
    21
 42
0.0000000001
 43
0.0000000001
 44
0.00000000001
 40
0.0
 40
0.0
 40
0.0
 40
0.0
 40
0.0324851745783232
 40
0.0621264817492927
 40
0.0852122272701033
 40
0.1076555700856259
 40
0.1238597390459957
 40
0.1401314503494264
 40
0.1570728203303895
 40
0.1744494833574028
 40
0.1918972282075852
 40
0.2093449581328135
 40
0.2267927430030765
 40
0.244240520910812
 40
0.2616399589144343
 40
0.2787436442449584
 40
0.2953953558327847
 40
0.3120163201897361
 40
0.3327974772607607
 40
0.3539670217926111
 40
0.3793984606700082
 40
0.4066924319523395
 40
0.4066924319523395
 40
0.4066924319523395
 40
0.4066924319523395
 10
203.928768124884
 20
281.002604731625
 30
0.0
 10
203.9396154484081
 20
281.0030296120512
 30
0.0
 10
203.9603604822797
 20
281.0038421773639
 30
0.0
 10
203.9880577670805
 20
281.0109503578465
 30
0.0
 10
204.0113833395089
 20
281.0201774510365
 30
0.0
 10
204.0296673527639
 20
281.0297070542983
 30
0.0
 10
204.0451027426898
 20
281.0395845554221
 30
0.0
 10
204.0581388657124
 20
281.0496922995139
 30
0.0
 10
204.0705250092163
 20
281.0611645861809
 30
0.0
 10
204.0821921980795
 20
281.0739054597415
 30
0.0
 10
204.0928118604354
 20
281.0877474605895
 30
0.0
 10
204.1021985137084
 20
281.1024813438871
 30
0.0
 10
204.1102630224807
 20
281.1179784829561
 30
0.0
 10
204.1169417388657
 20
281.134104122878
 30
0.0
 10
204.1221567905392
 20
281.1506392438601
 30
0.0
 10
204.1259104842239
 20
281.1672934760967
 30
0.0
 10
204.1281581360164
 20
281.1839577343786
 30
0.0
 10
204.1289670380316
 20
281.2019771203422
 30
0.0
 10
204.1281250166051
 20
281.2215172875887
 30
0.0
 10
204.1249428924435
 20
281.243775916586
 30
0.0
 10
204.1187663055036
 20
281.2677410898384
 30
0.0
 10
204.111439542583
 20
281.2837494834527
 30
0.0
 10
204.107646751666
 20
281.292036429619
 30
0.0
 11
203.928768124884
 21
281.002604731625
 31
0.0
 11
203.9611593053206
 21
281.0050741439651
 31
0.0
 11
203.9899430253057
 21
281.0121526010444
 31
0.0
 11
204.011417335688
 21
281.0206264218979
 31
0.0
 11
204.0313181747853
 21
281.0310023671542
 31
0.0
 11
204.0449442146684
 21
281.0397719811023
 31
0.0
 11
204.0578110506073
 21
281.0497325594822
 31
0.0
 11
204.0702557619639
 21
281.0612277400411
 31
0.0
 11
204.0819834892939
 21
281.0740499406959
 31
0.0
 11
204.0926039537664
 21
281.0878929726883
 31
0.0
 11
204.1019781462306
 21
281.1026085357148
 31
0.0
 11
204.1100330857501
 21
281.1180857171836
 31
0.0
 11
204.1167091745187
 21
281.1342057293632
 31
0.0
 11
204.1219495281478
 21
281.150797267468
 31
0.0
 11
204.1256943892491
 21
281.1674859482792
 31
0.0
 11
204.127912397758
 21
281.183989279369
 31
0.0
 11
204.1286880681949
 21
281.20059213429
 31
0.0
 11
204.1277924386774
 21
281.2213539824008
 31
0.0
 11
204.1247944861697
 21
281.2423101723324
 31
0.0
 11
204.1182427313684
 21
281.2668831776919
 31
0.0
 11
204.107646751666
 21
281.292036429619
 31
0.0
  0
SPLINE
  5
2CA
330
A
100
AcDbEntity
  8
0
  6
Continuous
 62
     6
100
AcDbSpline
210
0.0
220
0.0
230
1.0
 70
     8
 71
     3
 72
    21
 73
    17
 74
    15
 42
0.0000000001
 43
0.0000000001
 44
0.00000000001
 40
0.0
 40
0.0
 40
0.0
 40
0.0
 40
0.0400645878860203
 40
0.0765082417139015
 40
0.1042547945157396
 40
0.131092464079583
 40
0.1491993185055332
 40
0.1673928807140451
 40
0.1852318113726454
 40
0.2031399281363822
 40
0.2193999431038137
 40
0.235578557688001
 40
0.2556091652833134
 40
0.2760186190873708
 40
0.3010275390262995
 40
0.3281650313704147
 40
0.3281650313704147
 40
0.3281650313704147
 40
0.3281650313704147
 10
398.7054142398681
 20
348.7477863669205
 30
0.0
 10
398.705834036957
 20
348.7344237809062
 30
0.0
 10
398.7066356909572
 20
348.7089062849168
 30
0.0
 10
398.7126115723165
 20
348.6745617315059
 30
0.0
 10
398.720502105786
 20
348.6452425215233
 30
0.0
 10
398.7285786561093
 20
348.6223690219579
 30
0.0
 10
398.7369409001002
 20
348.6030405529161
 30
0.0
 10
398.745339598
 20
348.5870461708693
 30
0.0
 10
398.7548763623981
 20
348.5717860012497
 30
0.0
 10
398.7651155294626
 20
348.557774482667
 30
0.0
 10
398.7761649452185
 20
348.545110958285
 30
0.0
 10
398.7888763245345
 20
348.5330667986945
 30
0.0
 10
398.8038561732342
 20
348.5214975182025
 30
0.0
 10
398.8227129424454
 20
348.5104742523855
 30
0.0
 10
398.8455456925458
 20
348.5015808007738
 30
0.0
 10
398.8629941934282
 20
348.5005200339887
 30
0.0
 10
398.872074560387
 20
348.4999680007951
 30
0.0
 11
398.7054142398681
 21
348.7477863669205
 31
0.0
 11
398.7076563927428
 21
348.7077845675489
 31
0.0
 11
398.7137176232197
 21
348.6718484938982
 31
0.0
 11
398.7209253908657
 21
348.6450544781867
 31
0.0
 11
398.7298906373023
 21
348.6197585325837
 31
0.0
 11
398.7371343242161
 21
348.6031637389093
 31
0.0
 11
398.7455936804248
 21
348.5870564424766
 31
0.0
 11
398.7550428786148
 21
348.5719256757873
 31
0.0
 11
398.7656519996352
 21
348.5574983684433
 31
0.0
 11
398.7763686158282
 21
348.5452696226321
 31
0.0
 11
398.7881044071519
 21
348.5341332510565
 31
0.0
 11
398.8039894887391
 21
348.5219312256671
 31
0.0
 11
398.8216315264714
 21
348.5116694368739
 31
0.0
 11
398.8451146968649
 21
348.5030678797603
 31
0.0
 11
398.872074560387
 21
348.4999680007951
 31
0.0
  0
SPLINE
  5
2C9
330
A
100
AcDbEntity
  8
0
  6
Continuous
 62
     6
100
AcDbSpline
210
0.0
220
0.0
230
1.0
 70
     8
 71
     3
 72
    21
 73
    17
 74
    15
 42
0.0000000001
 43
0.0000000001
 44
0.00000000001
 40
0.0
 40
0.0
 40
0.0
 40
0.0
 40
0.0278220956794019
 40
0.0533965726997021
 40
0.0740861437432548
 40
0.0943708923036474
 40
0.1105592927703806
 40
0.1268335482405036
 40
0.1447854121559637
 40
0.1627079105689628
 40
0.1810207493898437
 40
0.1992552247493674
 40
0.2258434311814633
 40
0.2532842883885531
 40
0.2890030734465527
 40
0.3281632312591805
 40
0.3281632312591805
 40
0.3281632312591805
 40
0.3281632312591805
 10
398.872074560387
 20
362.4999680007952
 30
0.0
 10
398.8627629061747
 20
362.499390617378
 30
0.0
 10
398.8448918433033
 20
362.4982824946844
 30
0.0
 10
398.8216466423127
 20
362.4889869528097
 30
0.0
 10
398.8025920120224
 20
362.4775808789835
 30
0.0
 10
398.7875899875057
 20
362.465743811392
 30
0.0
 10
398.7749300387218
 20
362.4535124833658
 30
0.0
 10
398.7639819527799
 20
362.4407317808349
 30
0.0
 10
398.7538350741105
 20
362.4265954450994
 30
0.0
 10
398.744378643826
 20
362.4111889363778
 30
0.0
 10
398.7360513721421
 20
362.3950334300482
 30
0.0
 10
398.7278248465798
 20
362.3756478291556
 30
0.0
 10
398.7199443349567
 20
362.3528576150332
 30
0.0
 10
398.7123305829105
 20
362.3239069927785
 30
0.0
 10
398.7065921367961
 20
362.2901833000089
 30
0.0
 10
398.7058187206936
 20
362.2652101054025
 30
0.0
 10
398.7054142398681
 20
362.2521496346697
 30
0.0
 11
398.872074560387
 21
362.4999680007952
 31
0.0
 11
398.8444429608052
 21
362.4967178142548
 31
0.0
 11
398.8205017958729
 21
362.4877247893717
 31
0.0
 11
398.8027255906521
 21
362.477138719378
 31
0.0
 11
398.7867680062009
 21
362.4646156797053
 31
0.0
 11
398.7751351039296
 21
362.4533577982698
 31
0.0
 11
398.7645210350934
 21
362.4410211482445
 31
0.0
 11
398.7540095835811
 21
362.4264685263108
 31
0.0
 11
398.7446385557317
 21
362.4111910989616
 31
0.0
 11
398.736246579723
 21
362.3949142809572
 31
0.0
 11
398.7290709450057
 21
362.3781510366996
 31
0.0
 11
398.7203541872406
 21
362.3530323015535
 31
0.0
 11
398.7133756207247
 21
362.3264936457163
 31
0.0
 11
398.7075647338446
 21
362.2912507003274
 31
0.0
 11
398.7054142398681
 21
362.2521496346697
 31
0.0
  0
SPLINE
  5
2C8
330
A
100
AcDbEntity
  8
0
  6
Continuous
 62
     6
100
AcDbSpline
210
0.0
220
0.0
230
1.0
 70
     8
 71
     3
 72
    21
 73
    17
 74
    15
 42
0.0000000001
 43
0.0000000001
 44
0.00000000001
 40
0.0
 40
0.0
 40
0.0
 40
0.0
 40
0.0400645878860203
 40
0.0765082417139015
 40
0.1042547945157396
 40
0.131092464079583
 40
0.1491993185055332
 40
0.1673928807140451
 40
0.1852318113726454
 40
0.2031399281363486
 40
0.21939994310378
 40
0.2355785576880085
 40
0.2556091652833209
 40
0.2760186190873783
 40
0.301027539026307
 40
0.3281650313704222
 40
0.3281650313704222
 40
0.3281650313704222
 40
0.3281650313704222
 10
396.7054142398681
 20
348.7477863669205
 30
0.0
 10
396.705834036957
 20
348.7344237809062
 30
0.0
 10
396.7066356909572
 20
348.7089062849168
 30
0.0
 10
396.7126115723165
 20
348.6745617315059
 30
0.0
 10
396.720502105786
 20
348.6452425215233
 30
0.0
 10
396.7285786561092
 20
348.6223690219579
 30
0.0
 10
396.7369409001003
 20
348.6030405529161
 30
0.0
 10
396.745339598
 20
348.5870461708693
 30
0.0
 10
396.7548763623982
 20
348.5717860012498
 30
0.0
 10
396.7651155294626
 20
348.557774482667
 30
0.0
 10
396.7761649452186
 20
348.545110958285
 30
0.0
 10
396.7888763245344
 20
348.5330667986944
 30
0.0
 10
396.803856173234
 20
348.5214975182024
 30
0.0
 10
396.8227129424454
 20
348.5104742523855
 30
0.0
 10
396.8455456925458
 20
348.5015808007738
 30
0.0
 10
396.8629941934282
 20
348.5005200339887
 30
0.0
 10
396.872074560387
 20
348.4999680007951
 30
0.0
 11
396.7054142398681
 21
348.7477863669205
 31
0.0
 11
396.7076563927428
 21
348.7077845675489
 31
0.0
 11
396.7137176232197
 21
348.6718484938982
 31
0.0
 11
396.7209253908657
 21
348.6450544781867
 31
0.0
 11
396.7298906373023
 21
348.6197585325837
 31
0.0
 11
396.7371343242161
 21
348.6031637389093
 31
0.0
 11
396.7455936804248
 21
348.5870564424766
 31
0.0
 11
396.7550428786148
 21
348.5719256757873
 31
0.0
 11
396.7656519996351
 21
348.5574983684433
 31
0.0
 11
396.7763686158282
 21
348.5452696226321
 31
0.0
 11
396.7881044071519
 21
348.5341332510565
 31
0.0
 11
396.8039894887391
 21
348.5219312256671
 31
0.0
 11
396.8216315264714
 21
348.5116694368739
 31
0.0
 11
396.8451146968649
 21
348.5030678797603
 31
0.0
 11
396.872074560387
 21
348.4999680007951
 31
0.0
  0
SPLINE
  5
2C7
330
A
100
AcDbEntity
  8
0
  6
Continuous
 62
     6
100
AcDbSpline
210
0.0
220
0.0
230
1.0
 70
     8
 71
     3
 72
    21
 73
    17
 74
    15
 42
0.0000000001
 43
0.0000000001
 44
0.00000000001
 40
0.0
 40
0.0
 40
0.0
 40
0.0
 40
0.0278220956794019
 40
0.0533965726997554
 40
0.0740861437436499
 40
0.0943708923045757
 40
0.1105592927709874
 40
0.1268335482404811
 40
0.144785412156105
 40
0.1627079105691042
 40
0.181020749389933
 40
0.1992552247495014
 40
0.2258434311815973
 40
0.2532842883885772
 40
0.2890030734466981
 40
0.3281632312593228
 40
0.3281632312593228
 40
0.3281632312593228
 40
0.3281632312593228
 10
396.872074560387
 20
362.4999680007952
 30
0.0
 10
396.8627629061748
 20
362.4993906173781
 30
0.0
 10
396.8448918433033
 20
362.4982824946845
 30
0.0
 10
396.8216466423125
 20
362.4889869528096
 30
0.0
 10
396.8025920120219
 20
362.4775808789834
 30
0.0
 10
396.7875899875049
 20
362.465743811392
 30
0.0
 10
396.7749300387211
 20
362.4535124833659
 30
0.0
 10
396.7639819527797
 20
362.440731780835
 30
0.0
 10
396.7538350741105
 20
362.4265954450994
 30
0.0
 10
396.7443786438258
 20
362.4111889363778
 30
0.0
 10
396.7360513721424
 20
362.3950334300483
 30
0.0
 10
396.7278248465797
 20
362.3756478291554
 30
0.0
 10
396.7199443349569
 20
362.3528576150334
 30
0.0
 10
396.7123305829105
 20
362.3239069927785
 30
0.0
 10
396.706592136796
 20
362.2901833000089
 30
0.0
 10
396.7058187206936
 20
362.2652101054026
 30
0.0
 10
396.7054142398681
 20
362.2521496346697
 30
0.0
 11
396.872074560387
 21
362.4999680007952
 31
0.0
 11
396.8444429608052
 21
362.4967178142548
 31
0.0
 11
396.8205017958729
 21
362.4877247893717
 31
0.0
 11
396.8027255906516
 21
362.477138719378
 31
0.0
 11
396.7867680062
 21
362.4646156797051
 31
0.0
 11
396.7751351039289
 21
362.4533577982697
 31
0.0
 11
396.7645210350933
 21
362.4410211482448
 31
0.0
 11
396.7540095835811
 21
362.4264685263108
 31
0.0
 11
396.7446385557317
 21
362.4111910989616
 31
0.0
 11
396.7362465797231
 21
362.3949142809572
 31
0.0
 11
396.7290709450057
 21
362.3781510366996
 31
0.0
 11
396.7203541872406
 21
362.3530323015535
 31
0.0
 11
396.7133756207247
 21
362.3264936457164
 31
0.0
 11
396.7075647338445
 21
362.2912507003274
 31
0.0
 11
396.7054142398681
 21
362.2521496346697
 31
0.0
  0
SPLINE
  5
2C6
330
A
100
AcDbEntity
  8
0
  6
Continuous
 62
     3
100
AcDbSpline
210
0.0
220
0.0
230
1.0
 70
     8
 71
     3
 72
    13
 73
     9
 74
     7
 42
0.0000000001
 43
0.0000000001
 44
0.00000000001
 40
0.0
 40
0.0
 40
0.0
 40
0.0
 40
0.0002837324542226
 40
0.0005088384056637
 40
0.0006641262297323
 40
0.0008583609915735
 40
0.0009522828754911
 40
0.0009960086056293
 40
0.0009960086056293
 40
0.0009960086056293
 40
0.0009960086056293
 10
176.053173283627
 20
380.227182746945
 30
0.0
 10
176.0532310180975
 20
380.2271078361235
 30
0.0
 10
176.0533345575955
 20
380.226973493004
 30
0.0
 10
176.0534699853665
 20
380.2267983744479
 30
0.0
 10
176.0535863149021
 20
380.2266462012136
 30
0.0
 10
176.053675112212
 20
380.2265280293121
 30
0.0
 10
176.0537414484769
 20
380.2264394973657
 30
0.0
 10
176.0537689695243
 20
380.226402784972
 30
0.0
 10
176.053777711978
 20
380.226391122756
 30
0.0
 11
176.053173283627
 21
380.227182746945
 31
0.0
 11
176.0533465561196
 21
380.2269580677318
 31
0.0
 11
176.0534840260097
 21
380.2267798130862
 31
0.0
 11
176.053578278685
 21
380.2266564001958
 31
0.0
 11
176.0536951514404
 21
380.2265012618648
 31
0.0
 11
176.0537514854446
 21
380.2264261100168
 31
0.0
 11
176.053777711978
 21
380.226391122756
 31
0.0
  0
SPLINE
  5
2C5
330
A
100
AcDbEntity
  8
0
  6
Continuous
 62
     3
100
AcDbSpline
210
0.0
220
0.0
230
1.0
 70
     8
 71
     3
 72
    19
 73
    15
 74
    13
 42
0.0000000001
 43
0.0000000001
 44
0.00000000001
 40
0.0
 40
0.0
 40
0.0
 40
0.0
 40
0.0012405974374126
 40
0.0049256315251608
 40
0.0331669693253367
 40
0.0681966486614255
 40
0.1498912313520061
 40
0.2301968354442899
 40
0.3595573525011626
 40
0.5022815098852711
 40
0.6382862278499131
 40
0.7525910482698699
 40
0.8507182254505693
 40
0.9615033013193265
 40
0.9615033013193265
 40
0.9615033013193265
 40
0.9615033013193265
 10
176.053777711978
 20
380.226391122756
 30
0.0
 10
176.0540291694296
 20
380.2260628266481
 30
0.0
 10
176.0550275486891
 20
380.2247593694511
 30
0.0
 10
176.061751028916
 20
380.2159831638967
 30
0.0
 10
176.0752944741349
 20
380.1982422039781
 30
0.0
 10
176.1041409665985
 20
380.1594802620003
 30
0.0
 10
176.1457401395228
 20
380.1085350070102
 30
0.0
 10
176.2148350958387
 20
380.040044089691
 30
0.0
 10
176.3083647538596
 20
379.9682718406716
 30
0.0
 10
176.4257103907752
 20
379.8992470829554
 30
0.0
 10
176.545157010889
 20
379.8437115257552
 30
0.0
 10
176.6594744393544
 20
379.8190547037725
 30
0.0
 10
176.7669508537216
 20
379.8111819227442
 30
0.0
 10
176.8362045789052
 20
379.8038541812021
 30
0.0
 10
176.872929467401
 20
379.799968318162
 30
0.0
 11
176.053777711978
 21
380.226391122756
 31
0.0
 11
176.0545320923121
 21
380.2254062408782
 31
0.0
 11
176.0567728814364
 21
380.2224807767563
 31
0.0
 11
176.0738799603705
 21
380.2000103292511
 31
0.0
 11
176.0949828381938
 21
380.1720505906621
 31
0.0
 11
176.1471051273165
 21
380.1091437403388
 31
0.0
 11
176.2040714463363
 21
380.0525413680743
 31
0.0
 11
176.306179153035
 21
379.9731174446888
 31
0.0
 11
176.4288382237579
 21
379.9001452755391
 31
0.0
 11
176.5535384559665
 21
379.8458577503077
 31
0.0
 11
176.6650548333122
 21
379.8207641344874
 31
0.0
 11
176.7626946354437
 21
379.8109962308658
 31
0.0
 11
176.872929467401
 21
379.799968318162
 31
0.0
  0
SPLINE
  5
2C4
330
A
100
AcDbEntity
  8
0
  6
Continuous
 62
     3
100
AcDbSpline
210
0.0
220
0.0
230
1.0
 70
     8
 71
     3
 72
    19
 73
    15
 74
    13
 42
0.0000000001
 43
0.0000000001
 44
0.00000000001
 40
0.0
 40
0.0
 40
0.0
 40
0.0
 40
0.0311414741216641
 40
0.0668080579744754
 40
0.1441558337469481
 40
0.2273900959516753
 40
0.3671996898572314
 40
0.517140943719022
 40
0.6588115499265866
 40
0.7881957053635721
 40
0.8623866585182154
 40
0.937003632978183
 40
0.9557868876886585
 40
0.9620602252901438
 40
0.9620602252901438
 40
0.9620602252901438
 40
0.9620602252901438
 10
176.872929467401
 20
378.199968242166
 30
0.0
 10
176.8625601526307
 20
378.1994858581553
 30
0.0
 10
176.8403147772314
 20
378.1984509958096
 30
0.0
 10
176.7922988429667
 20
378.196584914457
 30
0.0
 10
176.7270673398695
 20
378.1908790913574
 30
0.0
 10
176.6282103335385
 20
378.1743575911571
 30
0.0
 10
176.5083315944927
 20
378.1393849363709
 30
0.0
 10
176.3779075455787
 20
378.0778099550663
 30
0.0
 10
176.2587683133231
 20
378.0025418320943
 30
0.0
 10
176.1744261005698
 20
377.9232361421596
 30
0.0
 10
176.1151023303754
 20
377.8519410253261
 30
0.0
 10
176.0802809909626
 20
377.8082501629354
 30
0.0
 10
176.0601294846282
 20
377.7818341111772
 30
0.0
 10
176.0550495569617
 20
377.7752043724047
 30
0.0
 10
176.053777711978
 20
377.77354450625
 30
0.0
 11
176.872929467401
 21
378.199968242166
 31
0.0
 11
176.8418199394379
 21
378.1985580363722
 31
0.0
 11
176.8061899437805
 21
378.1969429161952
 31
0.0
 11
176.7291468483069
 21
378.1900843553548
 31
0.0
 11
176.6470677854075
 21
378.1762651716482
 31
0.0
 11
176.5128758446407
 21
378.1370319512695
 31
0.0
 11
176.3768966355075
 21
378.0738494038917
 31
0.0
 11
176.2581567284429
 21
377.996574601184
 31
0.0
 11
176.1634957866222
 21
377.9083727544247
 31
0.0
 11
176.1153955847115
 21
377.8518867552201
 31
0.0
 11
176.0690139622096
 21
377.793436451785
 31
0.0
 11
176.0575923624419
 21
377.7785247880192
 31
0.0
 11
176.053777711978
 21
377.77354450625
 31
0.0
  0
SPLINE
  5
2C3
330
A
100
AcDbEntity
  8
0
  6
Continuous
 62
     3
100
AcDbSpline
210
0.0
220
0.0
230
1.0
 70
     8
 71
     3
 72
    13
 73
     9
 74
     7
 42
0.0000000001
 43
0.0000000001
 44
0.00000000001
 40
0.0
 40
0.0
 40
0.0
 40
0.0
 40
0.0000434239655663
 40
0.000136937683257
 40
0.0003309902058431
 40
0.0004862110565163
 40
0.000711745249173
 40
0.000995993702546
 40
0.000995993702546
 40
0.000995993702546
 40
0.000995993702546
 10
176.053777711978
 20
377.77354450625
 30
0.0
 10
176.0537689098071
 20
377.7735330154957
 30
0.0
 10
176.0537411521192
 20
377.7734967793473
 30
0.0
 10
176.0536740559307
 20
377.7734091961033
 30
0.0
 10
176.0535843254653
 20
377.7732920084587
 30
0.0
 10
176.0534680651719
 20
377.7731397091177
 30
0.0
 10
176.0533337368946
 20
377.7729633783333
 30
0.0
 10
176.0532307229303
 20
377.7728282358348
 30
0.0
 10
176.053173283627
 20
377.772752882061
 30
0.0
 11
176.053777711978
 21
377.77354450625
 31
0.0
 11
176.0537513053215
 21
377.7735100340978
 31
0.0
 11
176.0536944384601
 21
377.7734357981532
 31
0.0
 11
176.0535764982749
 21
377.7732816991777
 31
0.0
 11
176.0534823033657
 21
377.7731583264434
 31
0.0
 11
176.0533455891842
 21
377.7729789527981
 31
0.0
 11
176.053173283627
 21
377.772752882061
 31
0.0
  0
SPLINE
  5
2C2
330
A
100
AcDbEntity
  8
0
  6
Continuous
 62
     3
100
AcDbSpline
210
0.0
220
0.0
230
1.0
 70
     8
 71
     3
 72
    37
 73
    33
 74
    31
 42
0.0000000001
 43
0.0000000001
 44
0.00000000001
 40
0.0
 40
0.0
 40
0.0
 40
0.0
 40
0.0067694912860916
 40
0.0131025565666107
 40
0.0214768303149613
 40
0.0308089637491511
 40
0.0428988855546425
 40
0.0544949028105775
 40
0.0664940163090888
 40
0.0785692417253717
 40
0.091023657671578
 40
0.1034076498493352
 40
0.1158622453572117
 40
0.1283301633236152
 40
0.1408464938215124
 40
0.1533452839598564
 40
0.1658605078649484
 40
0.1783896664286776
 40
0.1909199941616451
 40
0.2034380049140414
 40
0.2159347887576728
 40
0.2284493803112117
 40
0.2408952444278604
 40
0.2533259845069765
 40
0.2656265722971618
 40
0.2779355345388467
 40
0.2903720861192382
 40
0.3033661428054501
 40
0.3136571837291848
 40
0.3228817003648375
 40
0.3299517075424123
 40
0.3375029810355334
 40
0.3375029810355334
 40
0.3375029810355334
 40
0.3375029810355334
 10
176.951819008729
 20
379.799968318162
 30
0.0
 10
176.9540750072592
 20
379.8000162212312
 30
0.0
 10
176.9584415611268
 20
379.8001089390806
 30
0.0
 10
176.9655996429814
 20
379.800217281378
 30
0.0
 10
176.9736080920988
 20
379.8005653995479
 30
0.0
 10
176.9834987502423
 20
379.8015041987209
 30
0.0
 10
176.9944198952999
 20
379.8028811867043
 30
0.0
 10
177.0061661804145
 20
379.8047740792596
 30
0.0
 10
177.0178215804449
 20
379.8071429650142
 30
0.0
 10
177.0296454570509
 20
379.8100650933086
 30
0.0
 10
177.0414646094179
 20
379.813499293926
 30
0.0
 10
177.0532534704203
 20
379.8174540066296
 30
0.0
 10
177.0648717319863
 20
379.8218978888128
 30
0.0
 10
177.0763353556495
 20
379.8268390712279
 30
0.0
 10
177.0875975441867
 20
379.8322577554442
 30
0.0
 10
177.0986376843377
 20
379.8381492157965
 30
0.0
 10
177.109425773075
 20
379.844498889137
 30
0.0
 10
177.1199483130516
 20
379.8512988874704
 30
0.0
 10
177.1301799883145
 20
379.8585307637869
 30
0.0
 10
177.1400922249107
 20
379.8661770140952
 30
0.0
 10
177.1496721812103
 20
379.8742275276726
 30
0.0
 10
177.158889051466
 20
379.8826556791723
 30
0.0
 10
177.1677339290862
 20
379.8914420336128
 30
0.0
 10
177.1761611891206
 20
379.900532743208
 30
0.0
 10
177.1841738847588
 20
379.909930959786
 30
0.0
 10
177.1917888151187
 20
379.9196569207199
 30
0.0
 10
177.1991216959671
 20
379.9298828000244
 30
0.0
 10
177.2056984734487
 20
379.9398112215861
 30
0.0
 10
177.2113790792341
 20
379.9490443447561
 30
0.0
 10
177.2155835407316
 20
379.9568498012136
 30
0.0
 10
177.2191289536305
 20
379.9639638268812
 30
0.0
 10
177.2213328885586
 20
379.9683108344865
 30
0.0
 10
177.222471127799
 20
379.9705558801871
 30
0.0
 11
176.951819008729
 21
379.799968318162
 31
0.0
 11
176.9585871215972
 21
379.8001049215112
 31
0.0
 11
176.9649188973259
 21
379.8002327181048
 31
0.0
 11
176.9732842589988
 21
379.8006189627072
 31
0.0
 11
176.9825785287717
 21
379.801458762578
 31
0.0
 11
176.9945734039349
 21
379.8029717659094
 31
0.0
 11
177.0060197474901
 21
379.8048288699496
 31
0.0
 11
177.0177783723996
 21
379.8072191554949
 31
0.0
 11
177.0295018959126
 21
379.8101122620079
 31
0.0
 11
177.0414617452247
 21
379.8135870973986
 31
0.0
 11
177.0532022102982
 21
379.8175272423346
 31
0.0
 11
177.0648350239214
 21
379.8219763542092
 31
0.0
 11
177.0762848490974
 21
379.82691097495
 31
0.0
 11
177.087563390195
 21
379.8323380404409
 31
0.0
 11
177.0985902937187
 21
379.8382225245815
 31
0.0
 11
177.109376061223
 21
379.8445705989934
 31
0.0
 11
177.1198993674693
 21
379.8513705872258
 31
0.0
 11
177.1301314826788
 21
379.8586033551217
 31
0.0
 11
177.1400430590119
 21
379.8662493506612
 31
0.0
 11
177.1496101807554
 21
379.8742892379725
 31
0.0
 11
177.1588462666637
 21
379.8827337461789
 31
0.0
 11
177.1676760395855
 21
379.8915049857583
 31
0.0
 11
177.1761259964043
 21
379.9006220866502
 31
0.0
 11
177.1841058510782
 21
379.9099829829411
 31
0.0
 11
177.1916937039883
 21
379.9196749920043
 31
0.0
 11
177.198951394132
 21
379.9297741874668
 31
0.0
 11
177.2061281457558
 21
379.9406065346407
 31
0.0
 11
177.2114754217129
 21
379.9493992681822
 31
0.0
 11
177.2158748326561
 21
379.9575070971465
 31
0.0
 11
177.2190644201522
 21
379.9638167352578
 31
0.0
 11
177.222471127799
 21
379.9705558801871
 31
0.0
  0
SPLINE
  5
2C1
330
A
100
AcDbEntity
  8
0
  6
Continuous
 62
     3
100
AcDbSpline
210
0.0
220
0.0
230
1.0
 70
     8
 71
     3
 72
    23
 73
    19
 74
    17
 42
0.0000000001
 43
0.0000000001
 44
0.00000000001
 40
0.0
 40
0.0
 40
0.0
 40
0.0
 40
0.0144511377460673
 40
0.0277677480608508
 40
0.0454087317998054
 40
0.0654037134766192
 40
0.0911182310494763
 40
0.1155229320082379
 40
0.1398639499196818
 40
0.1644075898988248
 40
0.1891574962215466
 40
0.2136681779140638
 40
0.2388240417265575
 40
0.2653132222731633
 40
0.2869171531326689
 40
0.3062631573178816
 40
0.3214585094971263
 40
0.3377000108651432
 40
0.3377000108651432
 40
0.3377000108651432
 40
0.3377000108651432
 10
177.222471127799
 20
378.029379748819
 30
0.0
 10
177.2202043387432
 20
378.0336302089389
 30
0.0
 10
177.215848721316
 20
378.0417974347881
 30
0.0
 10
177.2089068988073
 20
378.0552478324894
 30
0.0
 10
177.2001735833391
 20
378.0698473711222
 30
0.0
 10
177.1874092786057
 20
378.0867051075787
 30
0.0
 10
177.1721491568816
 20
378.1044265471071
 30
0.0
 10
177.1545664517418
 20
378.1219844751856
 30
0.0
 10
177.1358515889619
 20
378.1377323162495
 30
0.0
 10
177.1158156279622
 20
378.1519559065541
 30
0.0
 10
177.0946510903137
 20
378.1645511520186
 30
0.0
 10
177.0723256408528
 20
378.1754315553497
 30
0.0
 10
177.0486049790135
 20
378.1845548366663
 30
0.0
 10
177.0252124397347
 20
378.191602076186
 30
0.0
 10
177.003260487134
 20
378.1966194471232
 30
0.0
 10
176.9846074453312
 20
378.198544858283
 30
0.0
 10
176.9676915884988
 20
378.1991589009443
 30
0.0
 10
176.9572259596714
 20
378.1996925422895
 30
0.0
 10
176.951819008729
 20
378.199968242166
 30
0.0
 11
177.222471127799
 21
378.029379748819
 31
0.0
 11
177.2157007286247
 21
378.0421467796867
 31
0.0
 11
177.2094618587817
 21
378.0539114986956
 31
0.0
 11
177.2003282835628
 21
378.0690039508157
 31
0.0
 11
177.1884203511936
 21
378.0850663428837
 31
0.0
 11
177.1716201514436
 21
378.1045340007389
 31
0.0
 11
177.1543165746848
 21
378.1217437555378
 31
0.0
 11
177.1357003895486
 21
378.1374256815656
 31
0.0
 11
177.115692527898
 21
378.1516410160883
 31
0.0
 11
177.0944178365749
 21
378.164287967187
 31
0.0
 11
177.0723804712016
 21
378.1750177409235
 31
0.0
 11
177.0489237098742
 21
378.1841060758746
 31
0.0
 11
177.0235625578454
 21
378.1917538633849
 31
0.0
 11
177.0024489185952
 21
378.1963303321321
 31
0.0
 11
176.9832190161736
 21
378.1984466333369
 31
0.0
 11
176.9680414739671
 21
378.1991821198578
 31
0.0
 11
176.951819008729
 21
378.199968242166
 31
0.0
  0
SPLINE
  5
2C0
330
A
100
AcDbEntity
  8
0
  6
Continuous
 62
     3
100
AcDbSpline
210
0.0
220
0.0
230
1.0
 70
     8
 71
     3
 72
    13
 73
     9
 74
     7
 42
0.0000000001
 43
0.0000000001
 44
0.00000000001
 40
0.0
 40
0.0
 40
0.0
 40
0.0
 40
0.0190244930880431
 40
0.0409810668642073
 40
0.0632610682099589
 40
0.0828184992435041
 40
0.1032334266063332
 40
0.1261389896526233
 40
0.1261389896526233
 40
0.1261389896526233
 40
0.1261389896526233
 10
79.65236054970898
 20
381.9423473785501
 30
0.0
 10
79.64817314784283
 20
381.9471154216805
 30
0.0
 10
79.63915297605322
 20
381.9573863652183
 30
0.0
 10
79.62494584712783
 20
381.9728700366058
 30
0.0
 10
79.61176897100433
 20
381.989992615897
 30
0.0
 10
79.60636855396484
 20
382.0104221425899
 30
0.0
 10
79.60494403294747
 20
382.0313114429606
 30
0.0
 10
79.60325354376886
 20
382.0456586021429
 30
0.0
 10
79.60235970332306
 20
382.053244614122
 30
0.0
 11
79.65236054970898
 21
381.9423473785501
 31
0.0
 11
79.63975883555225
 21
381.9565996814366
 31
0.0
 11
79.62521492811095
 21
381.9730485685821
 31
0.0
 11
79.61262807083655
 21
381.9914325149463
 31
0.0
 11
79.60705626385148
 21
382.0101794633794
 31
0.0
 11
79.60484299384606
 21
382.0304740610623
 31
0.0
 11
79.60235970332306
 21
382.053244614122
 31
0.0
  0
SPLINE
  5
2BF
330
A
100
AcDbEntity
  8
0
  6
Continuous
 62
     6
100
AcDbSpline
210
0.0
220
0.0
230
1.0
 70
     8
 71
     3
 72
    27
 73
    23
 74
    21
 42
0.0000000001
 43
0.0000000001
 44
0.00000000001
 40
0.0
 40
0.0
 40
0.0
 40
0.0
 40
0.0324851745783232
 40
0.0621264817493755
 40
0.0852122272700803
 40
0.1076555700856534
 40
0.1238597390459992
 40
0.1401314503495445
 40
0.1570728203303679
 40
0.1744494833573775
 40
0.1918972282075532
 40
0.2093449581327814
 40
0.2267927430030576
 40
0.2442405209108039
 40
0.2616399589144007
 40
0.2787436442448754
 40
0.2953953558327581
 40
0.3120163201897095
 40
0.3327974772606181
 40
0.353967021792581
 40
0.3793984606699232
 40
0.4066924319523069
 40
0.4066924319523069
 40
0.4066924319523069
 40
0.4066924319523069
 10
190.075957076516
 20
281.002604731625
 30
0.0
 10
190.0651097529918
 20
281.0030296120512
 30
0.0
 10
190.0443647191202
 20
281.003842177364
 30
0.0
 10
190.0166674343194
 20
281.0109503578464
 30
0.0
 10
189.993341861891
 20
281.0201774510365
 30
0.0
 10
189.9750578486361
 20
281.0297070542984
 30
0.0
 10
189.95962245871
 20
281.0395845554221
 30
0.0
 10
189.9465863356876
 20
281.0496922995141
 30
0.0
 10
189.9342001921836
 20
281.0611645861809
 30
0.0
 10
189.9225330033204
 20
281.0739054597414
 30
0.0
 10
189.9119133409647
 20
281.0877474605895
 30
0.0
 10
189.9025266876916
 20
281.1024813438871
 30
0.0
 10
189.8944621789193
 20
281.1179784829562
 30
0.0
 10
189.8877834625342
 20
281.134104122878
 30
0.0
 10
189.8825684108608
 20
281.15063924386
 30
0.0
 10
189.8788147171762
 20
281.1672934760967
 30
0.0
 10
189.8765670653836
 20
281.1839577343786
 30
0.0
 10
189.8757581633684
 20
281.2019771203421
 30
0.0
 10
189.8766001847949
 20
281.2215172875887
 30
0.0
 10
189.8797823089564
 20
281.2437759165858
 30
0.0
 10
189.8859588958963
 20
281.2677410898384
 30
0.0
 10
189.893285658817
 20
281.2837494834528
 30
0.0
 10
189.897078449734
 20
281.292036429619
 30
0.0
 11
190.075957076516
 21
281.002604731625
 31
0.0
 11
190.0435658960794
 21
281.0050741439651
 31
0.0
 11
190.0147821760942
 21
281.0121526010444
 31
0.0
 11
189.993307865712
 21
281.0206264218979
 31
0.0
 11
189.9734070266147
 21
281.0310023671542
 31
0.0
 11
189.9597809867316
 21
281.0397719811023
 31
0.0
 11
189.9469141507926
 21
281.0497325594823
 31
0.0
 11
189.9344694394361
 21
281.0612277400411
 31
0.0
 11
189.9227417121061
 21
281.0740499406957
 31
0.0
 11
189.9121212476336
 21
281.0878929726883
 31
0.0
 11
189.9027470551694
 21
281.1026085357148
 31
0.0
 11
189.8946921156499
 21
281.1180857171836
 31
0.0
 11
189.8880160268813
 21
281.1342057293632
 31
0.0
 11
189.8827756732522
 21
281.150797267468
 31
0.0
 11
189.8790308121509
 21
281.1674859482792
 31
0.0
 11
189.876812803642
 21
281.183989279369
 31
0.0
 11
189.8760371332051
 21
281.20059213429
 31
0.0
 11
189.8769327627226
 21
281.2213539824007
 31
0.0
 11
189.8799307152303
 21
281.2423101723324
 31
0.0
 11
189.8864824700316
 21
281.2668831776918
 31
0.0
 11
189.897078449734
 21
281.292036429619
 31
0.0
  0
CIRCLE
  5
2BE
330
A
100
AcDbEntity
  8
0
  6
Continuous
 62
     6
100
AcDbCircle
 10
197.0022873754
 20
249.754529753295
 30
0.0
 40
2.299915029144
  0
CIRCLE
  5
2BD
330
A
100
AcDbEntity
  8
0
  6
Continuous
 62
     3
100
AcDbCircle
 10
176.7523626031
 20
372.499968000795
 30
0.0
 40
1.55
  0
CIRCLE
  5
2BC
330
A
100
AcDbEntity
  8
0
  6
Continuous
 62
     3
100
AcDbCircle
 10
198.4523626031
 20
372.499968000795
 30
0.0
 40
1.55
  0
CIRCLE
  5
2BB
330
A
100
AcDbEntity
  8
0
  6
Continuous
 62
     3
100
AcDbCircle
 10
283.0023626001
 20
382.499968000795
 30
0.0
 40
2.0
  0
CIRCLE
  5
2BA
330
A
100
AcDbEntity
  8
0
  6
Continuous
 62
     3
100
AcDbCircle
 10
47.0023626001
 20
382.499968000795
 30
0.0
 40
2.0
  0
CIRCLE
  5
2B9
330
A
100
AcDbEntity
  8
0
  6
Continuous
 62
     3
100
AcDbCircle
 10
55.0023626001
 20
386.499968000795
 30
0.0
 40
2.0
  0
CIRCLE
  5
2B8
330
A
100
AcDbEntity
  8
0
  6
Continuous
 62
     3
100
AcDbCircle
 10
275.0023626001
 20
386.499968000795
 30
0.0
 40
2.0
  0
ARC
  5
2B7
330
A
100
AcDbEntity
  8
0
  6
Continuous
 62
     6
100
AcDbCircle
 10
182.1112784778
 20
348.749968000795
 30
0.0
 40
0.25
100
AcDbArc
 50
-179.499999999917
 51
-90.0
  0
ARC
  5
2B6
330
A
100
AcDbEntity
  8
0
  6
Continuous
 62
     6
100
AcDbCircle
 10
182.1112784778
 20
362.249968000795
 30
0.0
 40
0.25
100
AcDbArc
 50
90.0
 51
179.499999999904
  0
ARC
  5
2B5
330
A
100
AcDbEntity
  8
0
  6
Continuous
 62
     6
100
AcDbCircle
 10
211.8934467235
 20
362.249968000795
 30
0.0
 40
0.25
100
AcDbArc
 50
0.500000000096
 51
90.0
  0
ARC
  5
2B4
330
A
100
AcDbEntity
  8
0
  6
Continuous
 62
     6
100
AcDbCircle
 10
211.8934467235
 20
348.749968000795
 30
0.0
 40
0.25
100
AcDbArc
 50
-90.0
 51
-0.500000000083
  0
ARC
  5
2B3
330
A
100
AcDbEntity
  8
0
  6
Continuous
 62
     6
100
AcDbCircle
 10
177.3112784778
 20
348.749968000795
 30
0.0
 40
0.25
100
AcDbArc
 50
-179.499999999917
 51
-90.0
  0
ARC
  5
2B2
330
A
100
AcDbEntity
  8
0
  6
Continuous
 62
     6
100
AcDbCircle
 10
216.6934467235
 20
362.249968000795
 30
0.0
 40
0.25
100
AcDbArc
 50
0.500000000096
 51
90.0
  0
ARC
  5
2B1
330
A
100
AcDbEntity
  8
0
  6
Continuous
 62
     6
100
AcDbCircle
 10
216.6934467235
 20
348.749968000795
 30
0.0
 40
0.25
100
AcDbArc
 50
-90.0
 51
-0.500000000083
  0
ARC
  5
2B0
330
A
100
AcDbEntity
  8
0
  6
Continuous
 62
     6
100
AcDbCircle
 10
169.3023382907
 20
341.927012645695
 30
0.0
 40
0.299975738914
100
AcDbArc
 50
-179.995642556425
 51
-89.995352094151
  0
ARC
  5
2AF
330
A
100
AcDbEntity
  8
0
  6
Continuous
 62
     6
100
AcDbCircle
 10
224.7023863037
 20
341.927012905995
 30
0.0
 40
0.299975999318
100
AcDbArc
 50
-90.00484275857798
 51
-0.004407160849
  0
ARC
  5
2AE
330
A
100
AcDbEntity
  8
0
  6
Continuous
 62
     6
100
AcDbCircle
 10
171.0023626007
 20
363.099968000795
 30
0.0
 40
2.0
100
AcDbArc
 50
148.211669245784
 51
180.0
  0
ARC
  5
2AD
330
A
100
AcDbEntity
  8
0
  6
Continuous
 62
     6
100
AcDbCircle
 10
223.0023626007
 20
363.099968000795
 30
0.0
 40
2.0
100
AcDbArc
 50
0.0
 51
90.0
  0
ARC
  5
2AC
330
A
100
AcDbEntity
  8
0
  6
Continuous
 62
     3
100
AcDbCircle
 10
179.1023626032
 20
357.714843274295
 30
0.0
 40
0.5
100
AcDbArc
 50
-36.50000000000101
 51
0.0
  0
ARC
  5
2AB
330
A
100
AcDbEntity
  8
0
  6
Continuous
 62
     3
100
AcDbCircle
 10
176.5655384473
 20
353.950287591895
 30
0.0
 40
0.3
100
AcDbArc
 50
-126.499999999944
 51
-36.499999999973
  0
ARC
  5
2AA
330
A
100
AcDbEntity
  8
0
  6
Continuous
 62
     3
100
AcDbCircle
 10
190.6023626032
 20
365.249968000795
 30
0.0
 40
1.0
100
AcDbArc
 50
0.0
 51
48.590377890692
  0
ARC
  5
2A9
330
A
100
AcDbEntity
  8
0
  6
Continuous
 62
     3
100
AcDbCircle
 10
180.1023626032
 20
365.749968000795
 30
0.0
 40
0.5
100
AcDbArc
 50
149.999999999986
 51
180.0
  0
ARC
  5
2A8
330
A
100
AcDbEntity
  8
0
  6
Continuous
 62
     6
100
AcDbCircle
 10
169.2648661504
 20
347.656508657595
 30
0.0
 40
0.267807875719
100
AcDbArc
 50
81.951425133989
 51
168.57756945043
  0
ARC
  5
2A7
330
A
100
AcDbEntity
  8
0
  6
Continuous
 62
     6
100
AcDbCircle
 10
224.7398582151
 20
347.656508191895
 30
0.0
 40
0.267808447604
100
AcDbArc
 50
11.422507473875
 51
98.04872852439501
  0
ARC
  5
2A6
330
A
100
AcDbEntity
  8
0
  6
Continuous
 62
     6
100
AcDbCircle
 10
202.2023626007
 20
285.736757975795
 30
0.0
 40
0.2
100
AcDbArc
 50
73.90918035961701
 51
180.0
  0
ARC
  5
2A5
330
A
100
AcDbEntity
  8
0
  6
Continuous
 62
     6
100
AcDbCircle
 10
207.4023626007
 20
286.758643551095
 30
0.0
 40
0.2
100
AcDbArc
 50
78.690075879687
 51
180.0
  0
ARC
  5
2A4
330
A
100
AcDbEntity
  8
0
  6
Continuous
 62
     6
100
AcDbCircle
 10
186.6023626007
 20
286.758643551095
 30
0.0
 40
0.2
100
AcDbArc
 50
0.0
 51
101.309924120313
  0
ARC
  5
2A3
330
A
100
AcDbEntity
  8
0
  6
Continuous
 62
     6
100
AcDbCircle
 10
182.8023626007
 20
285.182801028895
 30
0.0
 40
1.0
100
AcDbArc
 50
101.309924120207
 51
180.0
  0
ARC
  5
2A2
330
A
100
AcDbEntity
  8
0
  6
Continuous
 62
     6
100
AcDbCircle
 10
211.2023626007
 20
285.182801028895
 30
0.0
 40
1.0
100
AcDbArc
 50
0.0
 51
78.690075879794
  0
ARC
  5
2A1
330
A
100
AcDbEntity
  8
0
  6
Continuous
 62
     6
100
AcDbCircle
 10
169.3023626007
 20
279.202604731595
 30
0.0
 40
0.3
100
AcDbArc
 50
90.0
 51
180.0
  0
ARC
  5
2A0
330
A
100
AcDbEntity
  8
0
  6
Continuous
 62
     6
100
AcDbCircle
 10
224.7023626007
 20
279.202604731595
 30
0.0
 40
0.3
100
AcDbArc
 50
0.0
 51
90.0
  0
ARC
  5
29F
330
A
100
AcDbEntity
  8
0
  6
Continuous
 62
     6
100
AcDbCircle
 10
216.0026279623
 20
249.754264366295
 30
0.0
 40
2.299649656217999
100
AcDbArc
 50
-90.00660927059499
 51
90.00660927059499
  0
ARC
  5
29E
330
A
100
AcDbEntity
  8
0
  6
Continuous
 62
     6
100
AcDbCircle
 10
214.002097089
 20
249.754264366295
 30
0.0
 40
2.299649656217999
100
AcDbArc
 50
89.993390729405
 51
-89.993390729405
  0
ARC
  5
29D
330
A
100
AcDbEntity
  8
0
  6
Continuous
 62
     6
100
AcDbCircle
 10
178.0020975522
 20
249.754264366295
 30
0.0
 40
2.299649656236
100
AcDbArc
 50
89.99338686259701
 51
-89.99338686259701
  0
ARC
  5
29C
330
A
100
AcDbEntity
  8
0
  6
Continuous
 62
     6
100
AcDbCircle
 10
180.0026282702
 20
249.754264366295
 30
0.0
 40
2.29964965629
100
AcDbArc
 50
-90.006624737505
 51
90.006624737505
  0
ARC
  5
29B
330
A
100
AcDbEntity
  8
0
  6
Continuous
 62
     6
100
AcDbCircle
 10
171.0022121537
 20
245.860248367495
 30
0.0
 40
1.999849607053999
100
AcDbArc
 50
-179.995566481
 51
-89.995688342286
  0
ARC
  5
29A
330
A
100
AcDbEntity
  8
0
  6
Continuous
 62
     6
100
AcDbCircle
 10
223.0025124317
 20
245.860248636895
 30
0.0
 40
1.999849876424
100
AcDbArc
 50
-90.004310610804
 51
-0.004441235898
  0
ARC
  5
299
330
A
100
AcDbEntity
  8
0
  6
Continuous
 62
     3
100
AcDbCircle
 10
198.0142605357
 20
285.702732047895
 30
0.0
 40
0.299872735593
100
AcDbArc
 50
9.573504435690001
 51
90.025336342282
  0
ARC
  5
298
330
A
100
AcDbEntity
  8
0
  6
Continuous
 62
     3
100
AcDbCircle
 10
41.3023626002
 20
279.102604731595
 30
0.0
 40
0.3
100
AcDbArc
 50
180.0
 51
-90.000000005098
  0
ARC
  5
297
330
A
100
AcDbEntity
  8
0
  6
Continuous
 62
     3
100
AcDbCircle
 10
288.7023626002
 20
279.102604731595
 30
0.0
 40
0.3
100
AcDbArc
 50
-90.00000017666399
 51
0.000000011833
  0
ARC
  5
296
330
A
100
AcDbEntity
  8
0
  6
Continuous
 62
     3
100
AcDbCircle
 10
41.3023626002
 20
289.502604731595
 30
0.0
 40
0.3
100
AcDbArc
 50
89.999999828495
 51
180.0
  0
ARC
  5
295
330
A
100
AcDbEntity
  8
0
  6
Continuous
 62
     3
100
AcDbCircle
 10
288.7023626002
 20
289.502604731595
 30
0.0
 40
0.3
100
AcDbArc
 50
-0.000000011866
 51
90.0
  0
ARC
  5
294
330
A
100
AcDbEntity
  8
0
  6
Continuous
 62
     6
100
AcDbCircle
 10
169.2273933747
 20
280.548398741795
 30
0.0
 40
4.302295314154999
100
AcDbArc
 50
-92.998214111497
 51
-89.001547141499
  0
ARC
  5
293
330
A
100
AcDbEntity
  8
0
  6
Continuous
 62
     6
100
AcDbCircle
 10
224.7773307618
 20
280.548421565395
 30
0.0
 40
4.3023181441
100
AcDbArc
 50
-90.99845504809499
 51
-87.001792233194
  0
ARC
  5
292
330
A
100
AcDbEntity
  8
0
  6
Continuous
 62
     6
100
AcDbCircle
 10
169.2661720422
 20
269.7403196493949
 30
0.0
 40
0.26856428914
100
AcDbArc
 50
-169.202519023523
 51
-82.25550349570299
  0
ARC
  5
291
330
A
100
AcDbEntity
  8
0
  6
Continuous
 62
     6
100
AcDbCircle
 10
169.2661729769
 20
255.563426038195
 30
0.0
 40
0.268565450786
100
AcDbArc
 50
-169.2022840640239
 51
-82.255738455371
  0
ARC
  5
290
330
A
100
AcDbEntity
  8
0
  6
Continuous
 62
     6
100
AcDbCircle
 10
224.7385513966
 20
255.563426492695
 30
0.0
 40
0.268566008756
100
AcDbArc
 50
-97.744417428688
 51
-10.797791926592
  0
ARC
  5
28F
330
A
100
AcDbEntity
  8
0
  6
Continuous
 62
     6
100
AcDbCircle
 10
399.357214765087
 20
362.249968000795
 30
0.0
 40
0.25
100
AcDbArc
 50
0.500000000005
 51
90.0
  0
ARC
  5
28E
330
A
100
AcDbEntity
  8
0
  6
Continuous
 62
     6
100
AcDbCircle
 10
433.508381831487
 20
345.187563967695
 30
0.0
 40
0.3
100
AcDbArc
 50
-89.00000000003499
 51
1.000000000008
  0
ARC
  5
28D
330
A
100
AcDbEntity
  8
0
  6
Continuous
 62
     6
100
AcDbCircle
 10
433.6943894453869
 20
345.990932605095
 30
0.0
 40
0.1
100
AcDbArc
 50
0.9999999999719999
 51
91.00000000017201
  0
ARC
  5
28C
330
A
100
AcDbEntity
  8
0
  6
Continuous
 62
     6
100
AcDbCircle
 10
422.731094347787
 20
344.199323852495
 30
0.0
 40
1.7
100
AcDbArc
 50
90.99999999998699
 51
136.000000000007
  0
ARC
  5
28B
330
A
100
AcDbEntity
  8
0
  6
Continuous
 62
     6
100
AcDbCircle
 10
420.6026936606869
 20
345.162324808295
 30
0.0
 40
0.5
100
AcDbArc
 50
-88.99999999995898
 51
-44.00000000002999
  0
ARC
  5
28A
330
A
100
AcDbEntity
  8
0
  6
Continuous
 62
     6
100
AcDbCircle
 10
422.731094347787
 20
344.199323852495
 30
0.0
 40
0.5
100
AcDbArc
 50
91.00000000004101
 51
135.999999999979
  0
ARC
  5
289
330
A
100
AcDbEntity
  8
0
  6
Continuous
 62
     6
100
AcDbCircle
 10
420.6026936606869
 20
345.162324808295
 30
0.0
 40
1.7
100
AcDbArc
 50
-89.000000000013
 51
-43.999999999994
  0
ARC
  5
288
330
A
100
AcDbEntity
  8
0
  6
Continuous
 62
     6
100
AcDbCircle
 10
408.5541999642869
 20
342.751682446895
 30
0.0
 40
0.5
100
AcDbArc
 50
91.00000000004101
 51
135.999999999975
  0
ARC
  5
287
330
A
100
AcDbEntity
  8
0
  6
Continuous
 62
     6
100
AcDbCircle
 10
408.5541999642869
 20
342.751682446895
 30
0.0
 40
1.7
100
AcDbArc
 50
90.99999999998699
 51
136.00000000001
  0
ARC
  5
286
330
A
100
AcDbEntity
  8
0
  6
Continuous
 62
     6
100
AcDbCircle
 10
406.1310806905869
 20
343.409493372295
 30
0.0
 40
1.7
100
AcDbArc
 50
-89.000000000013
 51
-43.99999999999099
  0
ARC
  5
285
330
A
100
AcDbEntity
  8
0
  6
Continuous
 62
     6
100
AcDbCircle
 10
406.1310806905869
 20
343.409493372295
 30
0.0
 40
0.5
100
AcDbArc
 50
-88.999999999946
 51
-44.000000000034
  0
ARC
  5
284
330
A
100
AcDbEntity
  8
0
  6
Continuous
 62
     6
100
AcDbCircle
 10
400.7661306422869
 20
364.999968000795
 30
0.0
 40
0.1
100
AcDbArc
 50
0.0
 51
90.0
  0
ARC
  5
283
330
A
100
AcDbEntity
  8
0
  6
Continuous
 62
     6
100
AcDbCircle
 10
401.366130642287
 20
344.826549351895
 30
0.0
 40
3.2
100
AcDbArc
 50
180.0
 51
-88.999999999987
  0
ARC
  5
282
330
A
100
AcDbEntity
  8
0
  6
Continuous
 62
     6
100
AcDbCircle
 10
401.366130642287
 20
344.826549351895
 30
0.0
 40
2.0
100
AcDbArc
 50
180.0
 51
-88.999999999987
  0
ARC
  5
281
330
A
100
AcDbEntity
  8
0
  6
Continuous
 62
     6
100
AcDbCircle
 10
399.966130642287
 20
364.799968000795
 30
0.0
 40
0.3
100
AcDbArc
 50
90.0
 51
180.0
  0
ARC
  5
280
330
A
100
AcDbEntity
  8
0
  6
Continuous
 62
     6
100
AcDbCircle
 10
399.666130642287
 20
349.070205694295
 30
0.0
 40
1.199999999999999
100
AcDbArc
 50
-45.0
 51
0.0
  0
ARC
  5
27F
330
A
100
AcDbEntity
  8
0
  6
Continuous
 62
     6
100
AcDbCircle
 10
399.366130642287
 20
347.073149419495
 30
0.0
 40
1.199999999999999
100
AcDbArc
 50
135.000000000002
 51
180.0
  0
ARC
  5
27E
330
A
100
AcDbEntity
  8
0
  6
Continuous
 62
     3
100
AcDbCircle
 10
388.166130642287
 20
391.199968000795
 30
0.0
 40
0.3
100
AcDbArc
 50
90.00000001164899
 51
-179.999999976507
  0
ARC
  5
27D
330
A
100
AcDbEntity
  8
0
  6
Continuous
 62
     3
100
AcDbCircle
 10
398.5661306422869
 20
391.199968000795
 30
0.0
 40
0.3
100
AcDbArc
 50
-0.000000023493
 51
89.99999998816601
  0
ARC
  5
27C
330
A
100
AcDbEntity
  8
0
  6
Continuous
 62
     3
100
AcDbCircle
 10
398.5661306422869
 20
371.299968000795
 30
0.0
 40
0.3
100
AcDbArc
 50
-90.0
 51
0.000000171508
  0
ARC
  5
27B
330
A
100
AcDbEntity
  8
0
  6
Continuous
 62
     3
100
AcDbCircle
 10
388.166130642287
 20
371.299968000795
 30
0.0
 40
0.3
100
AcDbArc
 50
-179.999999988155
 51
-90.0
  0
ARC
  5
27A
330
A
100
AcDbEntity
  8
0
  6
Continuous
 62
     3
100
AcDbCircle
 10
398.5661306422869
 20
366.299968000795
 30
0.0
 40
0.3
100
AcDbArc
 50
-90.000000021962
 51
-0.000000010313
  0
ARC
  5
279
330
A
100
AcDbEntity
  8
0
  6
Continuous
 62
     3
100
AcDbCircle
 10
388.166130642287
 20
366.299968000795
 30
0.0
 40
0.3
100
AcDbArc
 50
-179.999999989686
 51
-90.0
  0
ARC
  5
278
330
A
100
AcDbEntity
  8
0
  6
Continuous
 62
     6
100
AcDbCircle
 10
391.810693334187
 20
362.252421120595
 30
0.0
 40
0.247558735631
100
AcDbArc
 50
90.56073676073699
 51
-179.937166421597
  0
ARC
  5
277
330
A
100
AcDbEntity
  8
0
  6
Continuous
 62
     6
100
AcDbCircle
 10
391.810693334187
 20
348.747514880995
 30
0.0
 40
0.247558735631
100
AcDbArc
 50
179.937166421597
 51
-90.56073676073699
  0
ARC
  5
276
330
A
100
AcDbEntity
  8
0
  6
Continuous
 62
     3
100
AcDbCircle
 10
79.9523626031
 20
382.299968000795
 30
0.0
 40
0.3
100
AcDbArc
 50
90.0
 51
180.0
  0
ARC
  5
275
330
A
100
AcDbEntity
  8
0
  6
Continuous
 62
     3
100
AcDbCircle
 10
79.9523626031
 20
375.699968000795
 30
0.0
 40
0.3
100
AcDbArc
 50
180.0
 51
-90.0
  0
ARC
  5
274
330
A
100
AcDbEntity
  8
0
  6
Continuous
 62
     3
100
AcDbCircle
 10
164.7523626030999
 20
380.649968000795
 30
0.0
 40
0.05
100
AcDbArc
 50
90.0
 51
180.0
  0
ARC
  5
273
330
A
100
AcDbEntity
  8
0
  6
Continuous
 62
     3
100
AcDbCircle
 10
164.7523626030999
 20
377.349968000795
 30
0.0
 40
0.05
100
AcDbArc
 50
180.0
 51
-90.0
  0
ARC
  5
272
330
A
100
AcDbEntity
  8
0
  6
Continuous
 62
     3
100
AcDbCircle
 10
179.2523626031
 20
378.999968000795
 30
0.0
 40
2.25
100
AcDbArc
 50
-151.96519951291
 51
151.965199512906
  0
ARC
  5
271
330
A
100
AcDbEntity
  8
0
  6
Continuous
 62
     3
100
AcDbCircle
 10
174.5004154462
 20
377.298559986295
 30
0.0
 40
1.0
100
AcDbArc
 50
-78.28345907587901
 51
-39.05228469820001
  0
ARC
  5
270
330
A
100
AcDbEntity
  8
0
  6
Continuous
 62
     3
100
AcDbCircle
 10
174.5004154462
 20
380.701376015295
 30
0.0
 40
1.0
100
AcDbArc
 50
39.052284698193
 51
78.283459075878
  0
ARC
  5
26F
330
A
100
AcDbEntity
  8
0
  6
Continuous
 62
     3
100
AcDbCircle
 10
170.6497591599
 20
376.499968000795
 30
0.0
 40
1.0
100
AcDbArc
 50
-90.0
 51
-78.28345907587601
  0
ARC
  5
26E
330
A
100
AcDbEntity
  8
0
  6
Continuous
 62
     3
100
AcDbCircle
 10
170.6497591599
 20
381.499968000795
 30
0.0
 40
1.0
100
AcDbArc
 50
78.283459075878
 51
90.0
  0
ARC
  5
26D
330
A
100
AcDbEntity
  8
0
  6
Continuous
 62
     3
100
AcDbCircle
 10
166.0023626176
 20
375.799968000795
 30
0.0
 40
0.3
100
AcDbArc
 50
180.0
 51
-90.0
  0
ARC
  5
26C
330
A
100
AcDbEntity
  8
0
  6
Continuous
 62
     3
100
AcDbCircle
 10
166.0023626176
 20
382.199968000795
 30
0.0
 40
0.3
100
AcDbArc
 50
90.0
 51
180.0
  0
ARC
  5
26B
330
A
100
AcDbEntity
  8
0
  6
Continuous
 62
     3
100
AcDbCircle
 10
181.3308235722
 20
377.049968000795
 30
0.0
 40
0.5
100
AcDbArc
 50
136.826448892687
 51
-90.0
  0
ARC
  5
26A
330
A
100
AcDbEntity
  8
0
  6
Continuous
 62
     3
100
AcDbCircle
 10
179.2523626031
 20
378.999968000795
 30
0.0
 40
2.35
100
AcDbArc
 50
-43.17355110728899
 51
110.540977537505
  0
ARC
  5
269
330
A
100
AcDbEntity
  8
0
  6
Continuous
 62
     3
100
AcDbCircle
 10
178.2523626031
 20
381.668769229795
 30
0.0
 40
0.5
100
AcDbArc
 50
180.0
 51
-69.459022462485
  0
ARC
  5
268
330
A
100
AcDbEntity
  8
0
  6
Continuous
 62
     3
100
AcDbCircle
 10
180.1023626031
 20
365.749968000795
 30
0.0
 40
0.5
100
AcDbArc
 50
149.999999999988
 51
180.0
  0
ARC
  5
267
330
A
100
AcDbEntity
  8
0
  6
Continuous
 62
     3
100
AcDbCircle
 10
176.5523626031
 20
377.699968000795
 30
0.0
 40
0.3
100
AcDbArc
 50
90.0
 51
180.0
  0
ARC
  5
266
330
A
100
AcDbEntity
  8
0
  6
Continuous
 62
     3
100
AcDbCircle
 10
176.9431419554
 20
377.699968000795
 30
0.0
 40
0.3
100
AcDbArc
 50
29.377792383413
 51
90.0
  0
ARC
  5
265
330
A
100
AcDbEntity
  8
0
  6
Continuous
 62
     3
100
AcDbCircle
 10
198.4523626031
 20
372.499968000795
 30
0.0
 40
3.049999999999999
100
AcDbArc
 50
148.35934261171
 51
-139.024389657406
  0
ARC
  5
264
330
A
100
AcDbEntity
  8
0
  6
Continuous
 62
     3
100
AcDbCircle
 10
179.2523626031
 20
378.999968000795
 30
0.0
 40
2.35
100
AcDbArc
 50
-150.622207616605
 51
-43.17355110728899
  0
ARC
  5
263
330
A
100
AcDbEntity
  8
0
  6
Continuous
 62
     3
100
AcDbCircle
 10
266.5023626001
 20
381.499968000795
 30
0.0
 40
0.5
100
AcDbArc
 50
0.0
 51
90.0
  0
ARC
  5
262
330
A
100
AcDbEntity
  8
0
  6
Continuous
 62
     3
100
AcDbCircle
 10
249.8228769401
 20
381.499968000795
 30
0.0
 40
0.5
100
AcDbArc
 50
90.0
 51
173.769169484556
  0
ARC
  5
261
330
A
100
AcDbEntity
  8
0
  6
Continuous
 62
     3
100
AcDbCircle
 10
219.5030494001
 20
384.810263746795
 30
0.0
 40
29.999999999847
100
AcDbArc
 50
-14.021226081299
 51
-6.230830517598999
  0
ARC
  5
260
330
A
100
AcDbEntity
  8
0
  6
Continuous
 62
     3
100
AcDbCircle
 10
238.9071701211
 20
379.964636952795
 30
0.0
 40
10.000000000226
100
AcDbArc
 50
-18.689818301002
 51
-14.021226069201
  0
ARC
  5
25F
330
A
100
AcDbEntity
  8
0
  6
Continuous
 62
     3
100
AcDbCircle
 10
248.8534761111
 20
376.599968000795
 30
0.0
 40
0.5000000000770001
100
AcDbArc
 50
161.31018197363
 51
-90.0
  0
ARC
  5
25E
330
A
100
AcDbEntity
  8
0
  6
Continuous
 62
     3
100
AcDbCircle
 10
266.5023626001
 20
376.599968000795
 30
0.0
 40
0.5
100
AcDbArc
 50
-90.0
 51
0.0
  0
ARC
  5
25D
330
A
100
AcDbEntity
  8
0
  6
Continuous
 62
     3
100
AcDbCircle
 10
268.8177041621
 20
384.499968000795
 30
0.0
 40
0.5
100
AcDbArc
 50
-90.0
 51
17.920212986429
  0
ARC
  5
25C
330
A
100
AcDbEntity
  8
0
  6
Continuous
 62
     3
100
AcDbCircle
 10
275.0023626001
 20
386.499968000795
 30
0.0
 40
6.0
100
AcDbArc
 50
157.380135055098
 51
-162.079786846595
  0
ARC
  5
25B
330
A
100
AcDbEntity
  8
0
  6
Continuous
 62
     3
100
AcDbCircle
 10
269.0023626000999
 20
388.999968000795
 30
0.0
 40
0.5
100
AcDbArc
 50
-22.619864985703
 51
90.0
  0
ARC
  5
25A
330
A
100
AcDbEntity
  8
0
  6
Continuous
 62
     3
100
AcDbCircle
 10
261.6059733771
 20
388.999968000795
 30
0.0
 40
0.5
100
AcDbArc
 50
90.0
 51
-124.999999995159
  0
ARC
  5
259
330
A
100
AcDbEntity
  8
0
  6
Continuous
 62
     3
100
AcDbCircle
 10
268.0326394081
 20
384.499968000795
 30
0.0
 40
0.5
100
AcDbArc
 50
-124.999999995057
 51
-90.00000001100202
  0
ARC
  5
258
330
A
100
AcDbEntity
  8
0
  6
Continuous
 62
     3
100
AcDbCircle
 10
241.1961114941
 20
381.499968000795
 30
0.0
 40
0.5
100
AcDbArc
 50
-9.070794058118
 51
90.00000000584298
  0
ARC
  5
257
330
A
100
AcDbEntity
  8
0
  6
Continuous
 62
     3
100
AcDbCircle
 10
234.0427168471
 20
381.499968000795
 30
0.0
 40
0.5
100
AcDbArc
 50
90.0
 51
-125.000000007234
  0
ARC
  5
256
330
A
100
AcDbEntity
  8
0
  6
Continuous
 62
     3
100
AcDbCircle
 10
238.9636820831
 20
378.0542710467949
 30
0.0
 40
0.499999999781
100
AcDbArc
 50
-124.999999998354
 51
-86.24085952220999
  0
ARC
  5
255
330
A
100
AcDbEntity
  8
0
  6
Continuous
 62
     3
100
AcDbCircle
 10
238.8325574491
 20
380.049968000795
 30
0.0
 40
2.500000000038999
100
AcDbArc
 50
-86.24085958079099
 51
-15.756263105794
  0
ARC
  5
254
330
A
100
AcDbEntity
  8
0
  6
Continuous
 62
     3
100
AcDbCircle
 10
223.9149612831
 20
384.258925665795
 30
0.0
 40
18.000000000177
100
AcDbArc
 50
-15.756263097299
 51
-9.0707941227
  0
ARC
  5
253
330
A
100
AcDbEntity
  8
0
  6
Continuous
 62
     3
100
AcDbCircle
 10
245.7023626031
 20
384.999968000795
 30
0.0
 40
3.800000000240999
100
AcDbArc
 50
6.887536324903
 51
-178.051982658504
  0
ARC
  5
252
330
A
100
AcDbEntity
  8
0
  6
Continuous
 62
     3
100
AcDbCircle
 10
249.9713314461
 20
385.515627782795
 30
0.0
 40
0.500000000177
100
AcDbArc
 50
-173.112463566497
 51
-54.999999987607
  0
ARC
  5
251
330
A
100
AcDbEntity
  8
0
  6
Continuous
 62
     3
100
AcDbCircle
 10
254.9474849841
 20
388.999968000795
 30
0.0
 40
0.5
100
AcDbArc
 50
-55.00000000312899
 51
90.00000000584298
  0
ARC
  5
250
330
A
100
AcDbEntity
  8
0
  6
Continuous
 62
     3
100
AcDbCircle
 10
223.3316067971
 20
388.999968000795
 30
0.0
 40
0.5
100
AcDbArc
 50
90.0
 51
-125.000000006093
  0
ARC
  5
24F
330
A
100
AcDbEntity
  8
0
  6
Continuous
 62
     3
100
AcDbCircle
 10
229.7582728271
 20
384.499968000795
 30
0.0
 40
0.5
100
AcDbArc
 50
-124.999999997121
 51
-90.00000001100202
  0
ARC
  5
24E
330
A
100
AcDbEntity
  8
0
  6
Continuous
 62
     3
100
AcDbCircle
 10
241.4133011641
 20
384.499968000795
 30
0.0
 40
0.500000000025
100
AcDbArc
 50
-90.0
 51
0.7892082896870001
  0
ARC
  5
24D
330
A
100
AcDbEntity
  8
0
  6
Continuous
 62
     3
100
AcDbCircle
 10
223.9149612831
 20
384.258925665795
 30
0.0
 40
18.000000000241
100
AcDbArc
 50
0.789208297399
 51
1.948017414900999
  0
ARC
  5
24C
330
A
100
AcDbEntity
  8
0
  6
Continuous
 62
     3
100
AcDbCircle
 10
238.9071701211
 20
379.964636952795
 30
0.0
 40
10.000000000165
100
AcDbArc
 50
-81.869897646599
 51
-38.314828571295
  0
ARC
  5
24B
330
A
100
AcDbEntity
  8
0
  6
Continuous
 62
     3
100
AcDbCircle
 10
232.9006994831
 20
368.499968000795
 30
0.0
 40
0.5000000001510001
100
AcDbArc
 50
98.130102345016
 51
-90.00000001100202
  0
ARC
  5
24A
330
A
100
AcDbEntity
  8
0
  6
Continuous
 62
     3
100
AcDbCircle
 10
266.5023626001
 20
368.499968000795
 30
0.0
 40
0.5
100
AcDbArc
 50
-90.0
 51
0.0
  0
ARC
  5
249
330
A
100
AcDbEntity
  8
0
  6
Continuous
 62
     3
100
AcDbCircle
 10
266.5023626001
 20
373.454824724795
 30
0.0
 40
0.5
100
AcDbArc
 50
0.0
 51
90.0
  0
ARC
  5
248
330
A
100
AcDbEntity
  8
0
  6
Continuous
 62
     3
100
AcDbCircle
 10
247.1456375001
 20
373.454824724795
 30
0.0
 40
0.5
100
AcDbArc
 50
90.0
 51
141.685171438055
  0
ARC
  5
247
330
A
100
AcDbEntity
  8
0
  6
Continuous
 62
     3
100
AcDbCircle
 10
228.8123764611
 20
381.499968000795
 30
0.0
 40
0.5
100
AcDbArc
 50
55.00000000386699
 51
90.00000000596001
  0
ARC
  5
246
330
A
100
AcDbEntity
  8
0
  6
Continuous
 62
     3
100
AcDbCircle
 10
211.1923487391
 20
381.499968000795
 30
0.0
 40
0.5
100
AcDbArc
 50
90.0
 51
125.000000000329
  0
ARC
  5
245
330
A
100
AcDbEntity
  8
0
  6
Continuous
 62
     3
100
AcDbCircle
 10
204.1944235061
 20
376.599968000795
 30
0.0
 40
0.5
100
AcDbArc
 50
124.999999996547
 51
-90.00000001100202
  0
ARC
  5
244
330
A
100
AcDbEntity
  8
0
  6
Continuous
 62
     3
100
AcDbCircle
 10
228.8246930731
 20
376.599968000795
 30
0.0
 40
0.5000000001510001
100
AcDbArc
 50
-90.0
 51
-81.869897653948
  0
ARC
  5
243
330
A
100
AcDbEntity
  8
0
  6
Continuous
 62
     3
100
AcDbCircle
 10
234.6265916991
 20
377.4288106617949
 30
0.0
 40
0.5000000002920001
100
AcDbArc
 50
-81.86989759723001
 51
55.000000011939
  0
ARC
  5
242
330
A
100
AcDbEntity
  8
0
  6
Continuous
 62
     3
100
AcDbCircle
 10
195.7683502671
 20
381.499968000795
 30
0.0
 40
0.5
100
AcDbArc
 50
90.0
 51
-125.000000008472
  0
ARC
  5
241
330
A
100
AcDbEntity
  8
0
  6
Continuous
 62
     3
100
AcDbCircle
 10
200.8651793101
 20
377.931129883795
 30
0.0
 40
0.5000000003550001
100
AcDbArc
 50
-125.000000046571
 51
-54.999999994237
  0
ARC
  5
240
330
A
100
AcDbEntity
  8
0
  6
Continuous
 62
     3
100
AcDbCircle
 10
205.9620083531
 20
381.499968000795
 30
0.0
 40
0.5
100
AcDbArc
 50
-55.00000000303799
 51
90.00000000596001
  0
ARC
  5
23F
330
A
100
AcDbEntity
  8
0
  6
Continuous
 62
     3
100
AcDbCircle
 10
160.2023626031
 20
384.499968000795
 30
0.0
 40
0.5
100
AcDbArc
 50
-90.0
 51
-0.000000005042
  0
ARC
  5
23E
330
A
100
AcDbEntity
  8
0
  6
Continuous
 62
     3
100
AcDbCircle
 10
160.2023626031
 20
388.999968000795
 30
0.0
 40
0.5
100
AcDbArc
 50
0.0
 51
90.00000000596001
  0
ARC
  5
23D
330
A
100
AcDbEntity
  8
0
  6
Continuous
 62
     3
100
AcDbCircle
 10
61.32612730209999
 20
388.999968000795
 30
0.0
 40
0.5000000002300001
100
AcDbArc
 50
90.0
 51
-158.429421737622
  0
ARC
  5
23C
330
A
100
AcDbEntity
  8
0
  6
Continuous
 62
     3
100
AcDbCircle
 10
55.0023626001
 20
386.499968000795
 30
0.0
 40
6.300000000229999
100
AcDbArc
 50
-17.104635176098
 51
21.570578303097
  0
ARC
  5
23B
330
A
100
AcDbEntity
  8
0
  6
Continuous
 62
     3
100
AcDbCircle
 10
61.5015933241
 20
384.499968000795
 30
0.0
 40
0.500000000139
100
AcDbArc
 50
162.895364826748
 51
-90.0
  0
ARC
  5
23A
330
A
100
AcDbEntity
  8
0
  6
Continuous
 62
     3
100
AcDbCircle
 10
77.02797096810001
 20
373.425576366795
 30
0.0
 40
0.5743916350000001
100
AcDbArc
 50
0.0
 51
90.0
  0
ARC
  5
239
330
A
100
AcDbEntity
  8
0
  6
Continuous
 62
     3
100
AcDbCircle
 10
64.10236260010001
 20
373.499968000795
 30
0.0
 40
0.5
100
AcDbArc
 50
90.0
 51
180.0
  0
ARC
  5
238
330
A
100
AcDbEntity
  8
0
  6
Continuous
 62
     3
100
AcDbCircle
 10
64.10236260010001
 20
368.499968000795
 30
0.0
 40
0.5
100
AcDbArc
 50
180.0
 51
-90.0
  0
ARC
  5
237
330
A
100
AcDbEntity
  8
0
  6
Continuous
 62
     3
100
AcDbCircle
 10
77.02797096810001
 20
368.574359634795
 30
0.0
 40
0.5743916350000001
100
AcDbArc
 50
-90.0
 51
0.0
  0
ARC
  5
236
330
A
100
AcDbEntity
  8
0
  6
Continuous
 62
     3
100
AcDbCircle
 10
210.2464523731
 20
384.499968000795
 30
0.0
 40
0.5
100
AcDbArc
 50
-90.0
 51
-54.99999998733101
  0
ARC
  5
235
330
A
100
AcDbEntity
  8
0
  6
Continuous
 62
     3
100
AcDbCircle
 10
216.6731184031
 20
388.999968000795
 30
0.0
 40
0.500000000001
100
AcDbArc
 50
-55.00000000278499
 51
90.00000000584602
  0
ARC
  5
234
330
A
100
AcDbEntity
  8
0
  6
Continuous
 62
     3
100
AcDbCircle
 10
185.0572402161
 20
388.999968000795
 30
0.0
 40
0.5
100
AcDbArc
 50
90.0
 51
-124.999999997121
  0
ARC
  5
233
330
A
100
AcDbEntity
  8
0
  6
Continuous
 62
     3
100
AcDbCircle
 10
191.4839062461
 20
384.499968000795
 30
0.0
 40
0.5
100
AcDbArc
 50
-124.999999997118
 51
-90.00000001099801
  0
ARC
  5
232
330
A
100
AcDbEntity
  8
0
  6
Continuous
 62
     3
100
AcDbCircle
 10
190.5380098801
 20
381.499968000795
 30
0.0
 40
0.5
100
AcDbArc
 50
55.00000000345299
 51
90.00000000584298
  0
ARC
  5
231
330
A
100
AcDbEntity
  8
0
  6
Continuous
 62
     3
100
AcDbCircle
 10
184.6888017801
 20
381.499968000795
 30
0.0
 40
0.5
100
AcDbArc
 50
90.0
 51
-152.421532033954
  0
ARC
  5
230
330
A
100
AcDbEntity
  8
0
  6
Continuous
 62
     3
100
AcDbCircle
 10
179.9023626031
 20
378.999968000795
 30
0.0
 40
4.900000000008999
100
AcDbArc
 50
-26.387799975497
 51
27.578467982099
  0
ARC
  5
22F
330
A
100
AcDbEntity
  8
0
  6
Continuous
 62
     3
100
AcDbCircle
 10
184.7397172521
 20
376.599968000795
 30
0.0
 40
0.500000000009
100
AcDbArc
 50
153.612200179244
 51
-90.00000001100202
  0
ARC
  5
22E
330
A
100
AcDbEntity
  8
0
  6
Continuous
 62
     3
100
AcDbCircle
 10
197.5359351131
 20
376.599968000795
 30
0.0
 40
0.5
100
AcDbArc
 50
-90.0
 51
55.000000011525
  0
ARC
  5
22D
330
A
100
AcDbEntity
  8
0
  6
Continuous
 62
     3
100
AcDbCircle
 10
262.8022990211
 20
384.499968000795
 30
0.0
 40
0.5
100
AcDbArc
 50
-90.0
 51
55.00000000216299
  0
ARC
  5
22C
330
A
100
AcDbEntity
  8
0
  6
Continuous
 62
     3
100
AcDbCircle
 10
258.2767291811
 20
387.668806117795
 30
0.0
 40
0.499999999781
100
AcDbArc
 50
55.00000000212601
 51
124.999999994991
  0
ARC
  5
22B
330
A
100
AcDbEntity
  8
0
  6
Continuous
 62
     3
100
AcDbCircle
 10
253.7511593401
 20
384.499968000795
 30
0.0
 40
0.500000000001
100
AcDbArc
 50
124.99999999498
 51
-90.00000001100202
  0
ARC
  5
22A
330
A
100
AcDbEntity
  8
0
  6
Continuous
 62
     3
100
AcDbCircle
 10
227.8016737161
 20
390.499968000795
 30
0.0
 40
20.0
100
AcDbArc
 50
-90.0
 51
-81.869897639999
  0
ARC
  5
229
330
A
100
AcDbEntity
  8
0
  6
Continuous
 62
     3
100
AcDbCircle
 10
238.9071701211
 20
379.964636952795
 30
0.0
 40
8.000000000226
100
AcDbArc
 50
-81.86989764489998
 51
-14.021226076199
  0
ARC
  5
228
330
A
100
AcDbEntity
  8
0
  6
Continuous
 62
     3
100
AcDbCircle
 10
219.5030494001
 20
384.810263746795
 30
0.0
 40
28.000000000123
100
AcDbArc
 50
-14.021226084199
 51
0.4148606131000001
  0
ARC
  5
227
330
A
100
AcDbEntity
  8
0
  6
Continuous
 62
     3
100
AcDbCircle
 10
245.7023626031
 20
384.999968000795
 30
0.0
 40
1.800000000241
100
AcDbArc
 50
0.4148606005100001
 51
-178.051982596806
  0
ARC
  5
226
330
A
100
AcDbEntity
  8
0
  6
Continuous
 62
     3
100
AcDbCircle
 10
223.9149612831
 20
384.258925665795
 30
0.0
 40
20.00000000024
100
AcDbArc
 50
-15.756263100599
 51
1.948017401998999
  0
ARC
  5
225
330
A
100
AcDbEntity
  8
0
  6
Continuous
 62
     3
100
AcDbCircle
 10
238.8325574491
 20
380.049968000795
 30
0.0
 40
4.500000000037999
100
AcDbArc
 50
-81.86989763879999
 51
-15.756263117098
  0
ARC
  5
224
330
A
100
AcDbEntity
  8
0
  6
Continuous
 62
     3
100
AcDbCircle
 10
176.7023626031
 20
372.299968000795
 30
0.0
 40
1.8
100
AcDbArc
 50
89.999999988986
 51
-89.999999994111
  0
ARC
  5
223
330
A
100
AcDbEntity
  8
0
  6
Continuous
 62
     3
100
AcDbCircle
 10
179.9023626031
 20
378.999968000795
 30
0.0
 40
2.9
100
AcDbArc
 50
-90.00000006099
 51
89.999999988995
  0
ARC
  5
222
330
A
100
AcDbEntity
  8
0
  6
Continuous
 62
     3
100
AcDbCircle
 10
57.3023626001
 20
377.499968000795
 30
0.0
 40
6.000000000146
100
AcDbArc
 50
-0.8815083022979999
 51
28.484635398405
  0
ARC
  5
221
330
A
100
AcDbEntity
  8
0
  6
Continuous
 62
     3
100
AcDbCircle
 10
63.80159332409999
 20
377.399968000795
 30
0.0
 40
0.5000000001460001
100
AcDbArc
 50
179.118491639177
 51
-90.0
  0
ARC
  5
220
330
A
100
AcDbEntity
  8
0
  6
Continuous
 62
     3
100
AcDbCircle
 10
77.10236260310001
 20
377.399968000795
 30
0.0
 40
0.5
100
AcDbArc
 50
-90.0
 51
0.0
  0
ARC
  5
21F
330
A
100
AcDbEntity
  8
0
  6
Continuous
 62
     3
100
AcDbCircle
 10
77.10236260310001
 20
380.599968000795
 30
0.0
 40
0.5
100
AcDbArc
 50
0.0
 51
90.0
  0
ARC
  5
21E
330
A
100
AcDbEntity
  8
0
  6
Continuous
 62
     3
100
AcDbCircle
 10
63.0155053431
 20
380.599968000795
 30
0.0
 40
0.500000000073
100
AcDbArc
 50
90.0
 51
-151.515364652311
  0
ARC
  5
21D
330
A
100
AcDbEntity
  8
0
  6
Continuous
 62
     3
100
AcDbCircle
 10
186.2535658601
 20
384.499968000795
 30
0.0
 40
0.5
100
AcDbArc
 50
-90.0
 51
55.000000012934
  0
ARC
  5
21C
330
A
100
AcDbEntity
  8
0
  6
Continuous
 62
     3
100
AcDbCircle
 10
179.8268998291
 20
388.999968000795
 30
0.0
 40
0.5
100
AcDbArc
 50
55.000000004945
 51
90.00000000596001
  0
ARC
  5
21B
330
A
100
AcDbEntity
  8
0
  6
Continuous
 62
     3
100
AcDbCircle
 10
163.2023626031
 20
388.999968000795
 30
0.0
 40
0.5
100
AcDbArc
 50
90.0
 51
180.0
  0
ARC
  5
21A
330
A
100
AcDbEntity
  8
0
  6
Continuous
 62
     3
100
AcDbCircle
 10
163.2023626031
 20
384.499968000795
 30
0.0
 40
0.5
100
AcDbArc
 50
180.0
 51
-90.00000001100202
  0
ARC
  5
219
330
A
100
AcDbEntity
  8
0
  6
Continuous
 62
     3
100
AcDbCircle
 10
220.0023626001
 20
387.668806117795
 30
0.0
 40
0.4999999998899999
100
AcDbArc
 50
55.00000000205499
 51
125.00000000157
  0
ARC
  5
218
330
A
100
AcDbEntity
  8
0
  6
Continuous
 62
     3
100
AcDbCircle
 10
215.4767927601
 20
384.499968000795
 30
0.0
 40
0.5
100
AcDbArc
 50
124.999999997938
 51
-90.0
  0
ARC
  5
217
330
A
100
AcDbEntity
  8
0
  6
Continuous
 62
     3
100
AcDbCircle
 10
224.5279324401
 20
384.499968000795
 30
0.0
 40
0.5
100
AcDbArc
 50
-90.0
 51
55.00000001013
  0
ARC
  5
216
330
A
100
AcDbEntity
  8
0
  6
Continuous
 62
     3
100
AcDbCircle
 10
172.3035822941
 20
373.599968000795
 30
0.0
 40
0.5
100
AcDbArc
 50
-17.597336572653
 51
90.00000000584602
  0
ARC
  5
215
330
A
100
AcDbEntity
  8
0
  6
Continuous
 62
     3
100
AcDbCircle
 10
163.2023626031
 20
373.599968000795
 30
0.0
 40
0.5
100
AcDbArc
 50
90.0
 51
-179.9999999881969
  0
ARC
  5
214
330
A
100
AcDbEntity
  8
0
  6
Continuous
 62
     3
100
AcDbCircle
 10
163.2023626031
 20
368.499968000795
 30
0.0
 40
0.5
100
AcDbArc
 50
180.0
 51
-90.00000001100202
  0
ARC
  5
213
330
A
100
AcDbEntity
  8
0
  6
Continuous
 62
     3
100
AcDbCircle
 10
174.5658709271
 20
368.499968000795
 30
0.0
 40
0.5
100
AcDbArc
 50
-90.0
 51
33.338655157327
  0
ARC
  5
212
330
A
100
AcDbEntity
  8
0
  6
Continuous
 62
     3
100
AcDbCircle
 10
176.4023626001
 20
372.299968000795
 30
0.0
 40
3.799999999909999
100
AcDbArc
 50
162.4026633855
 51
-111.923073005777
  0
ARC
  5
211
330
A
100
AcDbEntity
  8
0
  6
Continuous
 62
     3
100
AcDbCircle
 10
55.8023626001
 20
370.999968000795
 30
0.0
 40
5.0
100
AcDbArc
 50
-179.999999976499
 51
-89.999999999999
  0
ARC
  5
210
330
A
100
AcDbEntity
  8
0
  6
Continuous
 62
     3
100
AcDbCircle
 10
274.2023626001
 20
370.999968000795
 30
0.0
 40
5.0
100
AcDbArc
 50
-90.0
 51
-0.000000023501
  0
ARC
  5
20F
330
A
100
AcDbEntity
  8
0
  6
Continuous
 62
     3
100
AcDbCircle
 10
284.0023626000999
 20
386.499968000795
 30
0.0
 40
5.0
100
AcDbArc
 50
0.0
 51
90.000000011803
  0
ARC
  5
20E
330
A
100
AcDbEntity
  8
0
  6
Continuous
 62
     3
100
AcDbCircle
 10
46.00236260009999
 20
386.499968000795
 30
0.0
 40
5.0
100
AcDbArc
 50
89.999999994101
 51
180.0
  0
ARC
  5
20D
330
A
100
AcDbEntity
  8
0
  6
Continuous
 62
     3
100
AcDbCircle
 10
47.0023626001
 20
382.499968000795
 30
0.0
 40
4.249999999613999
100
AcDbArc
 50
180.0
 51
0.0
  0
ARC
  5
20C
330
A
100
AcDbEntity
  8
0
  6
Continuous
 62
     3
100
AcDbCircle
 10
47.0023626001
 20
382.499968000795
 30
0.0
 40
4.249999999613999
100
AcDbArc
 50
0.0
 51
180.0
  0
ARC
  5
20B
330
A
100
AcDbEntity
  8
0
  6
Continuous
 62
     3
100
AcDbCircle
 10
283.0023626001
 20
382.499968000795
 30
0.0
 40
4.249999999613999
100
AcDbArc
 50
0.0
 51
180.0
  0
ARC
  5
20A
330
A
100
AcDbEntity
  8
0
  6
Continuous
 62
     3
100
AcDbCircle
 10
283.0023626001
 20
382.499968000795
 30
0.0
 40
4.249999999613999
100
AcDbArc
 50
180.0
 51
0.0
  0
ARC
  5
209
330
A
100
AcDbEntity
  8
0
  6
Continuous
 62
     3
100
AcDbCircle
 10
272.7023626001
 20
371.499968000795
 30
0.0
 40
4.0
100
AcDbArc
 50
180.0
 51
-0.0000000053
  0
ARC
  5
208
330
A
100
AcDbEntity
  8
0
  6
Continuous
 62
     3
100
AcDbCircle
 10
57.3023626001
 20
377.499968000795
 30
0.0
 40
3.999999999613999
100
AcDbArc
 50
0.0
 51
180.0
  0
ARC
  5
207
330
A
100
AcDbEntity
  8
0
  6
Continuous
 62
     3
100
AcDbCircle
 10
57.3023626001
 20
371.499968000795
 30
0.0
 40
4.0
100
AcDbArc
 50
180.0
 51
-0.0000000053
  0
ARC
  5
206
330
A
100
AcDbEntity
  8
0
  6
Continuous
 62
     3
100
AcDbCircle
 10
272.7023626001
 20
377.499968000795
 30
0.0
 40
3.999999999613999
100
AcDbArc
 50
0.0
 51
180.0
  0
ARC
  5
205
330
A
100
AcDbEntity
  8
0
  6
Continuous
 62
     3
100
AcDbCircle
 10
275.0023626001
 20
386.499968000795
 30
0.0
 40
3.999999999613999
100
AcDbArc
 50
180.0
 51
0.0
  0
ARC
  5
204
330
A
100
AcDbEntity
  8
0
  6
Continuous
 62
     3
100
AcDbCircle
 10
275.0023626001
 20
386.499968000795
 30
0.0
 40
3.999999999613999
100
AcDbArc
 50
0.0
 51
180.0
  0
ARC
  5
203
330
A
100
AcDbEntity
  8
0
  6
Continuous
 62
     3
100
AcDbCircle
 10
55.0023626001
 20
386.499968000795
 30
0.0
 40
3.999999999613999
100
AcDbArc
 50
180.0
 51
0.0
  0
ARC
  5
202
330
A
100
AcDbEntity
  8
0
  6
Continuous
 62
     3
100
AcDbCircle
 10
55.0023626001
 20
386.499968000795
 30
0.0
 40
3.999999999613999
100
AcDbArc
 50
0.0
 51
180.0
  0
ARC
  5
201
330
A
100
AcDbEntity
  8
0
  6
Continuous
 62
     3
100
AcDbCircle
 10
41.50236260009999
 20
371.499968000795
 30
0.0
 40
0.5
100
AcDbArc
 50
180.0
 51
-90.0
  0
ARC
  5
200
330
A
100
AcDbEntity
  8
0
  6
Continuous
 62
     3
100
AcDbCircle
 10
288.5023626001
 20
371.499968000795
 30
0.0
 40
0.5
100
AcDbArc
 50
-90.0
 51
0.0
  0
ARC
  5
1FF
330
A
100
AcDbEntity
  8
0
  6
Continuous
 62
     3
100
AcDbCircle
 10
272.7023626001
 20
377.499968000795
 30
0.0
 40
2.0
100
AcDbArc
 50
0.0
 51
180.0
  0
ARC
  5
1FE
330
A
100
AcDbEntity
  8
0
  6
Continuous
 62
     3
100
AcDbCircle
 10
272.7023626001
 20
371.499968000795
 30
0.0
 40
2.0
100
AcDbArc
 50
-179.999999994904
 51
0.0
  0
ARC
  5
1FD
330
A
100
AcDbEntity
  8
0
  6
Continuous
 62
     3
100
AcDbCircle
 10
57.3023626001
 20
371.499968000795
 30
0.0
 40
2.0
100
AcDbArc
 50
-179.999999994904
 51
-0.000000011803
  0
ARC
  5
1FC
330
A
100
AcDbEntity
  8
0
  6
Continuous
 62
     3
100
AcDbCircle
 10
57.3023626001
 20
377.499968000795
 30
0.0
 40
2.0
100
AcDbArc
 50
-0.000000011803
 51
180.0
  0
ARC
  5
1FB
330
A
100
AcDbEntity
  8
0
  6
Continuous
 62
     3
100
AcDbCircle
 10
198.0142605357
 20
285.702732047895
 30
0.0
 40
0.299872735593
100
AcDbArc
 50
9.573504434898
 51
9.573504435690001
  0
ARC
  5
1FA
330
A
100
AcDbEntity
  8
0
  6
Continuous
 62
     6
100
AcDbCircle
 10
191.8023626007
 20
285.736757975795
 30
0.0
 40
0.2
100
AcDbArc
 50
0.0
 51
106.09081964039
  0
ARC
  5
1F9
330
A
100
AcDbEntity
  8
0
  6
Continuous
 62
     6
100
AcDbCircle
 10
224.7385523313
 20
269.740320103795
 30
0.0
 40
0.268564847116
100
AcDbArc
 50
-97.74465238697802
 51
-10.797556968319
  0
LINE
  5
1F8
330
A
100
AcDbEntity
  8
0
  6
Continuous
 62
     3
100
AcDbLine
 10
195.2797108354
 20
354.646133014095
 30
0.0
 11
197.8492372694
 21
365.999968477595
 31
0.0
  0
LINE
  5
1F7
330
A
100
AcDbEntity
  8
0
  6
Continuous
 62
     6
100
AcDbLine
 10
207.2612893792
 20
362.252149486095
 30
0.0
 11
207.2023627373
 21
355.499969550495
 31
0.0
  0
LINE
  5
1F6
330
A
100
AcDbEntity
  8
0
  6
Continuous
 62
     6
100
AcDbLine
 10
207.51127871
 20
348.499966540495
 30
0.0
 11
211.3378969046
 21
348.499966540495
 31
0.0
  0
LINE
  5
1F5
330
A
100
AcDbEntity
  8
0
  6
Continuous
 62
     6
100
AcDbLine
 10
207.2612893792
 20
348.747787752295
 30
0.0
 11
207.2023627373
 21
355.499969550495
 31
0.0
  0
LINE
  5
1F4
330
A
100
AcDbEntity
  8
0
  6
Continuous
 62
     6
100
AcDbLine
 10
207.51127871
 20
362.499968835195
 30
0.0
 11
211.3378969046
 21
362.499968835195
 31
0.0
  0
LINE
  5
1F3
330
A
100
AcDbEntity
  8
0
  6
Continuous
 62
     6
100
AcDbLine
 10
182.6668296965
 20
362.499968835195
 30
0.0
 11
186.4934460284
 21
362.499968835195
 31
0.0
  0
LINE
  5
1F2
330
A
100
AcDbEntity
  8
0
  6
Continuous
 62
     6
100
AcDbLine
 10
182.6668296965
 20
348.499966540495
 30
0.0
 11
186.4934460284
 21
348.499966540495
 31
0.0
  0
LINE
  5
1F1
330
A
100
AcDbEntity
  8
0
  6
Continuous
 62
     6
100
AcDbLine
 10
186.7434372219
 20
362.252149486095
 30
0.0
 11
186.8023620012
 21
355.499969550495
 31
0.0
  0
LINE
  5
1F0
330
A
100
AcDbEntity
  8
0
  6
Continuous
 62
     6
100
AcDbLine
 10
186.7434372219
 20
348.747787752295
 30
0.0
 11
186.8023620012
 21
355.499969550495
 31
0.0
  0
LINE
  5
1EF
330
A
100
AcDbEntity
  8
0
  6
Continuous
 62
     6
100
AcDbLine
 10
212.1434387775
 20
348.747787752295
 30
0.0
 11
212.2023616942
 21
355.499969550495
 31
0.0
  0
LINE
  5
1EE
330
A
100
AcDbEntity
  8
0
  6
Continuous
 62
     6
100
AcDbLine
 10
212.1434387775
 20
362.252149486095
 30
0.0
 11
212.2023616942
 21
355.499969550495
 31
0.0
  0
LINE
  5
1ED
330
A
100
AcDbEntity
  8
0
  6
Continuous
 62
     6
100
AcDbLine
 10
181.8612878235
 20
348.747787752295
 30
0.0
 11
181.8023630442
 21
355.499969550495
 31
0.0
  0
LINE
  5
1EC
330
A
100
AcDbEntity
  8
0
  6
Continuous
 62
     6
100
AcDbLine
 10
181.8612878235
 20
362.252149486095
 30
0.0
 11
181.8023630442
 21
355.499969550495
 31
0.0
  0
LINE
  5
1EB
330
A
100
AcDbEntity
  8
0
  6
Continuous
 62
     6
100
AcDbLine
 10
182.1112780856
 20
348.499966540495
 30
0.0
 11
182.6668296965
 21
348.499966540495
 31
0.0
  0
LINE
  5
1EA
330
A
100
AcDbEntity
  8
0
  6
Continuous
 62
     6
100
AcDbLine
 10
182.1112780856
 20
362.499968835195
 30
0.0
 11
182.6668296965
 21
362.499968835195
 31
0.0
  0
LINE
  5
1E9
330
A
100
AcDbEntity
  8
0
  6
Continuous
 62
     6
100
AcDbLine
 10
211.3378969046
 20
362.499968835195
 30
0.0
 11
211.8934457215
 21
362.499968835195
 31
0.0
  0
LINE
  5
1E8
330
A
100
AcDbEntity
  8
0
  6
Continuous
 62
     6
100
AcDbLine
 10
211.3378969046
 20
348.499966540495
 30
0.0
 11
211.8934457215
 21
348.499966540495
 31
0.0
  0
LINE
  5
1E7
330
A
100
AcDbEntity
  8
0
  6
Continuous
 62
     6
100
AcDbLine
 10
202.0612870367
 20
362.252149486095
 30
0.0
 11
202.0023641200999
 21
355.499969550495
 31
0.0
  0
LINE
  5
1E6
330
A
100
AcDbEntity
  8
0
  6
Continuous
 62
     6
100
AcDbLine
 10
202.3112800928
 20
348.499966540495
 30
0.0
 11
207.51127871
 21
348.499966540495
 31
0.0
  0
LINE
  5
1E5
330
A
100
AcDbEntity
  8
0
  6
Continuous
 62
     6
100
AcDbLine
 10
202.0612870367
 20
348.747787752295
 30
0.0
 11
202.0023641200999
 21
355.499969550495
 31
0.0
  0
LINE
  5
1E4
330
A
100
AcDbEntity
  8
0
  6
Continuous
 62
     6
100
AcDbLine
 10
202.3112800928
 20
362.499968835195
 30
0.0
 11
207.51127871
 21
362.499968835195
 31
0.0
  0
LINE
  5
1E3
330
A
100
AcDbEntity
  8
0
  6
Continuous
 62
     6
100
AcDbLine
 10
186.4934460284
 20
362.499968835195
 30
0.0
 11
191.6023631605
 21
362.499968835195
 31
0.0
  0
LINE
  5
1E2
330
A
100
AcDbEntity
  8
0
  6
Continuous
 62
     6
100
AcDbLine
 10
186.4934460284
 20
348.499966540495
 30
0.0
 11
191.6934465083
 21
348.499966540495
 31
0.0
  0
LINE
  5
1E1
330
A
100
AcDbEntity
  8
0
  6
Continuous
 62
     6
100
AcDbLine
 10
191.9434377017
 20
348.747787752295
 30
0.0
 11
191.9853453549
 21
353.549966343795
 31
0.0
  0
LINE
  5
1E0
330
A
100
AcDbEntity
  8
0
  6
Continuous
 62
     6
100
AcDbLine
 10
216.9434380742
 20
362.252149486095
 30
0.0
 11
217.0023609909
 21
355.499969550495
 31
0.0
  0
LINE
  5
1DF
330
A
100
AcDbEntity
  8
0
  6
Continuous
 62
     6
100
AcDbLine
 10
216.9434380742
 20
348.747787752295
 30
0.0
 11
217.0023609909
 21
355.499969550495
 31
0.0
  0
LINE
  5
1DE
330
A
100
AcDbEntity
  8
0
  6
Continuous
 62
     6
100
AcDbLine
 10
177.0612880612
 20
348.747787752295
 30
0.0
 11
177.0149873593999
 21
354.053331294195
 31
0.0
  0
LINE
  5
1DD
330
A
100
AcDbEntity
  8
0
  6
Continuous
 62
     6
100
AcDbLine
 10
177.3112783233
 20
348.499966540495
 30
0.0
 11
182.1112780856
 21
348.499966540495
 31
0.0
  0
LINE
  5
1DC
330
A
100
AcDbEntity
  8
0
  6
Continuous
 62
     6
100
AcDbLine
 10
179.6023630562
 20
362.499968835195
 30
0.0
 11
182.1112780856
 21
362.499968835195
 31
0.0
  0
LINE
  5
1DB
330
A
100
AcDbEntity
  8
0
  6
Continuous
 62
     6
100
AcDbLine
 10
211.8934457215
 20
362.499968835195
 30
0.0
 11
216.6934450181
 21
362.499968835195
 31
0.0
  0
LINE
  5
1DA
330
A
100
AcDbEntity
  8
0
  6
Continuous
 62
     6
100
AcDbLine
 10
211.8934457215
 20
348.499966540495
 30
0.0
 11
216.6934450181
 21
348.499966540495
 31
0.0
  0
LINE
  5
1D9
330
A
100
AcDbEntity
  8
0
  6
Continuous
 62
     6
100
AcDbLine
 10
197.0571399691
 20
362.499968835195
 30
0.0
 11
202.3112800928
 21
362.499968835195
 31
0.0
  0
LINE
  5
1D8
330
A
100
AcDbEntity
  8
0
  6
Continuous
 62
     6
100
AcDbLine
 10
191.6934465083
 20
348.499966540495
 30
0.0
 11
202.3112800928
 21
348.499966540495
 31
0.0
  0
LINE
  5
1D7
330
A
100
AcDbEntity
  8
0
  6
Continuous
 62
     6
100
AcDbLine
 10
169.0023625527
 20
344.826550909395
 30
0.0
 11
169.0023625527
 21
347.073150553795
 31
0.0
  0
LINE
  5
1D6
330
A
100
AcDbEntity
  8
0
  6
Continuous
 62
     6
100
AcDbLine
 10
225.0023623022
 20
344.826550909395
 30
0.0
 11
225.0023623022
 21
347.073150553795
 31
0.0
  0
LINE
  5
1D5
330
A
100
AcDbEntity
  8
0
  6
Continuous
 62
     6
100
AcDbLine
 10
169.0023625527
 20
347.073150553795
 30
0.0
 11
169.0023625527
 21
347.709545620795
 31
0.0
  0
LINE
  5
1D4
330
A
100
AcDbEntity
  8
0
  6
Continuous
 62
     6
100
AcDbLine
 10
225.0023623022
 20
347.073150553795
 30
0.0
 11
225.0023623022
 21
347.709545620795
 31
0.0
  0
LINE
  5
1D3
330
A
100
AcDbEntity
  8
0
  6
Continuous
 62
     6
100
AcDbLine
 10
169.0023625527
 20
341.926989831995
 30
0.0
 11
169.0023625527
 21
344.826550909395
 31
0.0
  0
LINE
  5
1D2
330
A
100
AcDbEntity
  8
0
  6
Continuous
 62
     6
100
AcDbLine
 10
169.3023626251
 20
341.627036907795
 30
0.0
 11
224.7023609491
 21
341.627036907795
 31
0.0
  0
LINE
  5
1D1
330
A
100
AcDbEntity
  8
0
  6
Continuous
 62
     6
100
AcDbLine
 10
225.0023623022
 20
341.926989831995
 30
0.0
 11
225.0023623022
 21
344.826550909395
 31
0.0
  0
LINE
  5
1D0
330
A
100
AcDbEntity
  8
0
  6
Continuous
 62
     6
100
AcDbLine
 10
169.0023625527
 20
347.709545620795
 30
0.0
 11
169.0023625527
 21
348.945943393795
 31
0.0
  0
LINE
  5
1CF
330
A
100
AcDbEntity
  8
0
  6
Continuous
 62
     6
100
AcDbLine
 10
169.3023626251
 20
349.070204176995
 30
0.0
 11
177.05847407
 21
349.070204176995
 31
0.0
  0
LINE
  5
1CE
330
A
100
AcDbEntity
  8
0
  6
Continuous
 62
     6
100
AcDbLine
 10
216.9462506684
 20
349.070204176995
 30
0.0
 11
224.7023609491
 21
349.070204176995
 31
0.0
  0
LINE
  5
1CD
330
A
100
AcDbEntity
  8
0
  6
Continuous
 62
     6
100
AcDbLine
 10
225.0023623022
 20
347.709545620795
 30
0.0
 11
225.0023623022
 21
348.945943393795
 31
0.0
  0
LINE
  5
1CC
330
A
100
AcDbEntity
  8
0
  6
Continuous
 62
     6
100
AcDbLine
 10
169.0023625527
 20
348.945943393795
 30
0.0
 11
169.0023625527
 21
363.099967815995
 31
0.0
  0
LINE
  5
1CB
330
A
100
AcDbEntity
  8
0
  6
Continuous
 62
     6
100
AcDbLine
 10
225.0023623022
 20
348.945943393795
 30
0.0
 11
225.0023623022
 21
363.099967815995
 31
0.0
  0
LINE
  5
1CA
330
A
100
AcDbEntity
  8
0
  6
Continuous
 62
     6
100
AcDbLine
 10
179.6023630562
 20
365.099968143795
 30
0.0
 11
191.6023631605
 21
365.099968143795
 31
0.0
  0
LINE
  5
1C9
330
A
100
AcDbEntity
  8
0
  6
Continuous
 62
     6
100
AcDbLine
 10
197.6455551597
 20
365.099968143795
 30
0.0
 11
223.0023619743
 21
365.099968143795
 31
0.0
  0
LINE
  5
1C8
330
A
100
AcDbEntity
  8
0
  6
Continuous
 62
     3
100
AcDbLine
 10
175.4006607482
 20
358.950635173395
 30
0.0
 11
176.6023625644
 21
358.5392178381951
 31
0.0
  0
LINE
  5
1C7
330
A
100
AcDbEntity
  8
0
  6
Continuous
 62
     3
100
AcDbLine
 10
174.2166782754
 20
355.315150448195
 30
0.0
 11
176.6023625644
 21
358.5392178381951
 31
0.0
  0
LINE
  5
1C6
330
A
100
AcDbEntity
  8
0
  6
Continuous
 62
     3
100
AcDbLine
 10
173.4067922482
 20
355.9144341731951
 30
0.0
 11
174.5964380937
 21
357.522150256695
 31
0.0
  0
LINE
  5
1C5
330
A
100
AcDbEntity
  8
0
  6
Continuous
 62
     3
100
AcDbLine
 10
174.2166782754
 20
355.315150448195
 30
0.0
 11
173.4067922482
 21
355.9144341731951
 31
0.0
  0
LINE
  5
1C4
330
A
100
AcDbEntity
  8
0
  6
Continuous
 62
     3
100
AcDbLine
 10
179.5042910638
 20
357.417432346495
 30
0.0
 11
176.8066956686
 21
353.771840908595
 31
0.0
  0
LINE
  5
1C3
330
A
100
AcDbEntity
  8
0
  6
Continuous
 62
     3
100
AcDbLine
 10
176.6023625644
 20
363.049968832295
 30
0.0
 11
176.6023625644
 21
358.5392178381951
 31
0.0
  0
LINE
  5
1C2
330
A
100
AcDbEntity
  8
0
  6
Continuous
 62
     3
100
AcDbLine
 10
178.6023628922
 20
363.049968832295
 30
0.0
 11
176.6023625644
 21
363.049968832295
 31
0.0
  0
LINE
  5
1C1
330
A
100
AcDbEntity
  8
0
  6
Continuous
 62
     3
100
AcDbLine
 10
179.6023630562
 20
362.049968668295
 30
0.0
 11
178.6023628922
 21
363.049968832295
 31
0.0
  0
LINE
  5
1C0
330
A
100
AcDbEntity
  8
0
  6
Continuous
 62
     3
100
AcDbLine
 10
179.6023630562
 20
362.049968668295
 30
0.0
 11
179.6023630562
 21
357.714844622695
 31
0.0
  0
LINE
  5
1BF
330
A
100
AcDbEntity
  8
0
  6
Continuous
 62
     3
100
AcDbLine
 10
176.3870915422
 20
353.709129371795
 30
0.0
 11
174.2166782754
 21
355.315150448195
 31
0.0
  0
LINE
  5
1BE
330
A
100
AcDbEntity
  8
0
  6
Continuous
 62
     3
100
AcDbLine
 10
176.6023625644
 20
363.049968832295
 30
0.0
 11
175.5055882061
 21
363.049968832295
 31
0.0
  0
LINE
  5
1BD
330
A
100
AcDbEntity
  8
0
  6
Continuous
 62
     3
100
AcDbLine
 10
193.5017359467
 20
353.549966343795
 30
0.0
 11
191.6023631605
 21
353.549966343795
 31
0.0
  0
LINE
  5
1BC
330
A
100
AcDbEntity
  8
0
  6
Continuous
 62
     3
100
AcDbLine
 10
191.6023631605
 20
365.999968477595
 30
0.0
 11
191.6023631605
 21
353.549966343795
 31
0.0
  0
LINE
  5
1BB
330
A
100
AcDbEntity
  8
0
  6
Continuous
 62
     3
100
AcDbLine
 10
178.1023628103
 20
365.999968477595
 30
0.0
 11
178.1023628103
 21
363.049968832295
 31
0.0
  0
LINE
  5
1BA
330
A
100
AcDbEntity
  8
0
  6
Continuous
 62
     3
100
AcDbLine
 10
170.80236258
 20
360.329618432595
 30
0.0
 11
170.80236258
 21
365.999968477595
 31
0.0
  0
LINE
  5
1B9
330
A
100
AcDbEntity
  8
0
  6
Continuous
 62
     3
100
AcDbLine
 10
170.80236258
 20
360.329618432595
 30
0.0
 11
174.5964380937
 21
357.522150256695
 31
0.0
  0
LINE
  5
1B8
330
A
100
AcDbEntity
  8
0
  6
Continuous
 62
     3
100
AcDbLine
 10
169.3023626251
 20
365.999968477595
 30
0.0
 11
169.3023626251
 21
358.951555320095
 31
0.0
  0
LINE
  5
1B7
330
A
100
AcDbEntity
  8
0
  6
Continuous
 62
     3
100
AcDbLine
 10
179.6023630562
 20
362.049968668295
 30
0.0
 11
179.6023630562
 21
365.7499679709951
 31
0.0
  0
LINE
  5
1B6
330
A
100
AcDbEntity
  8
0
  6
Continuous
 62
     3
100
AcDbLine
 10
169.3023626251
 20
358.951555320095
 30
0.0
 11
173.4067922482
 21
355.9144341731951
 31
0.0
  0
LINE
  5
1B5
330
A
100
AcDbEntity
  8
0
  6
Continuous
 62
     6
100
AcDbLine
 10
169.0023625527
 20
344.826550909395
 30
0.0
 11
225.0023623022
 21
344.826550909395
 31
0.0
  0
LINE
  5
1B4
330
A
100
AcDbEntity
  8
0
  6
Continuous
 62
     6
100
AcDbLine
 10
169.0023625527
 20
347.073150553795
 30
0.0
 11
225.0023623022
 21
347.073150553795
 31
0.0
  0
LINE
  5
1B3
330
A
100
AcDbEntity
  8
0
  6
Continuous
 62
     6
100
AcDbLine
 10
169.3023626251
 20
347.921678551595
 30
0.0
 11
224.7023609491
 21
347.921678551595
 31
0.0
  0
LINE
  5
1B2
330
A
100
AcDbEntity
  8
0
  6
Continuous
 62
     3
100
AcDbLine
 10
175.4001066113
 20
358.950821437995
 30
0.0
 11
174.4614629099
 21
357.682319113095
 31
0.0
  0
LINE
  5
1B1
330
A
100
AcDbEntity
  8
0
  6
Continuous
 62
     3
100
AcDbLine
 10
175.4006607482
 20
363.097879790795
 30
0.0
 11
175.4006607482
 21
358.950635173395
 31
0.0
  0
LINE
  5
1B0
330
A
100
AcDbEntity
  8
FORMAT
  6
PHANTOM
 62
     1
100
AcDbLine
 10
329.0023626002
 20
401.941321262895
 30
0.0
 11
329.0023626002
 21
346.099968000795
 31
0.0
  0
LINE
  5
1AF
330
A
100
AcDbEntity
  8
FORMAT
  6
PHANTOM
 62
     1
100
AcDbLine
 10
349.0023626001999
 20
401.941321262895
 30
0.0
 11
349.0023626001999
 21
331.099968000795
 31
0.0
  0
LINE
  5
1AE
330
A
100
AcDbEntity
  8
FORMAT
  6
PHANTOM
 62
     1
100
AcDbLine
 10
349.0023626001999
 20
331.099968000795
 30
0.0
 11
329.0023626002
 21
331.099968000795
 31
0.0
  0
LINE
  5
1AD
330
A
100
AcDbEntity
  8
FORMAT
  6
PHANTOM
 62
     1
100
AcDbLine
 10
87.85405134479999
 20
346.099968000795
 30
0.0
 11
329.0023626002
 21
346.099968000795
 31
0.0
  0
LINE
  5
1AC
330
A
100
AcDbEntity
  8
0
  6
Continuous
 62
     6
100
AcDbLine
 10
202.2577961
 20
285.928922702995
 30
0.0
 11
207.2023627373
 21
284.502604726595
 31
0.0
  0
LINE
  5
1AB
330
A
100
AcDbEntity
  8
0
  6
Continuous
 62
     6
100
AcDbLine
 10
186.8023620012
 20
284.502604726595
 30
0.0
 11
191.746677677214
 21
285.928849592729
 31
0.0
  0
LINE
  5
1AA
330
A
100
AcDbEntity
  8
0
  6
Continuous
 62
     6
100
AcDbLine
 10
202.0023641200999
 20
285.502604788595
 30
0.0
 11
202.0023641200999
 21
285.736758026695
 31
0.0
  0
LINE
  5
1A9
330
A
100
AcDbEntity
  8
0
  6
Continuous
 62
     6
100
AcDbLine
 10
207.4415859791
 20
286.9547597341949
 30
0.0
 11
211.3984775754
 21
286.163381764195
 31
0.0
  0
LINE
  5
1A8
330
A
100
AcDbEntity
  8
0
  6
Continuous
 62
     6
100
AcDbLine
 10
186.8023620012
 20
286.758643456295
 30
0.0
 11
186.8023620012
 21
286.002604754195
 31
0.0
  0
LINE
  5
1A7
330
A
100
AcDbEntity
  8
0
  6
Continuous
 62
     6
100
AcDbLine
 10
207.2023627373
 20
284.502604726595
 30
0.0
 11
207.2023627373
 21
286.102604700695
 31
0.0
  0
LINE
  5
1A6
330
A
100
AcDbEntity
  8
0
  6
Continuous
 62
     6
100
AcDbLine
 10
182.6062462316999
 20
286.163381764195
 30
0.0
 11
186.5631387593
 21
286.9547597341949
 31
0.0
  0
LINE
  5
1A5
330
A
100
AcDbEntity
  8
0
  6
Continuous
 62
     6
100
AcDbLine
 10
178.2023626404
 20
279.502604503595
 30
0.0
 11
181.8023630442
 21
281.002604749495
 31
0.0
  0
LINE
  5
1A4
330
A
100
AcDbEntity
  8
0
  6
Continuous
 62
     6
100
AcDbLine
 10
212.2023616942
 20
281.002604749495
 30
0.0
 11
215.8023630293
 21
279.502604503595
 31
0.0
  0
LINE
  5
1A3
330
A
100
AcDbEntity
  8
0
  6
Continuous
 62
     6
100
AcDbLine
 10
190.0759571256
 20
281.002604749495
 30
0.0
 11
203.9287676128
 21
281.002604749495
 31
0.0
  0
LINE
  5
1A2
330
A
100
AcDbEntity
  8
0
  6
Continuous
 62
     6
100
AcDbLine
 10
212.2023616942
 20
285.182801014695
 30
0.0
 11
212.2023616942
 21
281.002604749495
 31
0.0
  0
LINE
  5
1A1
330
A
100
AcDbEntity
  8
0
  6
Continuous
 62
     6
100
AcDbLine
 10
204.1076486023
 20
281.292036522595
 30
0.0
 11
202.0023641200999
 21
285.502604788595
 31
0.0
  0
LINE
  5
1A0
330
A
100
AcDbEntity
  8
0
  6
Continuous
 62
     6
100
AcDbLine
 10
181.8023630442
 20
281.002604749495
 30
0.0
 11
181.8023630442
 21
285.182801014695
 31
0.0
  0
LINE
  5
19F
330
A
100
AcDbEntity
  8
0
  6
Continuous
 62
     6
100
AcDbLine
 10
169.3023626251
 20
279.502604503595
 30
0.0
 11
224.7023609491
 21
279.502604503595
 31
0.0
  0
LINE
  5
19E
330
A
100
AcDbEntity
  8
0
  6
Continuous
 62
     6
100
AcDbLine
 10
169.0023625527
 20
276.251992557695
 30
0.0
 11
169.0023625527
 21
279.202604547595
 31
0.0
  0
LINE
  5
19D
330
A
100
AcDbEntity
  8
0
  6
Continuous
 62
     6
100
AcDbLine
 10
225.0023623022
 20
276.251992557695
 30
0.0
 11
225.0023623022
 21
279.202604547595
 31
0.0
  0
LINE
  5
19C
330
A
100
AcDbEntity
  8
0
  6
Continuous
 62
     6
100
AcDbLine
 10
169.0023625527
 20
271.513221200995
 30
0.0
 11
169.0023625527
 21
276.251992557695
 31
0.0
  0
LINE
  5
19B
330
A
100
AcDbEntity
  8
0
  6
Continuous
 62
     6
100
AcDbLine
 10
225.0023623022
 20
271.513221200995
 30
0.0
 11
225.0023623022
 21
276.251992557695
 31
0.0
  0
LINE
  5
19A
330
A
100
AcDbEntity
  8
0
  6
Continuous
 62
     6
100
AcDbLine
 10
225.0023623022
 20
270.530579027195
 30
0.0
 11
225.0023623022
 21
271.513221200995
 31
0.0
  0
LINE
  5
199
330
A
100
AcDbEntity
  8
0
  6
Continuous
 62
     6
100
AcDbLine
 10
225.0023623022
 20
269.690007318295
 30
0.0
 11
225.0023623022
 21
270.530579027195
 31
0.0
  0
LINE
  5
198
330
A
100
AcDbEntity
  8
0
  6
Continuous
 62
     6
100
AcDbLine
 10
169.0023625527
 20
269.690007318295
 30
0.0
 11
169.0023625527
 21
270.530579027195
 31
0.0
  0
LINE
  5
197
330
A
100
AcDbEntity
  8
0
  6
Continuous
 62
     6
100
AcDbLine
 10
169.0023625527
 20
269.128497105495
 30
0.0
 11
169.0023625527
 21
269.690007318295
 31
0.0
  0
LINE
  5
196
330
A
100
AcDbEntity
  8
0
  6
Continuous
 62
     6
100
AcDbLine
 10
225.0023623022
 20
269.128497105495
 30
0.0
 11
225.0023623022
 21
269.690007318295
 31
0.0
  0
LINE
  5
195
330
A
100
AcDbEntity
  8
0
  6
Continuous
 62
     6
100
AcDbLine
 10
169.0023625527
 20
257.041608330295
 30
0.0
 11
169.0023625527
 21
269.128497105495
 31
0.0
  0
LINE
  5
194
330
A
100
AcDbEntity
  8
0
  6
Continuous
 62
     6
100
AcDbLine
 10
225.0023623022
 20
257.041608330295
 30
0.0
 11
225.0023623022
 21
269.128497105495
 31
0.0
  0
LINE
  5
193
330
A
100
AcDbEntity
  8
0
  6
Continuous
 62
     6
100
AcDbLine
 10
169.0023625527
 20
256.0589661564951
 30
0.0
 11
169.0023625527
 21
257.041608330295
 31
0.0
  0
LINE
  5
192
330
A
100
AcDbEntity
  8
0
  6
Continuous
 62
     6
100
AcDbLine
 10
225.0023623022
 20
256.0589661564951
 30
0.0
 11
225.0023623022
 21
257.041608330295
 31
0.0
  0
LINE
  5
191
330
A
100
AcDbEntity
  8
0
  6
Continuous
 62
     6
100
AcDbLine
 10
169.0023625527
 20
255.513112407595
 30
0.0
 11
169.0023625527
 21
256.0589661564951
 31
0.0
  0
LINE
  5
190
330
A
100
AcDbEntity
  8
0
  6
Continuous
 62
     6
100
AcDbLine
 10
225.0023623022
 20
255.513112407595
 30
0.0
 11
225.0023623022
 21
256.0589661564951
 31
0.0
  0
LINE
  5
18F
330
A
100
AcDbEntity
  8
0
  6
Continuous
 62
     6
100
AcDbLine
 10
225.0023623022
 20
254.951603126195
 30
0.0
 11
225.0023623022
 21
255.513112407595
 31
0.0
  0
LINE
  5
18E
330
A
100
AcDbEntity
  8
0
  6
Continuous
 62
     6
100
AcDbLine
 10
169.0023625527
 20
254.951603126195
 30
0.0
 11
169.0023625527
 21
255.513112407595
 31
0.0
  0
LINE
  5
18D
330
A
100
AcDbEntity
  8
0
  6
Continuous
 62
     6
100
AcDbLine
 10
216.0023626896
 20
247.454614725395
 30
0.0
 11
214.0023623618
 21
247.454614725395
 31
0.0
  0
LINE
  5
18C
330
A
100
AcDbEntity
  8
0
  6
Continuous
 62
     6
100
AcDbLine
 10
214.0023623618
 20
252.053914007295
 30
0.0
 11
216.0023626896
 21
252.053914007295
 31
0.0
  0
LINE
  5
18B
330
A
100
AcDbEntity
  8
0
  6
Continuous
 62
     6
100
AcDbLine
 10
180.0023623767
 20
252.053914007295
 30
0.0
 11
178.0023629802
 21
252.053914007295
 31
0.0
  0
LINE
  5
18A
330
A
100
AcDbEntity
  8
0
  6
Continuous
 62
     6
100
AcDbLine
 10
178.0023629802
 20
247.454614725395
 30
0.0
 11
180.0023623767
 21
247.454614725395
 31
0.0
  0
LINE
  5
189
330
A
100
AcDbEntity
  8
0
  6
Continuous
 62
     6
100
AcDbLine
 10
169.0023625527
 20
245.860093620095
 30
0.0
 11
169.0023625527
 21
254.951603126195
 31
0.0
  0
LINE
  5
188
330
A
100
AcDbEntity
  8
0
  6
Continuous
 62
     6
100
AcDbLine
 10
225.0023623022
 20
245.860093620095
 30
0.0
 11
225.0023623022
 21
254.951603126195
 31
0.0
  0
LINE
  5
187
330
A
100
AcDbEntity
  8
0
  6
Continuous
 62
     6
100
AcDbLine
 10
223.0023619743
 20
243.860398766095
 30
0.0
 11
171.0023626477
 21
243.860398766095
 31
0.0
  0
LINE
  5
186
330
A
100
AcDbEntity
  8
0
  6
Continuous
 62
     3
100
AcDbLine
 10
192.1900779965
 20
282.689589306195
 30
0.0
 11
193.5017359467
 21
283.990317080195
 31
0.0
  0
LINE
  5
185
330
A
100
AcDbEntity
  8
0
  6
Continuous
 62
     3
100
AcDbLine
 10
191.6023631605
 20
282.602604709095
 30
0.0
 11
191.9788279595
 21
282.602604709095
 31
0.0
  0
LINE
  5
184
330
A
100
AcDbEntity
  8
0
  6
Continuous
 62
     3
100
AcDbLine
 10
191.6023631605
 20
284.702604750595
 30
0.0
 11
191.6023631605
 21
282.602604709095
 31
0.0
  0
LINE
  5
183
330
A
100
AcDbEntity
  8
0
  6
Continuous
 62
     3
100
AcDbLine
 10
198.014127931203
 20
286.002604754195
 30
0.0
 11
186.8023620012
 21
286.002604754195
 31
0.0
  0
LINE
  5
182
330
A
100
AcDbEntity
  8
0
  6
Continuous
 62
     3
100
AcDbLine
 10
192.1628312232
 20
282.630924598795
 30
0.0
 11
192.6361610206
 21
282.852604750095
 31
0.0
  0
LINE
  5
181
330
A
100
AcDbEntity
  8
0
  6
Continuous
 62
     3
100
AcDbLine
 10
198.3099569591
 20
285.752603898295
 30
0.0
 11
198.3132668795
 21
285.725396240595
 31
0.0
  0
LINE
  5
180
330
A
100
AcDbEntity
  8
0
  6
Continuous
 62
     3
100
AcDbLine
 10
173.4067922482
 20
282.852604750095
 30
0.0
 11
174.2166782754
 21
281.302604705495
 31
0.0
  0
LINE
  5
17F
330
A
100
AcDbEntity
  8
0
  6
Continuous
 62
     3
100
AcDbLine
 10
169.3023626251
 20
282.852604750095
 30
0.0
 11
173.4067922482
 21
282.852604750095
 31
0.0
  0
LINE
  5
17E
330
A
100
AcDbEntity
  8
0
  6
Continuous
 62
     3
100
AcDbLine
 10
169.3023626251
 20
282.852604750095
 30
0.0
 11
169.3023626251
 21
285.752604713195
 31
0.0
  0
LINE
  5
17D
330
A
100
AcDbEntity
  8
0
  6
Continuous
 62
     3
100
AcDbLine
 10
169.3023626251
 20
285.752604713195
 30
0.0
 11
173.4067922482
 21
285.752604713195
 31
0.0
  0
LINE
  5
17C
330
A
100
AcDbEntity
  8
0
  6
Continuous
 62
     3
100
AcDbLine
 10
174.2166782754
 20
287.302604757695
 30
0.0
 11
173.4067922482
 21
285.752604713195
 31
0.0
  0
LINE
  5
17B
330
A
100
AcDbEntity
  8
0
  6
Continuous
 62
     3
100
AcDbLine
 10
179.6023630562
 20
287.302604757695
 30
0.0
 11
179.6023630562
 21
281.302604705495
 31
0.0
  0
LINE
  5
17A
330
A
100
AcDbEntity
  8
0
  6
Continuous
 62
     3
100
AcDbLine
 10
174.2166782754
 20
287.302604757695
 30
0.0
 11
179.6023630562
 21
287.302604757695
 31
0.0
  0
LINE
  5
179
330
A
100
AcDbEntity
  8
0
  6
Continuous
 62
     3
100
AcDbLine
 10
179.6023630562
 20
281.302604705495
 30
0.0
 11
174.2166782754
 21
281.302604705495
 31
0.0
  0
LINE
  5
178
330
A
100
AcDbEntity
  8
0
  6
Continuous
 62
     3
100
AcDbLine
 10
179.6023630562
 20
285.752604713195
 30
0.0
 11
181.9805818634
 21
285.752604713195
 31
0.0
  0
LINE
  5
177
330
A
100
AcDbEntity
  8
0
  6
Continuous
 62
     3
100
AcDbLine
 10
181.8023630442
 20
282.852604750095
 30
0.0
 11
179.6023630562
 21
282.852604750095
 31
0.0
  0
LINE
  5
176
330
A
100
AcDbEntity
  8
0
  6
Continuous
 62
     3
100
AcDbLine
 10
198.4985758575
 20
284.726874784095
 30
0.0
 11
198.4985758575
 21
285.452604757095
 31
0.0
  0
LINE
  5
175
330
A
100
AcDbEntity
  8
0
  6
Continuous
 62
     3
100
AcDbLine
 10
198.309956959094
 20
285.752604713195
 30
0.0
 11
199.3380756142
 21
285.752604713195
 31
0.0
  0
LINE
  5
174
330
A
100
AcDbEntity
  8
0
  6
Continuous
 62
     3
100
AcDbLine
 10
198.4985758575
 20
282.852604750095
 30
0.0
 11
198.4985758575
 21
284.726874784095
 31
0.0
  0
LINE
  5
173
330
A
100
AcDbEntity
  8
0
  6
Continuous
 62
     3
100
AcDbLine
 10
198.4985758575
 20
282.852604750095
 30
0.0
 11
194.904434404
 21
282.852604750095
 31
0.0
  0
LINE
  5
172
330
A
100
AcDbEntity
  8
0
  6
Continuous
 62
     3
100
AcDbLine
 10
199.9187869044
 20
282.852604750095
 30
0.0
 11
198.4985758575
 21
282.852604750095
 31
0.0
  0
LINE
  5
171
330
A
100
AcDbEntity
  8
0
  6
Continuous
 62
     3
100
AcDbLine
 10
259.1023658427
 20
282.502604762495
 30
0.0
 11
259.1023658427
 21
286.102604700695
 31
0.0
  0
LINE
  5
170
330
A
100
AcDbEntity
  8
0
  6
Continuous
 62
     3
100
AcDbLine
 10
259.1023658427
 20
286.102604700695
 30
0.0
 11
211.5947407695
 21
286.102604700695
 31
0.0
  0
LINE
  5
16F
330
A
100
AcDbEntity
  8
0
  6
Continuous
 62
     3
100
AcDbLine
 10
207.2023627373
 20
286.102604700695
 30
0.0
 11
186.8023620012
 21
286.102604700695
 31
0.0
  0
LINE
  5
16E
330
A
100
AcDbEntity
  8
0
  6
Continuous
 62
     3
100
AcDbLine
 10
182.4099839689
 20
286.102604700695
 30
0.0
 11
179.6023630562
 21
286.102604700695
 31
0.0
  0
LINE
  5
16D
330
A
100
AcDbEntity
  8
0
  6
Continuous
 62
     3
100
AcDbLine
 10
173.5896697758
 20
286.102604700695
 30
0.0
 11
169.2023625622
 21
286.102604700695
 31
0.0
  0
LINE
  5
16C
330
A
100
AcDbEntity
  8
0
  6
Continuous
 62
     3
100
AcDbLine
 10
169.2023625622
 20
286.102604700695
 30
0.0
 11
169.2023625622
 21
282.502604762495
 31
0.0
  0
LINE
  5
16B
330
A
100
AcDbEntity
  8
0
  6
Continuous
 62
     3
100
AcDbLine
 10
259.1023658427
 20
282.502604762495
 30
0.0
 11
212.2023616942
 21
282.502604762495
 31
0.0
  0
LINE
  5
16A
330
A
100
AcDbEntity
  8
0
  6
Continuous
 62
     3
100
AcDbLine
 10
203.5023634346
 20
282.502604762495
 30
0.0
 11
190.502362490563
 21
282.502604762495
 31
0.0
  0
LINE
  5
169
330
A
100
AcDbEntity
  8
0
  6
Continuous
 62
     3
100
AcDbLine
 10
181.8023630442
 20
282.502604762495
 30
0.0
 11
179.6023630562
 21
282.502604762495
 31
0.0
  0
LINE
  5
168
330
A
100
AcDbEntity
  8
0
  6
Continuous
 62
     3
100
AcDbLine
 10
173.5896697758
 20
282.502604762495
 30
0.0
 11
169.2023625622
 21
282.502604762495
 31
0.0
  0
LINE
  5
167
330
A
100
AcDbEntity
  8
0
  6
Continuous
 62
     3
100
AcDbLine
 10
41.5023629578
 20
278.802604761395
 30
0.0
 11
169.0023625527
 21
278.802604761395
 31
0.0
  0
LINE
  5
166
330
A
100
AcDbEntity
  8
0
  6
Continuous
 62
     3
100
AcDbLine
 10
225.0023623022
 20
278.802604761395
 30
0.0
 11
274.2023606809
 21
278.802604761395
 31
0.0
  0
LINE
  5
165
330
A
100
AcDbEntity
  8
0
  6
Continuous
 62
     3
100
AcDbLine
 10
279.2023633631
 20
289.502604745795
 30
0.0
 11
279.2023633631
 21
279.102604717495
 31
0.0
  0
LINE
  5
164
330
A
100
AcDbEntity
  8
0
  6
Continuous
 62
     3
100
AcDbLine
 10
50.8023639234
 20
279.102604717495
 30
0.0
 11
50.8023639234
 21
289.502604745795
 31
0.0
  0
LINE
  5
163
330
A
100
AcDbEntity
  8
0
  6
Continuous
 62
     3
100
AcDbLine
 10
41.5023629578
 20
289.802604701795
 30
0.0
 11
274.2023606809
 21
289.802604701795
 31
0.0
  0
LINE
  5
162
330
A
100
AcDbEntity
  8
0
  6
Continuous
 62
     3
100
AcDbLine
 10
41.3023595723
 20
278.802604761395
 30
0.0
 11
41.5023629578
 21
278.802604761395
 31
0.0
  0
LINE
  5
161
330
A
100
AcDbEntity
  8
0
  6
Continuous
 62
     3
100
AcDbLine
 10
41.0023693951
 20
279.102604717495
 30
0.0
 11
41.0023693951
 21
289.502604745795
 31
0.0
  0
LINE
  5
160
330
A
100
AcDbEntity
  8
0
  6
Continuous
 62
     3
100
AcDbLine
 10
278.8927768382
 20
278.802604761395
 30
0.0
 11
288.7023602637
 21
278.802604761395
 31
0.0
  0
LINE
  5
15F
330
A
100
AcDbEntity
  8
0
  6
Continuous
 62
     3
100
AcDbLine
 10
289.002365342
 20
289.502604745795
 30
0.0
 11
289.002365342
 21
279.102604717495
 31
0.0
  0
LINE
  5
15E
330
A
100
AcDbEntity
  8
0
  6
Continuous
 62
     3
100
AcDbLine
 10
41.3023595723
 20
289.802604701795
 30
0.0
 11
41.5023629578
 21
289.802604701795
 31
0.0
  0
LINE
  5
15D
330
A
100
AcDbEntity
  8
0
  6
Continuous
 62
     3
100
AcDbLine
 10
278.8927768382
 20
289.802604701795
 30
0.0
 11
288.7023602637
 21
289.802604701795
 31
0.0
  0
LINE
  5
15C
330
A
100
AcDbEntity
  8
0
  6
Continuous
 62
     6
100
AcDbLine
 10
186.5746964725
 20
286.896978618995
 30
0.0
 11
186.5631387593
 21
286.9547597341949
 31
0.0
  0
LINE
  5
15B
330
A
100
AcDbEntity
  8
0
  6
Continuous
 62
     6
100
AcDbLine
 10
169.3023626251
 20
276.246756662095
 30
0.0
 11
224.7023609491
 21
276.246756662095
 31
0.0
  0
LINE
  5
15A
330
A
100
AcDbEntity
  8
0
  6
Continuous
 62
     6
100
AcDbLine
 10
169.3023626251
 20
255.297310065895
 30
0.0
 11
224.7023609491
 21
255.297310065895
 31
0.0
  0
LINE
  5
159
330
A
100
AcDbEntity
  8
0
  6
Continuous
 62
     3
100
AcDbLine
 10
169.2023625622
 20
283.002604728095
 30
0.0
 11
169.3023626251
 21
283.002604728095
 31
0.0
  0
LINE
  5
158
330
A
100
AcDbEntity
  8
0
  6
Continuous
 62
     3
100
AcDbLine
 10
169.3023626251
 20
285.602604735195
 30
0.0
 11
169.2023625622
 21
285.602604735195
 31
0.0
  0
LINE
  5
157
330
A
100
AcDbEntity
  8
0
  6
Continuous
 62
     3
100
AcDbLine
 10
193.5017359467
 20
286.002604754195
 30
0.0
 11
193.5017359467
 21
283.990317080195
 31
0.0
  0
LINE
  5
156
330
A
100
AcDbEntity
  8
0
  6
Continuous
 62
     3
100
AcDbLine
 10
192.6165250154
 20
282.852604750095
 30
0.0
 11
197.9419671955
 21
285.432251866395
 31
0.0
  0
LINE
  5
155
330
A
100
AcDbEntity
  8
0
  6
Continuous
 62
     3
100
AcDbLine
 10
198.2222133341
 20
285.598953252195
 30
0.0
 11
198.3132445278
 21
285.7253471132949
 31
0.0
  0
LINE
  5
154
330
A
100
AcDbEntity
  8
0
  6
Continuous
 62
     3
100
AcDbLine
 10
197.9419634702
 20
285.432266185495
 30
0.0
 11
197.9838022055
 21
285.345747133195
 31
0.0
  0
LINE
  5
153
330
A
100
AcDbEntity
  8
0
  6
Continuous
 62
     3
100
AcDbLine
 10
198.223772368
 20
284.849526241895
 30
0.0
 11
198.3752482595
 21
284.536298754995
 31
0.0
  0
LINE
  5
152
330
A
100
AcDbEntity
  8
0
  6
Continuous
 62
     3
100
AcDbLine
 10
198.3752482595
 20
284.536298463895
 30
0.0
 11
194.904434404
 21
282.852604750095
 31
0.0
  0
LINE
  5
151
330
A
100
AcDbEntity
  8
0
  6
Continuous
 62
     3
100
AcDbLine
 10
199.9187869044
 20
285.452604757095
 30
0.0
 11
198.4985758575
 21
285.452604757095
 31
0.0
  0
LINE
  5
150
330
A
100
AcDbEntity
  8
0
  6
Continuous
 62
     3
100
AcDbLine
 10
199.9187869044
 20
282.852604750095
 30
0.0
 11
199.9187869044
 21
285.452604757095
 31
0.0
  0
LINE
  5
14F
330
A
100
AcDbEntity
  8
0
  6
Continuous
 62
     6
100
AcDbLine
 10
390.710091822787
 20
355.499968000795
 30
0.0
 11
390.769017244187
 21
348.747783511495
 31
0.0
  0
LINE
  5
14E
330
A
100
AcDbEntity
  8
0
  6
Continuous
 62
     6
100
AcDbLine
 10
390.769017244187
 20
362.252152489995
 30
0.0
 11
390.710091822787
 21
355.499968000795
 31
0.0
  0
LINE
  5
14D
330
A
100
AcDbEntity
  8
0
  6
Continuous
 62
     3
100
AcDbLine
 10
390.366130642287
 20
353.650287591895
 30
0.0
 11
390.726233739187
 21
353.650287591895
 31
0.0
  0
LINE
  5
14C
330
A
100
AcDbEntity
  8
0
  6
Continuous
 62
     6
100
AcDbLine
 10
398.7054142398871
 20
362.252149634595
 30
0.0
 11
398.666130642287
 21
355.499968000795
 31
0.0
  0
LINE
  5
14B
330
A
100
AcDbEntity
  8
0
  6
Continuous
 62
     6
100
AcDbLine
 10
399.607205245887
 20
362.252149634595
 30
0.0
 11
399.666130642287
 21
355.499968000795
 31
0.0
  0
LINE
  5
14A
330
A
100
AcDbEntity
  8
0
  6
Continuous
 62
     6
100
AcDbLine
 10
396.705414239887
 20
362.252149634595
 30
0.0
 11
396.666130642287
 21
355.499968000795
 31
0.0
  0
LINE
  5
149
330
A
100
AcDbEntity
  8
0
  6
Continuous
 62
     6
100
AcDbLine
 10
396.705414239887
 20
348.747786366895
 30
0.0
 11
396.666130642287
 21
355.499968000795
 31
0.0
  0
LINE
  5
148
330
A
100
AcDbEntity
  8
0
  6
Continuous
 62
     6
100
AcDbLine
 10
398.7054142398871
 20
348.747786366895
 30
0.0
 11
398.666130642287
 21
355.499968000795
 31
0.0
  0
LINE
  5
147
330
A
100
AcDbEntity
  8
0
  6
Continuous
 62
     6
100
AcDbLine
 10
399.609524966487
 20
349.013600018495
 30
0.0
 11
399.666130642287
 21
355.499968000795
 31
0.0
  0
LINE
  5
146
330
A
100
AcDbEntity
  8
0
  6
Continuous
 62
     6
100
AcDbLine
 10
398.872074560387
 20
348.499968000795
 30
0.0
 11
399.095892948687
 21
348.499968000795
 31
0.0
  0
LINE
  5
145
330
A
100
AcDbEntity
  8
0
  6
Continuous
 62
     6
100
AcDbLine
 10
398.872074560387
 20
362.499968000795
 30
0.0
 11
399.357214765087
 21
362.499968000795
 31
0.0
  0
LINE
  5
144
330
A
100
AcDbEntity
  8
0
  6
Continuous
 62
     6
100
AcDbLine
 10
396.872074560387
 20
348.499968000795
 30
0.0
 11
398.872074560387
 21
348.499968000795
 31
0.0
  0
LINE
  5
143
330
A
100
AcDbEntity
  8
0
  6
Continuous
 62
     6
100
AcDbLine
 10
396.872074560387
 20
362.499968000795
 30
0.0
 11
398.872074560387
 21
362.499968000795
 31
0.0
  0
LINE
  5
142
330
A
100
AcDbEntity
  8
0
  6
Continuous
 62
     6
100
AcDbLine
 10
391.808270589087
 20
362.499968000795
 30
0.0
 11
392.485934344987
 21
362.499968000795
 31
0.0
  0
LINE
  5
141
330
A
100
AcDbEntity
  8
0
  6
Continuous
 62
     6
100
AcDbLine
 10
391.808270589087
 20
348.499968000795
 30
0.0
 11
392.485934344987
 21
348.499968000795
 31
0.0
  0
LINE
  5
140
330
A
100
AcDbEntity
  8
0
  6
Continuous
 62
     6
100
AcDbLine
 10
392.485934344987
 20
362.499968000795
 30
0.0
 11
396.872074560387
 21
362.499968000795
 31
0.0
  0
LINE
  5
13F
330
A
100
AcDbEntity
  8
0
  6
Continuous
 62
     6
100
AcDbLine
 10
392.485934344987
 20
348.499968000795
 30
0.0
 11
396.872074560387
 21
348.499968000795
 31
0.0
  0
LINE
  5
13E
330
A
100
AcDbEntity
  8
0
  6
Continuous
 62
     6
100
AcDbLine
 10
391.042947815087
 20
348.499968000795
 30
0.0
 11
391.808270589087
 21
348.499968000795
 31
0.0
  0
LINE
  5
13D
330
A
100
AcDbEntity
  8
0
  6
Continuous
 62
     6
100
AcDbLine
 10
391.042947815087
 20
362.499968000795
 30
0.0
 11
391.808270589087
 21
362.499968000795
 31
0.0
  0
LINE
  5
13C
330
A
100
AcDbEntity
  8
0
  6
Continuous
 62
     6
100
AcDbLine
 10
390.710091822787
 20
355.499968000795
 30
0.0
 11
390.713975681987
 21
355.499968000795
 31
0.0
  0
LINE
  5
13B
330
A
100
AcDbEntity
  8
0
  6
Continuous
 62
     6
100
AcDbLine
 10
422.7223681444869
 20
344.699247700095
 30
0.0
 11
431.813876471687
 21
344.857940568195
 31
0.0
  0
LINE
  5
13A
330
A
100
AcDbEntity
  8
0
  6
Continuous
 62
     6
100
AcDbLine
 10
431.792933583987
 20
346.057757802395
 30
0.0
 11
422.701425256787
 21
345.899064934195
 31
0.0
  0
LINE
  5
139
330
A
100
AcDbEntity
  8
0
  6
Continuous
 62
     6
100
AcDbLine
 10
431.813876471687
 20
344.857940568195
 30
0.0
 11
433.513617553387
 21
344.887609659095
 31
0.0
  0
LINE
  5
138
330
A
100
AcDbEntity
  8
0
  6
Continuous
 62
     6
100
AcDbLine
 10
433.692644204687
 20
346.090917374595
 30
0.0
 11
431.792933583987
 21
346.057757802395
 31
0.0
  0
LINE
  5
137
330
A
100
AcDbEntity
  8
0
  6
Continuous
 62
     6
100
AcDbLine
 10
433.8083361400869
 20
345.192799689595
 30
0.0
 11
433.794374214887
 21
345.9926778457949
 31
0.0
  0
LINE
  5
136
330
A
100
AcDbEntity
  8
0
  6
Continuous
 62
     6
100
AcDbLine
 10
420.611419863887
 20
344.662400960795
 30
0.0
 11
408.5245308732869
 21
344.451423528595
 31
0.0
  0
LINE
  5
135
330
A
100
AcDbEntity
  8
0
  6
Continuous
 62
     6
100
AcDbLine
 10
421.825571321287
 20
343.9814055785949
 30
0.0
 11
422.3714244475869
 21
344.546653037695
 31
0.0
  0
LINE
  5
134
330
A
100
AcDbEntity
  8
0
  6
Continuous
 62
     6
100
AcDbLine
 10
421.5082166871869
 20
345.380243082295
 30
0.0
 11
420.962363560887
 21
344.814995623095
 31
0.0
  0
LINE
  5
133
330
A
100
AcDbEntity
  8
0
  6
Continuous
 62
     6
100
AcDbLine
 10
408.545473760987
 20
343.251606294495
 30
0.0
 11
420.632362751687
 21
343.462583726595
 31
0.0
  0
LINE
  5
132
330
A
100
AcDbEntity
  8
0
  6
Continuous
 62
     6
100
AcDbLine
 10
407.353958351187
 20
342.228574142495
 30
0.0
 11
408.194530064087
 21
343.099011632095
 31
0.0
  0
LINE
  5
131
330
A
100
AcDbEntity
  8
0
  6
Continuous
 62
     6
100
AcDbLine
 10
407.3313223036869
 20
343.932601676695
 30
0.0
 11
406.4907505907869
 21
343.062164186995
 31
0.0
  0
LINE
  5
130
330
A
100
AcDbEntity
  8
0
  6
Continuous
 62
     6
100
AcDbLine
 10
401.4219783428869
 20
341.627036727395
 30
0.0
 11
406.1607497815869
 21
341.709752290495
 31
0.0
  0
LINE
  5
12F
330
A
100
AcDbEntity
  8
0
  6
Continuous
 62
     6
100
AcDbLine
 10
406.139806893787
 20
342.909569524695
 30
0.0
 11
401.401035455187
 21
342.8268539614951
 31
0.0
  0
LINE
  5
12E
330
A
100
AcDbEntity
  8
0
  6
Continuous
 62
     6
100
AcDbLine
 10
400.866130642287
 20
349.070205694295
 30
0.0
 11
400.866130642287
 21
364.999968000795
 31
0.0
  0
LINE
  5
12D
330
A
100
AcDbEntity
  8
0
  6
Continuous
 62
     6
100
AcDbLine
 10
400.7661306422869
 20
365.099968000795
 30
0.0
 11
399.966130642287
 21
365.099968000795
 31
0.0
  0
LINE
  5
12C
330
A
100
AcDbEntity
  8
0
  6
Continuous
 62
     6
100
AcDbLine
 10
399.666130642287
 20
364.799968000795
 30
0.0
 11
399.666130642287
 21
349.070205694295
 31
0.0
  0
LINE
  5
12B
330
A
100
AcDbEntity
  8
0
  6
Continuous
 62
     6
100
AcDbLine
 10
399.366130642287
 20
347.073149419495
 30
0.0
 11
400.5146587796869
 21
348.221677556895
 31
0.0
  0
LINE
  5
12A
330
A
100
AcDbEntity
  8
0
  6
Continuous
 62
     6
100
AcDbLine
 10
398.166130642287
 20
347.073149419495
 30
0.0
 11
398.166130642287
 21
344.826549351895
 31
0.0
  0
LINE
  5
129
330
A
100
AcDbEntity
  8
0
  6
Continuous
 62
     6
100
AcDbLine
 10
399.366130642287
 20
344.826549351895
 30
0.0
 11
399.366130642287
 21
347.073149419495
 31
0.0
  0
LINE
  5
128
330
A
100
AcDbEntity
  8
0
  6
Continuous
 62
     6
100
AcDbLine
 10
399.666130642287
 20
349.070205694295
 30
0.0
 11
398.517602504887
 21
347.921677556895
 31
0.0
  0
LINE
  5
127
330
A
100
AcDbEntity
  8
0
  6
Continuous
 62
     6
100
AcDbLine
 10
399.666130642287
 20
350.799968000795
 30
0.0
 11
399.625114363687
 21
350.799968000795
 31
0.0
  0
LINE
  5
126
330
A
100
AcDbEntity
  8
0
  6
Continuous
 62
     6
100
AcDbLine
 10
399.666130642287
 20
361.799968000795
 30
0.0
 11
399.611151375187
 21
361.799968000795
 31
0.0
  0
LINE
  5
125
330
A
100
AcDbEntity
  8
0
  6
Continuous
 62
     3
100
AcDbLine
 10
395.066130642287
 20
365.999968000795
 30
0.0
 11
395.066130642287
 21
362.499968000795
 31
0.0
  0
LINE
  5
124
330
A
100
AcDbEntity
  8
0
  6
Continuous
 62
     3
100
AcDbLine
 10
390.366130642287
 20
362.049968000795
 30
0.0
 11
390.366130642287
 21
357.714843274295
 31
0.0
  0
LINE
  5
123
330
A
100
AcDbEntity
  8
0
  6
Continuous
 62
     3
100
AcDbLine
 10
390.767252806887
 20
362.049968000795
 30
0.0
 11
390.366130642287
 21
362.049968000795
 31
0.0
  0
LINE
  5
122
330
A
100
AcDbEntity
  8
0
  6
Continuous
 62
     3
100
AcDbLine
 10
390.366130642287
 20
357.417431880995
 30
0.0
 11
390.366130642287
 21
357.714843274295
 31
0.0
  0
LINE
  5
121
330
A
100
AcDbEntity
  8
0
  6
Continuous
 62
     3
100
AcDbLine
 10
395.066130642287
 20
363.049968000795
 30
0.0
 11
396.366130642287
 21
363.049968000795
 31
0.0
  0
LINE
  5
120
330
A
100
AcDbEntity
  8
0
  6
Continuous
 62
     3
100
AcDbLine
 10
396.366130642287
 20
363.049968000795
 30
0.0
 11
396.366130642287
 21
362.499968000795
 31
0.0
  0
LINE
  5
11F
330
A
100
AcDbEntity
  8
0
  6
Continuous
 62
     3
100
AcDbLine
 10
390.366130642287
 20
363.049968000795
 30
0.0
 11
391.666287660087
 21
363.049968000795
 31
0.0
  0
LINE
  5
11E
330
A
100
AcDbEntity
  8
0
  6
Continuous
 62
     3
100
AcDbLine
 10
390.366130642287
 20
362.049968000795
 30
0.0
 11
390.366130642287
 21
363.049968000795
 31
0.0
  0
LINE
  5
11D
330
A
100
AcDbEntity
  8
0
  6
Continuous
 62
     3
100
AcDbLine
 10
390.366130642287
 20
357.417431880995
 30
0.0
 11
390.366130642287
 21
353.771840755895
 31
0.0
  0
LINE
  5
11C
330
A
100
AcDbEntity
  8
0
  6
Continuous
 62
     3
100
AcDbLine
 10
390.366130642287
 20
353.650287591895
 30
0.0
 11
390.366130642287
 21
353.771840755895
 31
0.0
  0
LINE
  5
11B
330
A
100
AcDbEntity
  8
0
  6
Continuous
 62
     3
100
AcDbLine
 10
398.5661306422869
 20
370.999968000795
 30
0.0
 11
388.166130642287
 21
370.999968000795
 31
0.0
  0
LINE
  5
11A
330
A
100
AcDbEntity
  8
0
  6
Continuous
 62
     3
100
AcDbLine
 10
398.5661306422869
 20
391.499968000795
 30
0.0
 11
388.166130642287
 21
391.499968000795
 31
0.0
  0
LINE
  5
119
330
A
100
AcDbEntity
  8
0
  6
Continuous
 62
     3
100
AcDbLine
 10
388.166130642287
 20
365.999968000795
 30
0.0
 11
398.566130642187
 21
365.999968000795
 31
0.0
  0
LINE
  5
118
330
A
100
AcDbEntity
  8
0
  6
Continuous
 62
     6
100
AcDbLine
 10
391.563134747387
 20
348.747786366895
 30
0.0
 11
391.505353640687
 21
355.499968000795
 31
0.0
  0
LINE
  5
117
330
A
100
AcDbEntity
  8
0
  6
Continuous
 62
     6
100
AcDbLine
 10
391.563134747387
 20
362.252149634595
 30
0.0
 11
391.505353640687
 21
355.499968000795
 31
0.0
  0
LINE
  5
116
330
A
100
AcDbEntity
  8
0
  6
Continuous
 62
     6
100
AcDbLine
 10
392.485934344987
 20
348.499968000795
 30
0.0
 11
392.485934344987
 21
362.499968000795
 31
0.0
  0
LINE
  5
115
330
A
100
AcDbEntity
  8
0
  6
Continuous
 62
     6
100
AcDbLine
 10
390.771756788687
 20
362.252149634595
 30
0.0
 11
390.713975681987
 21
355.499968000795
 31
0.0
  0
LINE
  5
114
330
A
100
AcDbEntity
  8
0
  6
Continuous
 62
     6
100
AcDbLine
 10
390.771756788687
 20
348.747786366895
 30
0.0
 11
390.713975681987
 21
355.499968000795
 31
0.0
  0
LINE
  5
113
330
A
100
AcDbEntity
  8
0
  6
Continuous
 62
     3
100
AcDbLine
 10
390.366130642287
 20
357.714843274295
 30
0.0
 11
390.729420746487
 21
357.714843274295
 31
0.0
  0
LINE
  5
112
330
A
100
AcDbEntity
  8
0
  6
Continuous
 62
     3
100
AcDbLine
 10
390.726825276587
 20
357.417431880995
 30
0.0
 11
390.366130642287
 21
357.417431880995
 31
0.0
  0
LINE
  5
111
330
A
100
AcDbEntity
  8
0
  6
Continuous
 62
     3
100
AcDbLine
 10
390.366130642287
 20
353.771840755895
 30
0.0
 11
390.725172960787
 21
353.771840755895
 31
0.0
  0
LINE
  5
110
330
A
100
AcDbEntity
  8
FORMAT
  6
PHANTOM
 62
     1
100
AcDbLine
 10
419.3661306422869
 20
346.090917374595
 30
0.0
 11
419.3661306422869
 21
344.590917374595
 31
0.0
  0
LINE
  5
10F
330
A
100
AcDbEntity
  8
FORMAT
  6
PHANTOM
 62
     1
100
AcDbLine
 10
401.866130642287
 20
404.158665664195
 30
0.0
 11
401.866130642287
 21
344.590917374595
 31
0.0
  0
LINE
  5
10E
330
A
100
AcDbEntity
  8
FORMAT
  6
PHANTOM
 62
     1
100
AcDbLine
 10
401.866130642287
 20
344.590917374595
 30
0.0
 11
419.3661306422869
 21
344.590917374595
 31
0.0
  0
LINE
  5
10D
330
A
100
AcDbEntity
  8
FORMAT
  6
PHANTOM
 62
     1
100
AcDbLine
 10
403.3661306422869
 20
403.219549110995
 30
0.0
 11
403.3661306422869
 21
346.090917374595
 31
0.0
  0
LINE
  5
10C
330
A
100
AcDbEntity
  8
FORMAT
  6
DOT_CENTER
 62
     1
100
AcDbLine
 10
427.8661306422869
 20
357.479273631995
 30
0.0
 11
427.8661306422869
 21
339.801180047895
 31
0.0
  0
LINE
  5
10B
330
A
100
AcDbEntity
  8
FORMAT
  6
PHANTOM
 62
     1
100
AcDbLine
 10
403.3661306422869
 20
346.090917374595
 30
0.0
 11
443.2523631358869
 21
346.090917374595
 31
0.0
  0
LINE
  5
10A
330
A
100
AcDbEntity
  8
FORMAT
  6
PHANTOM
 62
     1
100
AcDbLine
 10
387.866130642287
 20
334.590917374595
 30
0.0
 11
443.2523631358869
 21
334.590917374595
 31
0.0
  0
LINE
  5
109
330
A
100
AcDbEntity
  8
FORMAT
  6
PHANTOM
 62
     1
100
AcDbLine
 10
387.866130642287
 20
324.590917374595
 30
0.0
 11
443.2523631358869
 21
324.590917374595
 31
0.0
  0
LINE
  5
108
330
A
100
AcDbEntity
  8
0
  6
Continuous
 62
     3
100
AcDbLine
 10
160.6523626508
 20
382.5999682182949
 30
0.0
 11
79.95236562799999
 21
382.5999682182949
 31
0.0
  0
LINE
  5
107
330
A
100
AcDbEntity
  8
0
  6
Continuous
 62
     3
100
AcDbLine
 10
79.95236562799999
 20
375.399967410695
 30
0.0
 11
80.6023617299
 21
375.399967410695
 31
0.0
  0
LINE
  5
106
330
A
100
AcDbEntity
  8
0
  6
Continuous
 62
     3
100
AcDbLine
 10
87.6023610146
 20
375.399967410695
 30
0.0
 11
152.7023621859
 21
375.399967410695
 31
0.0
  0
LINE
  5
105
330
A
100
AcDbEntity
  8
0
  6
Continuous
 62
     3
100
AcDbLine
 10
159.7023624019
 20
375.399967410695
 30
0.0
 11
160.6523626508
 21
375.399967410695
 31
0.0
  0
LINE
  5
104
330
A
100
AcDbEntity
  8
0
  6
Continuous
 62
     3
100
AcDbLine
 10
165.7023624541
 20
380.699967720595
 30
0.0
 11
164.7523626709
 21
380.699967720595
 31
0.0
  0
LINE
  5
103
330
A
100
AcDbEntity
  8
0
  6
Continuous
 62
     3
100
AcDbLine
 10
164.7523626709
 20
377.299967908395
 30
0.0
 11
165.7023624541
 21
377.299967908395
 31
0.0
  0
LINE
  5
102
330
A
100
AcDbEntity
  8
0
  6
Continuous
 62
     3
100
AcDbLine
 10
164.7023627558
 20
379.749968403095
 30
0.0
 11
160.6523626508
 21
379.749968403095
 31
0.0
  0
LINE
  5
101
330
A
100
AcDbEntity
  8
0
  6
Continuous
 62
     3
100
AcDbLine
 10
160.6523626508
 20
378.249968157195
 30
0.0
 11
164.7023627558
 21
378.249968157195
 31
0.0
  0
LINE
  5
100
330
A
100
AcDbEntity
  8
0
  6
Continuous
 62
     3
100
AcDbLine
 10
165.7023624541
 20
377.428853639495
 30
0.0
 11
165.7023624541
 21
380.571081989495
 31
0.0
  0
LINE
  5
FF
330
A
100
AcDbEntity
  8
0
  6
Continuous
 62
     3
100
AcDbLine
 10
176.9518190087
 20
378.199968242195
 30
0.0
 11
176.8729294674
 21
378.199968242195
 31
0.0
  0
LINE
  5
FE
330
A
100
AcDbEntity
  8
0
  6
Continuous
 62
     3
100
AcDbLine
 10
176.8729294674
 20
379.799968318195
 30
0.0
 11
176.9518190087
 21
379.799968318195
 31
0.0
  0
LINE
  5
FD
330
A
100
AcDbEntity
  8
0
  6
Continuous
 62
     3
100
AcDbLine
 10
177.2224711278
 20
379.970555880195
 30
0.0
 11
177.266372277
 21
380.057485529295
 31
0.0
  0
LINE
  5
FC
330
A
100
AcDbEntity
  8
0
  6
Continuous
 62
     3
100
AcDbLine
 10
177.266372277
 20
377.9424500996949
 30
0.0
 11
177.2224711278
 21
378.029379748795
 31
0.0
  0
LINE
  5
FB
330
A
100
AcDbEntity
  8
0
  6
Continuous
 62
     3
100
AcDbLine
 10
175.3195676975999
 20
376.7249833206951
 30
0.0
 11
175.2769866982
 21
376.668530271495
 31
0.0
  0
LINE
  5
FA
330
A
100
AcDbEntity
  8
0
  6
Continuous
 62
     3
100
AcDbLine
 10
175.2769866982
 20
381.331405357495
 30
0.0
 11
175.3195676975999
 21
381.2749523083951
 31
0.0
  0
LINE
  5
F9
330
A
100
AcDbEntity
  8
0
  6
Continuous
 62
     3
100
AcDbLine
 10
174.7034852417
 20
376.319396064695
 30
0.0
 11
170.8528291458
 21
375.520804652095
 31
0.0
  0
LINE
  5
F8
330
A
100
AcDbEntity
  8
0
  6
Continuous
 62
     3
100
AcDbLine
 10
170.8528291458
 20
382.4791319081951
 30
0.0
 11
174.7034852417
 21
381.680540495595
 31
0.0
  0
LINE
  5
F7
330
A
100
AcDbEntity
  8
0
  6
Continuous
 62
     3
100
AcDbLine
 10
170.6497591478
 20
375.499967240795
 30
0.0
 11
166.0023624101
 21
375.499967240795
 31
0.0
  0
LINE
  5
F6
330
A
100
AcDbEntity
  8
0
  6
Continuous
 62
     3
100
AcDbLine
 10
165.7023624541
 20
375.799968593795
 30
0.0
 11
165.7023624541
 21
377.428853639495
 31
0.0
  0
LINE
  5
F5
330
A
100
AcDbEntity
  8
0
  6
Continuous
 62
     3
100
AcDbLine
 10
166.0023624101
 20
382.4999683881951
 30
0.0
 11
170.6497591478
 21
382.4999683881951
 31
0.0
  0
LINE
  5
F4
330
A
100
AcDbEntity
  8
0
  6
Continuous
 62
     3
100
AcDbLine
 10
165.7023624541
 20
380.571081989495
 30
0.0
 11
165.7023624541
 21
382.199967966495
 31
0.0
  0
LINE
  5
F3
330
A
100
AcDbEntity
  8
0
  6
Continuous
 62
     3
100
AcDbLine
 10
160.6523626508
 20
382.5999682182949
 30
0.0
 11
160.6523626508
 21
375.399967410695
 31
0.0
  0
LINE
  5
F2
330
A
100
AcDbEntity
  8
0
  6
Continuous
 62
     3
100
AcDbLine
 10
79.6523605497
 20
382.299967796595
 30
0.0
 11
79.6523605497
 21
375.699968763695
 31
0.0
  0
LINE
  5
F1
330
A
100
AcDbEntity
  8
0
  6
Continuous
 62
     3
100
AcDbLine
 10
164.7023627558
 20
380.649967805595
 30
0.0
 11
164.7023627558
 21
377.349967823395
 31
0.0
  0
LINE
  5
F0
330
A
100
AcDbEntity
  8
0
  6
Continuous
 62
     3
100
AcDbLine
 10
181.4539748268
 20
376.549968251095
 30
0.0
 11
181.3308232488
 21
376.549968251095
 31
0.0
  0
LINE
  5
EF
330
A
100
AcDbEntity
  8
0
  6
Continuous
 62
     3
100
AcDbLine
 10
177.7523624734
 20
381.668769509595
 30
0.0
 11
177.7523624734
 21
381.899967544795
 31
0.0
  0
LINE
  5
EE
330
A
100
AcDbEntity
  8
0
  6
Continuous
 62
     3
100
AcDbLine
 10
199.9187869044
 20
371.997875847895
 30
0.0
 11
199.4059150131
 21
370.4999682838951
 31
0.0
  0
LINE
  5
ED
330
A
100
AcDbEntity
  8
0
  6
Continuous
 62
     3
100
AcDbLine
 10
176.2523626932
 20
376.149967999295
 30
0.0
 11
176.251111927
 21
376.099968084195
 31
0.0
  0
LINE
  5
EC
330
A
100
AcDbEntity
  8
0
  6
Continuous
 62
     3
100
AcDbLine
 10
176.2523626932
 20
377.699968160195
 30
0.0
 11
176.2523626932
 21
376.149967999295
 31
0.0
  0
LINE
  5
EB
330
A
100
AcDbEntity
  8
0
  6
Continuous
 62
     3
100
AcDbLine
 10
176.9431418763
 20
377.999967650595
 30
0.0
 11
176.5523626493
 21
377.999967650595
 31
0.0
  0
LINE
  5
EA
330
A
100
AcDbEntity
  8
0
  6
Continuous
 62
     3
100
AcDbLine
 10
179.6023630561
 20
370.4999682838951
 30
0.0
 11
179.6023630561
 21
374.099967756395
 31
0.0
  0
LINE
  5
E9
330
A
100
AcDbEntity
  8
0
  6
Continuous
 62
     3
100
AcDbLine
 10
199.5936379792
 20
373.548771941195
 30
0.0
 11
199.0871028067
 21
374.099967756395
 31
0.0
  0
LINE
  5
E8
330
A
100
AcDbEntity
  8
0
  6
Continuous
 62
     3
100
AcDbLine
 10
41.5023629577
 20
370.999967434495
 30
0.0
 11
50.8023639233
 21
370.999967434495
 31
0.0
  0
LINE
  5
E7
330
A
100
AcDbEntity
  8
0
  6
Continuous
 62
     3
100
AcDbLine
 10
267.0023654611
 20
381.499968224295
 30
0.0
 11
267.0023654611
 21
376.599968166195
 31
0.0
  0
LINE
  5
E6
330
A
100
AcDbEntity
  8
0
  6
Continuous
 62
     3
100
AcDbLine
 10
249.8228763254
 20
381.999968306195
 30
0.0
 11
266.5023644479
 21
381.999968306195
 31
0.0
  0
LINE
  5
E5
330
A
100
AcDbEntity
  8
0
  6
Continuous
 62
     3
100
AcDbLine
 10
266.5023644479
 20
376.099968084195
 30
0.0
 11
248.8534738333
 21
376.099968084195
 31
0.0
  0
LINE
  5
E4
330
A
100
AcDbEntity
  8
0
  6
Continuous
 62
     3
100
AcDbLine
 10
268.8177068742
 20
383.999968168395
 30
0.0
 11
268.0326391967
 21
383.999968168395
 31
0.0
  0
LINE
  5
E3
330
A
100
AcDbEntity
  8
0
  6
Continuous
 62
     3
100
AcDbLine
 10
261.60597699
 20
389.499967905795
 30
0.0
 11
269.0023620637
 21
389.499967905795
 31
0.0
  0
LINE
  5
E2
330
A
100
AcDbEntity
  8
0
  6
Continuous
 62
     3
100
AcDbLine
 10
267.7458514483
 20
384.090392139795
 30
0.0
 11
261.3191817911
 21
388.590391946095
 31
0.0
  0
LINE
  5
E1
330
A
100
AcDbEntity
  8
0
  6
Continuous
 62
     3
100
AcDbLine
 10
234.0427179845
 20
381.999968306195
 30
0.0
 11
241.1961098225
 21
381.999968306195
 31
0.0
  0
LINE
  5
E0
330
A
100
AcDbEntity
  8
0
  6
Continuous
 62
     3
100
AcDbLine
 10
238.6768971594
 20
377.644695096695
 30
0.0
 11
233.7559302361
 21
381.090392113695
 31
0.0
  0
LINE
  5
DF
330
A
100
AcDbEntity
  8
0
  6
Continuous
 62
     3
100
AcDbLine
 10
255.2342702658
 20
388.590391946095
 30
0.0
 11
250.2581168921
 21
385.106051561495
 31
0.0
  0
LINE
  5
DE
330
A
100
AcDbEntity
  8
0
  6
Continuous
 62
     3
100
AcDbLine
 10
223.3316068561
 20
389.499967905795
 30
0.0
 11
254.9474825175
 21
389.499967905795
 31
0.0
  0
LINE
  5
DD
330
A
100
AcDbEntity
  8
0
  6
Continuous
 62
     3
100
AcDbLine
 10
229.4714850397
 20
384.090392139795
 30
0.0
 11
223.0448191078
 21
388.590391946095
 31
0.0
  0
LINE
  5
DC
330
A
100
AcDbEntity
  8
0
  6
Continuous
 62
     3
100
AcDbLine
 10
241.4133016975
 20
383.999968168395
 30
0.0
 11
229.7582727881
 21
383.999968168395
 31
0.0
  0
LINE
  5
DB
330
A
100
AcDbEntity
  8
0
  6
Continuous
 62
     3
100
AcDbLine
 10
232.8299869807
 20
368.994943552695
 30
0.0
 11
240.3213818581
 21
370.065141224395
 31
0.0
  0
LINE
  5
DA
330
A
100
AcDbEntity
  8
0
  6
Continuous
 62
     3
100
AcDbLine
 10
266.5023644479
 20
367.999968805395
 30
0.0
 11
232.9007004411
 21
367.999968805395
 31
0.0
  0
LINE
  5
D9
330
A
100
AcDbEntity
  8
0
  6
Continuous
 62
     3
100
AcDbLine
 10
267.0023654611
 20
373.454823845195
 30
0.0
 11
267.0023654611
 21
368.499967956095
 31
0.0
  0
LINE
  5
D8
330
A
100
AcDbEntity
  8
0
  6
Continuous
 62
     3
100
AcDbLine
 10
247.1456368478
 20
373.954824858395
 30
0.0
 11
266.5023644479
 21
373.954824858395
 31
0.0
  0
LINE
  5
D7
330
A
100
AcDbEntity
  8
0
  6
Continuous
 62
     3
100
AcDbLine
 10
229.0991646261
 20
381.909544334795
 30
0.0
 11
234.9133779319
 21
377.838386909195
 31
0.0
  0
LINE
  5
D6
330
A
100
AcDbEntity
  8
0
  6
Continuous
 62
     3
100
AcDbLine
 10
211.1923498125
 20
381.999968306195
 30
0.0
 11
228.8123768778
 21
381.999968306195
 31
0.0
  0
LINE
  5
D5
330
A
100
AcDbEntity
  8
0
  6
Continuous
 62
     3
100
AcDbLine
 10
203.9076340409
 20
377.009544276695
 30
0.0
 11
210.9055620642
 21
381.909544334795
 31
0.0
  0
LINE
  5
D4
330
A
100
AcDbEntity
  8
0
  6
Continuous
 62
     3
100
AcDbLine
 10
228.8246926875
 20
376.099968084195
 30
0.0
 11
204.1944217892
 21
376.099968084195
 31
0.0
  0
LINE
  5
D3
330
A
100
AcDbEntity
  8
0
  6
Continuous
 62
     3
100
AcDbLine
 10
234.697303644
 20
376.933836133295
 30
0.0
 11
228.8954024227
 21
376.104993500795
 31
0.0
  0
LINE
  5
D2
330
A
100
AcDbEntity
  8
0
  6
Continuous
 62
     3
100
AcDbLine
 10
200.5783905299
 20
377.521553763295
 30
0.0
 11
195.4815619649
 21
381.090392113695
 31
0.0
  0
LINE
  5
D1
330
A
100
AcDbEntity
  8
0
  6
Continuous
 62
     3
100
AcDbLine
 10
206.2487964542
 20
381.090392113695
 30
0.0
 11
201.1519678892
 21
377.521553763295
 31
0.0
  0
LINE
  5
D0
330
A
100
AcDbEntity
  8
0
  6
Continuous
 62
     3
100
AcDbLine
 10
195.7683497132
 20
381.999968306195
 30
0.0
 11
205.9620087059
 21
381.999968306195
 31
0.0
  0
LINE
  5
CF
330
A
100
AcDbEntity
  8
0
  6
Continuous
 62
     3
100
AcDbLine
 10
160.2023624839
 20
383.999968168395
 30
0.0
 11
61.50159137560001
 21
383.999968168395
 31
0.0
  0
LINE
  5
CE
330
A
100
AcDbEntity
  8
0
  6
Continuous
 62
     3
100
AcDbLine
 10
160.7023625658
 20
388.999968056695
 30
0.0
 11
160.7023625658
 21
384.499967784695
 31
0.0
  0
LINE
  5
CD
330
A
100
AcDbEntity
  8
0
  6
Continuous
 62
     3
100
AcDbLine
 10
61.3261302026
 20
389.499967905795
 30
0.0
 11
160.2023624839
 21
389.499967905795
 31
0.0
  0
LINE
  5
CC
330
A
100
AcDbEntity
  8
0
  6
Continuous
 62
     3
100
AcDbLine
 10
77.6023631008
 20
373.425576590995
 30
0.0
 11
77.6023631008
 21
368.574360140695
 31
0.0
  0
LINE
  5
CB
330
A
100
AcDbEntity
  8
0
  6
Continuous
 62
     3
100
AcDbLine
 10
64.1023655446
 20
373.999967926295
 30
0.0
 11
77.0279680402
 21
373.999967926295
 31
0.0
  0
LINE
  5
CA
330
A
100
AcDbEntity
  8
0
  6
Continuous
 62
     3
100
AcDbLine
 10
63.6023645313
 20
368.499967956095
 30
0.0
 11
63.6023645313
 21
373.499968775595
 31
0.0
  0
LINE
  5
C9
330
A
100
AcDbEntity
  8
0
  6
Continuous
 62
     3
100
AcDbLine
 10
77.0279680402
 20
367.999968805395
 30
0.0
 11
64.1023655446
 21
367.999968805395
 31
0.0
  0
LINE
  5
C8
330
A
100
AcDbEntity
  8
0
  6
Continuous
 62
     3
100
AcDbLine
 10
210.2464539023
 20
383.999968168395
 30
0.0
 11
191.4839063795
 21
383.999968168395
 31
0.0
  0
LINE
  5
C7
330
A
100
AcDbEntity
  8
0
  6
Continuous
 62
     3
100
AcDbLine
 10
216.9599075825
 20
388.590391946095
 30
0.0
 11
210.5332416506
 21
384.090392139795
 31
0.0
  0
LINE
  5
C6
330
A
100
AcDbEntity
  8
0
  6
Continuous
 62
     3
100
AcDbLine
 10
185.0572404475
 20
389.499967905795
 30
0.0
 11
216.6731198342
 21
389.499967905795
 31
0.0
  0
LINE
  5
C5
330
A
100
AcDbEntity
  8
0
  6
Continuous
 62
     3
100
AcDbLine
 10
191.1971186311
 20
384.090392139795
 30
0.0
 11
184.7704517679
 21
388.590391946095
 31
0.0
  0
LINE
  5
C4
330
A
100
AcDbEntity
  8
0
  6
Continuous
 62
     3
100
AcDbLine
 10
184.6888017864
 20
381.999968306195
 30
0.0
 11
190.5380104692
 21
381.999968306195
 31
0.0
  0
LINE
  5
C3
330
A
100
AcDbEntity
  8
0
  6
Continuous
 62
     3
100
AcDbLine
 10
197.5359347673
 20
376.099968084195
 30
0.0
 11
184.7397171916
 21
376.099968084195
 31
0.0
  0
LINE
  5
C2
330
A
100
AcDbEntity
  8
0
  6
Continuous
 62
     3
100
AcDbLine
 10
190.8247982176
 20
381.909544334795
 30
0.0
 11
197.8227225156
 21
377.009544276695
 31
0.0
  0
LINE
  5
C1
330
A
100
AcDbEntity
  8
0
  6
Continuous
 62
     3
100
AcDbLine
 10
262.8023018153
 20
383.999968168395
 30
0.0
 11
253.7511576922
 21
383.999968168395
 31
0.0
  0
LINE
  5
C0
330
A
100
AcDbEntity
  8
0
  6
Continuous
 62
     3
100
AcDbLine
 10
258.5635175021
 20
388.078382226695
 30
0.0
 11
263.0890895636
 21
384.909543895195
 31
0.0
  0
LINE
  5
BF
330
A
100
AcDbEntity
  8
0
  6
Continuous
 62
     3
100
AcDbLine
 10
253.4643699439
 20
384.909543895195
 30
0.0
 11
257.9899420054
 21
388.078382226695
 31
0.0
  0
LINE
  5
BE
330
A
100
AcDbEntity
  8
0
  6
Continuous
 62
     3
100
AcDbLine
 10
240.0385429175
 20
372.045041748395
 30
0.0
 11
230.6301024766
 21
370.700977497795
 31
0.0
  0
LINE
  5
BD
330
A
100
AcDbEntity
  8
0
  6
Continuous
 62
     3
100
AcDbLine
 10
229.0023629577
 20
374.099967756395
 30
0.0
 11
239.4689534815
 21
375.595194974095
 31
0.0
  0
LINE
  5
BC
330
A
100
AcDbEntity
  8
0
  6
Continuous
 62
     3
100
AcDbLine
 10
176.7023623945
 20
374.099967756395
 30
0.0
 11
229.0023629577
 21
374.099967756395
 31
0.0
  0
LINE
  5
BB
330
A
100
AcDbEntity
  8
0
  6
Continuous
 62
     3
100
AcDbLine
 10
227.8016720922
 20
370.4999682838951
 30
0.0
 11
176.7023623945
 21
370.4999682838951
 31
0.0
  0
LINE
  5
BA
330
A
100
AcDbEntity
  8
0
  6
Continuous
 62
     3
100
AcDbLine
 10
171.7023626226
 20
375.199967750395
 30
0.0
 11
162.702362428
 21
375.199967750395
 31
0.0
  0
LINE
  5
B9
330
A
100
AcDbEntity
  8
0
  6
Continuous
 62
     3
100
AcDbLine
 10
175.7023626962
 20
376.099968084195
 30
0.0
 11
171.7023626226
 21
375.199967750395
 31
0.0
  0
LINE
  5
B8
330
A
100
AcDbEntity
  8
0
  6
Continuous
 62
     3
100
AcDbLine
 10
179.9023625465
 20
376.099968084195
 30
0.0
 11
175.7023626962
 21
376.099968084195
 31
0.0
  0
LINE
  5
B7
330
A
100
AcDbEntity
  8
0
  6
Continuous
 62
     3
100
AcDbLine
 10
175.7023626962
 20
381.899967544795
 30
0.0
 11
179.9023625465
 21
381.899967544795
 31
0.0
  0
LINE
  5
B6
330
A
100
AcDbEntity
  8
0
  6
Continuous
 62
     3
100
AcDbLine
 10
171.7023626226
 20
382.799967878595
 30
0.0
 11
175.7023626962
 21
381.899967544795
 31
0.0
  0
LINE
  5
B5
330
A
100
AcDbEntity
  8
0
  6
Continuous
 62
     3
100
AcDbLine
 10
162.702362428
 20
382.799967878595
 30
0.0
 11
171.7023626226
 21
382.799967878595
 31
0.0
  0
LINE
  5
B4
330
A
100
AcDbEntity
  8
0
  6
Continuous
 62
     3
100
AcDbLine
 10
162.702362428
 20
380.599967890495
 30
0.0
 11
162.702362428
 21
382.799967878595
 31
0.0
  0
LINE
  5
B3
330
A
100
AcDbEntity
  8
0
  6
Continuous
 62
     3
100
AcDbLine
 10
160.7023625658
 20
382.649968133395
 30
0.0
 11
160.7023625658
 21
380.599967890495
 31
0.0
  0
LINE
  5
B2
330
A
100
AcDbEntity
  8
0
  6
Continuous
 62
     3
100
AcDbLine
 10
79.6023597033
 20
382.649968133395
 30
0.0
 11
160.7023625658
 21
382.649968133395
 31
0.0
  0
LINE
  5
B1
330
A
100
AcDbEntity
  8
0
  6
Continuous
 62
     3
100
AcDbLine
 10
79.6023597033
 20
367.999968805395
 30
0.0
 11
79.6023597033
 21
382.649968133395
 31
0.0
  0
LINE
  5
B0
330
A
100
AcDbEntity
  8
0
  6
Continuous
 62
     3
100
AcDbLine
 10
160.7023625658
 20
367.999968805395
 30
0.0
 11
79.6023597033
 21
367.999968805395
 31
0.0
  0
LINE
  5
AF
330
A
100
AcDbEntity
  8
0
  6
Continuous
 62
     3
100
AcDbLine
 10
160.7023625658
 20
377.399967738495
 30
0.0
 11
160.7023625658
 21
367.999968805395
 31
0.0
  0
LINE
  5
AE
330
A
100
AcDbEntity
  8
0
  6
Continuous
 62
     3
100
AcDbLine
 10
162.702362428
 20
375.199967750395
 30
0.0
 11
162.702362428
 21
377.399967738495
 31
0.0
  0
LINE
  5
AD
330
A
100
AcDbEntity
  8
0
  6
Continuous
 62
     3
100
AcDbLine
 10
77.1023620875
 20
376.899967656595
 30
0.0
 11
63.8015930565
 21
376.899967656595
 31
0.0
  0
LINE
  5
AC
330
A
100
AcDbEntity
  8
0
  6
Continuous
 62
     3
100
AcDbLine
 10
77.6023631008
 20
380.599967890495
 30
0.0
 11
77.6023631008
 21
377.399967738495
 31
0.0
  0
LINE
  5
AB
330
A
100
AcDbEntity
  8
0
  6
Continuous
 62
     3
100
AcDbLine
 10
63.0155046494
 20
381.0999679724949
 30
0.0
 11
77.1023620875
 21
381.0999679724949
 31
0.0
  0
LINE
  5
AA
330
A
100
AcDbEntity
  8
0
  6
Continuous
 62
     3
100
AcDbLine
 10
186.2535652728
 20
383.999968168395
 30
0.0
 11
163.20236251
 21
383.999968168395
 31
0.0
  0
LINE
  5
A9
330
A
100
AcDbEntity
  8
0
  6
Continuous
 62
     3
100
AcDbLine
 10
180.1136880205
 20
389.409543934395
 30
0.0
 11
186.5403548838
 21
384.909543895195
 31
0.0
  0
LINE
  5
A8
330
A
100
AcDbEntity
  8
0
  6
Continuous
 62
     3
100
AcDbLine
 10
163.20236251
 20
389.499967905795
 30
0.0
 11
179.8269002722
 21
389.499967905795
 31
0.0
  0
LINE
  5
A7
330
A
100
AcDbEntity
  8
0
  6
Continuous
 62
     3
100
AcDbLine
 10
162.702362428
 20
384.499967784695
 30
0.0
 11
162.702362428
 21
388.999968056695
 31
0.0
  0
LINE
  5
A6
330
A
100
AcDbEntity
  8
0
  6
Continuous
 62
     3
100
AcDbLine
 10
220.2891510935
 20
388.078382226695
 30
0.0
 11
224.8147194298
 21
384.909543895195
 31
0.0
  0
LINE
  5
A5
330
A
100
AcDbEntity
  8
0
  6
Continuous
 62
     3
100
AcDbLine
 10
215.1900035353
 20
384.909543895195
 30
0.0
 11
219.7155755968
 21
388.078382226695
 31
0.0
  0
LINE
  5
A4
330
A
100
AcDbEntity
  8
0
  6
Continuous
 62
     3
100
AcDbLine
 10
224.5279316814
 20
383.999968168395
 30
0.0
 11
215.4767912836
 21
383.999968168395
 31
0.0
  0
LINE
  5
A3
330
A
100
AcDbEntity
  8
0
  6
Continuous
 62
     3
100
AcDbLine
 10
163.20236251
 20
374.099967756395
 30
0.0
 11
172.3035822181
 21
374.099967756395
 31
0.0
  0
LINE
  5
A2
330
A
100
AcDbEntity
  8
0
  6
Continuous
 62
     3
100
AcDbLine
 10
162.702362428
 20
368.499967956095
 30
0.0
 11
162.702362428
 21
373.599968605795
 31
0.0
  0
LINE
  5
A1
330
A
100
AcDbEntity
  8
0
  6
Continuous
 62
     3
100
AcDbLine
 10
174.5658711554
 20
367.999968805395
 30
0.0
 11
163.20236251
 21
367.999968805395
 31
0.0
  0
LINE
  5
A0
330
A
100
AcDbEntity
  8
0
  6
Continuous
 62
     3
100
AcDbLine
 10
55.802359155
 20
365.999968477595
 30
0.0
 11
274.2023606808
 21
365.999968477595
 31
0.0
  0
LINE
  5
9F
330
A
100
AcDbEntity
  8
0
  6
Continuous
 62
     3
100
AcDbLine
 10
284.0023626597
 20
391.499968000795
 30
0.0
 11
46.00236462669999
 21
391.499968000795
 31
0.0
  0
LINE
  5
9E
330
A
100
AcDbEntity
  8
0
  6
Continuous
 62
     3
100
AcDbLine
 10
289.0023653419
 20
386.499968112495
 30
0.0
 11
289.0023653419
 21
371.499968447795
 31
0.0
  0
LINE
  5
9D
330
A
100
AcDbEntity
  8
0
  6
Continuous
 62
     3
100
AcDbLine
 10
41.002369395
 20
371.499968447795
 30
0.0
 11
41.002369395
 21
386.499968112495
 31
0.0
  0
LINE
  5
9C
330
A
100
AcDbEntity
  8
0
  6
Continuous
 62
     3
100
AcDbLine
 10
268.7023644359
 20
377.499967568595
 30
0.0
 11
268.7023644359
 21
371.499968447795
 31
0.0
  0
LINE
  5
9B
330
A
100
AcDbEntity
  8
0
  6
Continuous
 62
     3
100
AcDbLine
 10
276.7023657472
 20
371.499968447795
 30
0.0
 11
276.7023657472
 21
377.499967568595
 31
0.0
  0
LINE
  5
9A
330
A
100
AcDbEntity
  8
0
  6
Continuous
 62
     3
100
AcDbLine
 10
61.3023628504
 20
371.499968447795
 30
0.0
 11
61.3023628504
 21
377.499967568595
 31
0.0
  0
LINE
  5
99
330
A
100
AcDbEntity
  8
0
  6
Continuous
 62
     3
100
AcDbLine
 10
53.3023615391
 20
377.499967568595
 30
0.0
 11
53.3023615391
 21
371.499968447795
 31
0.0
  0
LINE
  5
98
330
A
100
AcDbEntity
  8
0
  6
Continuous
 62
     3
100
AcDbLine
 10
288.5023643286
 20
370.999967434495
 30
0.0
 11
279.202363363
 21
370.999967434495
 31
0.0
  0
LINE
  5
97
330
A
100
AcDbEntity
  8
0
  6
Continuous
 62
     3
100
AcDbLine
 10
162.702362428
 20
377.699968160195
 30
0.0
 11
160.7023625658
 21
377.699968160195
 31
0.0
  0
LINE
  5
96
330
A
100
AcDbEntity
  8
0
  6
Continuous
 62
     3
100
AcDbLine
 10
160.7023625658
 20
377.399967738495
 30
0.0
 11
160.7023625658
 21
377.699968160195
 31
0.0
  0
LINE
  5
95
330
A
100
AcDbEntity
  8
0
  6
Continuous
 62
     3
100
AcDbLine
 10
162.702362428
 20
377.699968160195
 30
0.0
 11
162.702362428
 21
377.399967738495
 31
0.0
  0
LINE
  5
94
330
A
100
AcDbEntity
  8
0
  6
Continuous
 62
     3
100
AcDbLine
 10
160.7023625658
 20
380.299968400095
 30
0.0
 11
162.702362428
 21
380.299968400095
 31
0.0
  0
LINE
  5
93
330
A
100
AcDbEntity
  8
0
  6
Continuous
 62
     3
100
AcDbLine
 10
160.7023625658
 20
380.299968400095
 30
0.0
 11
160.7023625658
 21
380.599967890495
 31
0.0
  0
LINE
  5
92
330
A
100
AcDbEntity
  8
0
  6
Continuous
 62
     3
100
AcDbLine
 10
162.702362428
 20
380.299968400095
 30
0.0
 11
162.702362428
 21
380.599967890495
 31
0.0
  0
LINE
  5
91
330
A
100
AcDbEntity
  8
0
  6
Continuous
 62
     3
100
AcDbLine
 10
79.6023597033
 20
375.349968426895
 30
0.0
 11
80.6023617299
 21
375.349968426895
 31
0.0
  0
LINE
  5
90
330
A
100
AcDbEntity
  8
0
  6
Continuous
 62
     3
100
AcDbLine
 10
159.7023624019
 20
375.349968426895
 30
0.0
 11
160.7023625658
 21
375.349968426895
 31
0.0
  0
LINE
  5
8F
330
A
100
AcDbEntity
  8
0
  6
Continuous
 62
     3
100
AcDbLine
 10
152.7023621859
 20
375.349968426895
 30
0.0
 11
149.7023616941
 21
375.349968426895
 31
0.0
  0
LINE
  5
8E
330
A
100
AcDbEntity
  8
0
  6
Continuous
 62
     3
100
AcDbLine
 10
149.7023616941
 20
367.999968805395
 30
0.0
 11
149.7023616941
 21
375.349968426895
 31
0.0
  0
LINE
  5
8D
330
A
100
AcDbEntity
  8
0
  6
Continuous
 62
     3
100
AcDbLine
 10
80.6023617299
 20
376.2499678293949
 30
0.0
 11
80.6023617299
 21
375.0499670738951
 31
0.0
  0
LINE
  5
8C
330
A
100
AcDbEntity
  8
0
  6
Continuous
 62
     3
100
AcDbLine
 10
80.6023617299
 20
376.2499678293949
 30
0.0
 11
87.6023610146
 21
376.2499678293949
 31
0.0
  0
LINE
  5
8B
330
A
100
AcDbEntity
  8
0
  6
Continuous
 62
     3
100
AcDbLine
 10
87.6023610146
 20
376.2499678293949
 30
0.0
 11
87.6023610146
 21
367.999968805395
 31
0.0
  0
LINE
  5
8A
330
A
100
AcDbEntity
  8
0
  6
Continuous
 62
     3
100
AcDbLine
 10
152.7023621859
 20
375.949968338995
 30
0.0
 11
159.7023624019
 21
375.949968338995
 31
0.0
  0
LINE
  5
89
330
A
100
AcDbEntity
  8
0
  6
Continuous
 62
     3
100
AcDbLine
 10
159.7023624019
 20
375.449968257095
 30
0.0
 11
159.7023624019
 21
375.949968338995
 31
0.0
  0
LINE
  5
88
330
A
100
AcDbEntity
  8
0
  6
Continuous
 62
     3
100
AcDbLine
 10
152.7023621859
 20
375.449968257095
 30
0.0
 11
152.7023621859
 21
375.949968338995
 31
0.0
  0
LINE
  5
87
330
A
100
AcDbEntity
  8
0
  6
Continuous
 62
     3
100
AcDbLine
 10
274.7023616941
 20
377.499967568595
 30
0.0
 11
274.7023616941
 21
371.499968447795
 31
0.0
  0
LINE
  5
86
330
A
100
AcDbEntity
  8
0
  6
Continuous
 62
     3
100
AcDbLine
 10
270.7023610385
 20
371.499968447795
 30
0.0
 11
270.7023610385
 21
377.499967568595
 31
0.0
  0
LINE
  5
85
330
A
100
AcDbEntity
  8
0
  6
Continuous
 62
     3
100
AcDbLine
 10
59.3023662479
 20
371.499968447795
 30
0.0
 11
59.3023662479
 21
377.499967568595
 31
0.0
  0
LINE
  5
84
330
A
100
AcDbEntity
  8
0
  6
Continuous
 62
     3
100
AcDbLine
 10
55.30236559229999
 20
377.499967568595
 30
0.0
 11
55.30236559229999
 21
371.499968447795
 31
0.0
  0
LINE
  5
83
330
A
100
AcDbEntity
  8
0
  6
Continuous
 62
     3
100
AcDbLine
 10
79.6023597033
 20
376.165801414395
 30
0.0
 11
79.6523605497
 21
376.165801414395
 31
0.0
  0
LINE
  5
82
330
A
100
AcDbEntity
  8
0
  6
Continuous
 62
     3
100
AcDbLine
 10
160.7023625658
 20
376.899967656595
 30
0.0
 11
160.6523626508
 21
376.899967656595
 31
0.0
  0
LINE
  5
81
330
A
100
AcDbEntity
  8
0
  6
Continuous
 62
     3
100
AcDbLine
 10
79.6523605497
 20
376.899967656595
 30
0.0
 11
79.6023597033
 21
376.899967656595
 31
0.0
  0
LINE
  5
80
330
A
100
AcDbEntity
  8
0
  6
Continuous
 62
     3
100
AcDbLine
 10
160.6523626508
 20
376.165801414395
 30
0.0
 11
160.7023625658
 21
376.165801414395
 31
0.0
  0
LINE
  5
7F
330
A
100
AcDbEntity
  8
0
  6
Continuous
 62
     3
100
AcDbLine
 10
151.7023620219
 20
375.349968426895
 30
0.0
 11
151.7023620219
 21
375.399967410695
 31
0.0
  0
LINE
  5
7E
330
A
100
AcDbEntity
  8
0
  6
Continuous
 62
     3
100
AcDbLine
 10
160.7023625658
 20
380.299968400095
 30
0.0
 11
160.7023625658
 21
379.749968403095
 31
0.0
  0
LINE
  5
7D
330
A
100
AcDbEntity
  8
0
  6
Continuous
 62
     3
100
AcDbLine
 10
160.7023625658
 20
378.249968157195
 30
0.0
 11
160.7023625658
 21
377.699968160195
 31
0.0
  0
LINE
  5
7C
330
A
100
AcDbEntity
  8
0
  6
Continuous
 62
     3
100
AcDbLine
 10
162.702362428
 20
377.699968160195
 30
0.0
 11
162.702362428
 21
378.249968157195
 31
0.0
  0
LINE
  5
7B
330
A
100
AcDbEntity
  8
0
  6
Continuous
 62
     3
100
AcDbLine
 10
162.702362428
 20
379.749968403095
 30
0.0
 11
162.702362428
 21
380.299968400095
 31
0.0
  0
LINE
  5
7A
330
A
100
AcDbEntity
  8
0
  6
Continuous
 62
     3
100
AcDbLine
 10
79.6023597033
 20
381.0999679724949
 30
0.0
 11
79.6523605497
 21
381.0999679724949
 31
0.0
  0
LINE
  5
79
330
A
100
AcDbEntity
  8
0
  6
Continuous
 62
     3
100
AcDbLine
 10
159.7023624019
 20
382.5999682182949
 30
0.0
 11
159.7023624019
 21
382.649968133395
 31
0.0
  0
LINE
  5
78
330
A
100
AcDbEntity
  8
0
  6
Continuous
 62
     3
100
AcDbLine
 10
160.7023625658
 20
381.834134214595
 30
0.0
 11
160.6523626508
 21
381.834134214595
 31
0.0
  0
LINE
  5
77
330
A
100
AcDbEntity
  8
0
  6
Continuous
 62
     3
100
AcDbLine
 10
87.6023610146
 20
382.5999682182949
 30
0.0
 11
87.6023610146
 21
382.649968133395
 31
0.0
  0
LINE
  5
76
330
A
100
AcDbEntity
  8
0
  6
Continuous
 62
     3
100
AcDbLine
 10
149.7023616941
 20
382.649968133395
 30
0.0
 11
149.7023616941
 21
382.5999682182949
 31
0.0
  0
LINE
  5
75
330
A
100
AcDbEntity
  8
0
  6
Continuous
 62
     3
100
AcDbLine
 10
80.6023617299
 20
382.649968133395
 30
0.0
 11
80.6023617299
 21
382.5999682182949
 31
0.0
  0
LINE
  5
74
330
A
100
AcDbEntity
  8
0
  6
Continuous
 62
     3
100
AcDbLine
 10
160.6523626508
 20
381.0999679724949
 30
0.0
 11
160.7023625658
 21
381.0999679724949
 31
0.0
  0
LINE
  5
73
330
A
100
AcDbEntity
  8
0
  6
Continuous
 62
     3
100
AcDbLine
 10
160.7023625658
 20
380.599967890495
 30
0.0
 11
162.702362428
 21
380.599967890495
 31
0.0
  0
LINE
  5
72
330
A
100
AcDbEntity
  8
0
  6
Continuous
 62
     3
100
AcDbLine
 10
162.702362428
 20
377.399967738495
 30
0.0
 11
160.7023625658
 21
377.399967738495
 31
0.0
  0
LINE
  5
71
330
A
100
AcDbEntity
  8
0
  6
Continuous
 62
     3
100
AcDbLine
 10
80.6023617299
 20
375.0499670738951
 30
0.0
 11
79.6023597033
 21
375.0499670738951
 31
0.0
  0
LINE
  5
70
330
A
100
AcDbEntity
  8
0
  6
Continuous
 62
     3
100
AcDbLine
 10
79.90236478159999
 20
382.595771678795
 30
0.0
 11
79.90236478159999
 21
382.649968133395
 31
0.0
  0
LINE
  5
6F
330
A
100
AcDbEntity
  8
0
  6
Continuous
 62
     3
100
AcDbLine
 10
160.0023628236
 20
382.5999682182949
 30
0.0
 11
160.0023628236
 21
382.649968133395
 31
0.0
  0
LINE
  5
6E
330
A
100
AcDbEntity
  8
0
  6
Continuous
 62
     3
100
AcDbLine
 10
80.30236410209999
 20
382.649968133395
 30
0.0
 11
80.30236410209999
 21
382.5999682182949
 31
0.0
  0
LINE
  5
6D
330
A
100
AcDbEntity
  8
0
  6
Continuous
 62
     3
100
AcDbLine
 10
80.9023593576
 20
382.649968133395
 30
0.0
 11
80.9023593576
 21
382.5999682182949
 31
0.0
  0
LINE
  5
6C
330
A
100
AcDbEntity
  8
0
  6
Continuous
 62
     3
100
AcDbLine
 10
176.053777712
 20
377.773544506295
 30
0.0
 11
175.9243550734
 21
377.588709571495
 31
0.0
  0
LINE
  5
6B
330
A
100
AcDbEntity
  8
0
  6
Continuous
 62
     3
100
AcDbLine
 10
175.9243550734
 20
377.588709571495
 30
0.0
 11
175.8033497283
 21
377.4158961484951
 31
0.0
  0
LINE
  5
6A
330
A
100
AcDbEntity
  8
0
  6
Continuous
 62
     3
100
AcDbLine
 10
175.8033497283
 20
377.4158961484951
 30
0.0
 11
175.6919360743
 21
377.256780617995
 31
0.0
  0
LINE
  5
69
330
A
100
AcDbEntity
  8
0
  6
Continuous
 62
     3
100
AcDbLine
 10
175.6919360743
 20
380.743155011095
 30
0.0
 11
175.8033497283
 21
380.584039480495
 31
0.0
  0
LINE
  5
68
330
A
100
AcDbEntity
  8
0
  6
Continuous
 62
     3
100
AcDbLine
 10
175.8033497283
 20
380.584039480495
 30
0.0
 11
175.9243550734
 21
380.4112260574949
 31
0.0
  0
LINE
  5
67
330
A
100
AcDbEntity
  8
0
  6
Continuous
 62
     3
100
AcDbLine
 10
175.9243550734
 20
380.4112260574949
 30
0.0
 11
176.053777712
 21
380.226391122795
 31
0.0
  0
LINE
  5
66
330
A
100
AcDbEntity
  8
0
  6
Continuous
 62
     3
100
AcDbLine
 10
175.6919360743
 20
377.256780617995
 30
0.0
 11
175.61229449
 21
377.143040985895
 31
0.0
  0
LINE
  5
65
330
A
100
AcDbEntity
  8
0
  6
Continuous
 62
     3
100
AcDbLine
 10
175.61229449
 20
377.143040985895
 30
0.0
 11
175.5215417617
 21
377.013432548495
 31
0.0
  0
LINE
  5
64
330
A
100
AcDbEntity
  8
0
  6
Continuous
 62
     3
100
AcDbLine
 10
175.5215417617
 20
377.013432548495
 30
0.0
 11
175.4228248285
 21
376.872450799795
 31
0.0
  0
LINE
  5
63
330
A
100
AcDbEntity
  8
0
  6
Continuous
 62
     3
100
AcDbLine
 10
175.4228248285
 20
376.872450799795
 30
0.0
 11
175.3195676975999
 21
376.7249833206951
 31
0.0
  0
LINE
  5
62
330
A
100
AcDbEntity
  8
0
  6
Continuous
 62
     3
100
AcDbLine
 10
175.3195676975999
 20
381.2749523083951
 30
0.0
 11
175.4228248285
 21
381.127485760595
 31
0.0
  0
LINE
  5
61
330
A
100
AcDbEntity
  8
0
  6
Continuous
 62
     3
100
AcDbLine
 10
175.4228248285
 20
381.127485760595
 30
0.0
 11
175.5215417617
 21
380.986503080495
 31
0.0
  0
LINE
  5
60
330
A
100
AcDbEntity
  8
0
  6
Continuous
 62
     3
100
AcDbLine
 10
175.5215417617
 20
380.986503080495
 30
0.0
 11
175.61229449
 21
380.856894643095
 31
0.0
  0
LINE
  5
5F
330
A
100
AcDbEntity
  8
0
  6
Continuous
 62
     3
100
AcDbLine
 10
175.61229449
 20
380.856894643095
 30
0.0
 11
175.6919360743
 21
380.743155011095
 31
0.0
  0
LINE
  5
5E
330
A
100
AcDbEntity
  8
0
  6
Continuous
 62
     3
100
AcDbLine
 10
149.7023635568
 20
375.399967410695
 30
0.0
 11
149.7023635568
 21
375.363213696595
 31
0.0
  0
LINE
  5
5D
330
A
100
AcDbEntity
  8
0
  6
Continuous
 62
     3
100
AcDbLine
 10
149.7023635568
 20
375.363213696595
 30
0.0
 11
149.7023616941
 21
375.349968426895
 31
0.0
  0
LINE
  5
5C
330
A
100
AcDbEntity
  8
0
  6
Continuous
 62
     3
100
AcDbLine
 10
269.293448797
 20
384.6538143577951
 30
0.0
 11
269.2843069346
 21
384.650857874295
 31
0.0
  0
LINE
  5
5B
330
A
100
AcDbEntity
  8
0
  6
Continuous
 62
     3
100
AcDbLine
 10
267.7458514483
 20
384.090392139795
 30
0.0
 11
267.751364878
 21
384.098261815595
 31
0.0
  0
LINE
  5
5A
330
A
100
AcDbEntity
  8
1
  6
DOT_CENTER
 62
     1
100
AcDbLine
 10
275.0023626001
 20
393.413806196378
 30
0.0
 11
275.0023626001
 21
379.731679509813
 31
0.0
  0
LINE
  5
59
330
A
100
AcDbEntity
  8
1
  6
DOT_CENTER
 62
     1
100
AcDbLine
 10
267.668193288705
 20
386.499968000795
 30
0.0
 11
280.643731273147
 21
386.499968000795
 31
0.0
  0
LINE
  5
58
330
A
100
AcDbEntity
  8
1
  6
DOT_CENTER
 62
     1
100
AcDbLine
 10
283.0023626001
 20
388.917332637413
 30
0.0
 11
283.0023626001
 21
375.363676623962
 31
0.0
  0
LINE
  5
57
330
A
100
AcDbEntity
  8
1
  6
DOT_CENTER
 62
     1
100
AcDbLine
 10
277.367729108758
 20
382.499968000795
 30
0.0
 11
290.150561083529
 21
382.499968000795
 31
0.0
  0
LINE
  5
56
330
A
100
AcDbEntity
  8
1
  6
DOT_CENTER
 62
     1
100
AcDbLine
 10
266.062309874789
 20
377.499968000795
 30
0.0
 11
279.359024542014
 21
377.499968000795
 31
0.0
  0
LINE
  5
55
330
A
100
AcDbEntity
  8
1
  6
DOT_CENTER
 62
     1
100
AcDbLine
 10
265.869603865119
 20
371.499968000795
 30
0.0
 11
279.037847859231
 21
371.499968000795
 31
0.0
  0
LINE
  5
54
330
A
100
AcDbEntity
  8
1
  6
DOT_CENTER
 62
     1
100
AcDbLine
 10
39.768166414353
 20
382.499968000795
 30
0.0
 11
53.056847763324
 21
382.499968000795
 31
0.0
  0
LINE
  5
53
330
A
100
AcDbEntity
  8
1
  6
DOT_CENTER
 62
     1
100
AcDbLine
 10
49.276956179617
 20
386.499968000795
 30
0.0
 11
60.675691736734
 21
386.499968000795
 31
0.0
  0
LINE
  5
52
330
A
100
AcDbEntity
  8
1
  6
DOT_CENTER
 62
     1
100
AcDbLine
 10
51.58032761343799
 20
377.499968000795
 30
0.0
 11
62.565637528588
 21
377.499968000795
 31
0.0
  0
LINE
  5
51
330
A
100
AcDbEntity
  8
1
  6
DOT_CENTER
 62
     1
100
AcDbLine
 10
51.757510031425
 20
371.499968000795
 30
0.0
 11
62.86094155856499
 21
371.499968000795
 31
0.0
  0
LINE
  5
50
330
A
100
AcDbEntity
  8
1
  6
DOT_CENTER
 62
     1
100
AcDbLine
 10
55.0023626001
 20
392.452654309842
 30
0.0
 11
55.0023626001
 21
379.813641826821
 31
0.0
  0
LINE
  5
4F
330
A
100
AcDbEntity
  8
1
  6
DOT_CENTER
 62
     1
100
AcDbLine
 10
47.0023626001
 20
388.377458696158
 30
0.0
 11
47.0023626001
 21
376.033750243114
 31
0.0
  0
LINE
  5
4E
330
A
100
AcDbEntity
  8
FORMAT
  6
PHANTOM
 62
     1
100
AcDbLine
 10
329.0023626002
 20
346.099968000795
 30
0.0
 11
329.0023626002
 21
331.099968000795
 31
0.0
  0
LINE
  5
4D
330
A
100
AcDbEntity
  8
1
  6
DOT_CENTER
 62
     1
100
AcDbLine
 10
164.609988966931
 20
249.754264913295
 30
0.0
 11
230.218774041372
 21
249.754264913295
 31
0.0
  0
LINE
  5
4C
330
A
100
AcDbEntity
  8
1
  6
DOT_CENTER
 62
     1
100
AcDbLine
 10
197.0023626007
 20
292.93266421494
 30
0.0
 11
197.0023626007
 21
238.37266421494
 31
0.0
  0
LINE
  5
4B
330
A
100
AcDbEntity
  8
FORMAT
  6
PHANTOM
 62
     1
100
AcDbLine
 10
371.866130642287
 20
403.219549110995
 30
0.0
 11
371.866130642287
 21
324.382924967295
 31
0.0
  0
LINE
  5
4A
330
A
100
AcDbEntity
  8
0
  6
Continuous
 62
     3
100
AcDbLine
 10
387.866130642287
 20
386.499968000795
 30
0.0
 11
398.866130642287
 21
386.499968000795
 31
0.0
  0
LINE
  5
49
330
A
100
AcDbEntity
  8
FORMAT
  6
PHANTOM
 62
     1
100
AcDbLine
 10
387.866130642287
 20
403.219549110995
 30
0.0
 11
387.866130642287
 21
391.199968000672
 31
0.0
  0
LINE
  5
48
330
A
100
AcDbEntity
  8
1
  6
Continuous
 62
     3
100
AcDbLine
 10
398.866130642287
 20
391.199968000672
 30
0.0
 11
398.866130642287
 21
366.299968000741
 31
0.0
  0
LINE
  5
47
330
A
100
AcDbEntity
  8
FORMAT
  6
PHANTOM
 62
     1
100
AcDbLine
 10
387.866130642287
 20
366.299968000741
 30
0.0
 11
387.866130642287
 21
324.382924967295
 31
0.0
  0
LINE
  5
46
330
A
100
AcDbEntity
  8
FORMAT
  6
Continuous
 62
     3
100
AcDbLine
 10
387.866130642287
 20
391.199968000672
 30
0.0
 11
387.866130642287
 21
366.299968000741
 31
0.0
  0
LINE
  5
45
330
A
100
AcDbEntity
  8
0
  6
Continuous
 62
     6
100
AcDbLine
 10
207.2023627373
 20
286.102604700695
 30
0.0
 11
207.2023627373
 21
286.758643456295
 31
0.0
  0
LINE
  5
44
330
A
100
AcDbEntity
  8
0
  6
Continuous
 62
     6
100
AcDbLine
 10
186.8023620012
 20
286.002604754195
 30
0.0
 11
186.8023620012
 21
284.502604726595
 31
0.0
  0
LINE
  5
43
330
A
100
AcDbEntity
  8
0
  6
Continuous
 62
     6
100
AcDbLine
 10
192.0023610813
 20
285.736758026695
 30
0.0
 11
192.0023610813
 21
285.502604788595
 31
0.0
  0
LINE
  5
42
330
A
100
AcDbEntity
  8
0
  6
Continuous
 62
     6
100
AcDbLine
 10
192.0023610813
 20
285.502604788595
 30
0.0
 11
189.8970765991
 21
281.292036522595
 31
0.0
  0
LINE
  5
41
330
A
100
AcDbEntity
  8
0
  6
Continuous
 62
     6
100
AcDbLine
 10
169.3023626251
 20
269.474204976595
 30
0.0
 11
224.7023609491
 21
269.474204976595
 31
0.0
  0
LINE
  5
40
330
A
100
AcDbEntity
  8
0
  6
Continuous
 62
     6
100
AcDbLine
 10
169.0023625527
 20
270.530579027195
 30
0.0
 11
169.0023625527
 21
271.513221200995
 31
0.0
  0
LINE
  5
3F
330
A
100
AcDbEntity
  8
1
  6
DOT_CENTER
 62
     1
100
AcDbLine
 10
215.0023625257
 20
258.780285151924
 30
0.0
 11
215.0023625257
 21
240.220285151924
 31
0.0
  0
LINE
  5
3E
330
A
100
AcDbEntity
  8
1
  6
DOT_CENTER
 62
     1
100
AcDbLine
 10
179.00236267845
 20
258.561884337911
 30
0.0
 11
179.00236267845
 21
241.201884337911
 31
0.0
  0
POINT
  5
3D
330
A
100
AcDbEntity
  8
0
 62
     6
100
AcDbPoint
 10
225.0023626007
 20
348.945941625595
 30
0.0
  0
POINT
  5
3C
330
A
100
AcDbEntity
  8
0
 62
     6
100
AcDbPoint
 10
179.0023626007
 20
247.454615214495
 30
0.0
  0
POINT
  5
3B
330
A
100
AcDbEntity
  8
0
 62
     6
100
AcDbPoint
 10
215.0023626007
 20
247.454615214495
 30
0.0
  0
POINT
  5
3A
330
A
100
AcDbEntity
  8
0
 62
     6
100
AcDbPoint
 10
197.0023626007
 20
249.754264913295
 30
0.0
  0
POINT
  5
39
330
A
100
AcDbEntity
  8
0
 62
     3
100
AcDbPoint
 10
274.2023626516
 20
289.802604731595
 30
0.0
  0
POINT
  5
38
330
A
100
AcDbEntity
  8
0
 62
     6
100
AcDbPoint
 10
169.0023626007
 20
257.041608344195
 30
0.0
  0
POINT
  5
37
330
A
100
AcDbEntity
  8
0
 62
     6
100
AcDbPoint
 10
225.0023626007
 20
257.041608344195
 30
0.0
  0
POINT
  5
36
330
A
100
AcDbEntity
  8
0
 62
     7
100
AcDbPoint
 10
401.866130642287
 20
404.158665664195
 30
0.0
  0
POINT
  5
35
330
A
100
AcDbEntity
  8
0
 62
     7
100
AcDbPoint
 10
403.3661306422869
 20
403.219549110995
 30
0.0
  0
POINT
  5
34
330
A
100
AcDbEntity
  8
0
 62
     7
100
AcDbPoint
 10
387.866130642287
 20
403.219549110995
 30
0.0
  0
POINT
  5
33
330
A
100
AcDbEntity
  8
0
 62
     7
100
AcDbPoint
 10
403.3661306422869
 20
403.219549110995
 30
0.0
  0
POINT
  5
32
330
A
100
AcDbEntity
  8
0
 62
     7
100
AcDbPoint
 10
403.3661306422869
 20
346.090917374595
 30
0.0
  0
POINT
  5
31
330
A
100
AcDbEntity
  8
0
 62
     6
100
AcDbPoint
 10
392.485934344987
 20
362.499968000795
 30
0.0
  0
POINT
  5
30
330
A
100
AcDbEntity
  8
0
 62
     3
100
AcDbPoint
 10
388.166130642287
 20
365.999968000795
 30
0.0
  0
POINT
  5
2F
330
A
100
AcDbEntity
  8
0
 62
     3
100
AcDbPoint
 10
388.166130642287
 20
365.999968000795
 30
0.0
  0
POINT
  5
2E
330
A
100
AcDbEntity
  8
0
 62
     3
100
AcDbPoint
 10
388.166130642287
 20
391.499968000795
 30
0.0
  0
POINT
  5
2D
330
A
100
AcDbEntity
  8
0
 62
     3
100
AcDbPoint
 10
289.0023626001
 20
371.499968000795
 30
0.0
  0
POINT
  5
2C
330
A
100
AcDbEntity
  8
0
 62
     3
100
AcDbPoint
 10
274.7023626001
 20
374.499968000795
 30
0.0
  0
POINT
  5
2B
330
A
100
AcDbEntity
  8
0
 62
     3
100
AcDbPoint
 10
289.0023626001
 20
371.499968000795
 30
0.0
  0
POINT
  5
2A
330
A
100
AcDbEntity
  8
0
 62
     3
100
AcDbPoint
 10
41.00236260009999
 20
386.499968000795
 30
0.0
  0
POINT
  5
29
330
A
100
AcDbEntity
  8
0
 62
     3
100
AcDbPoint
 10
289.0023626001
 20
386.499968000795
 30
0.0
  0
ENDSEC
  0
SECTION
  2
OBJECTS
  0
DICTIONARY
  5
19
330
0
100
AcDbDictionary
281
     1
  3
ACAD_COLOR
350
2FB
  3
ACAD_GROUP
350
1A
  3
ACAD_LAYOUT
350
2FE
  3
ACAD_MATERIAL
350
2FA
  3
ACAD_MLINESTYLE
350
1B
  3
ACAD_PLOTSETTINGS
350
2FF
  3
ACAD_PLOTSTYLENAME
350
2F8
  3
ACAD_TABLESTYLE
350
2FC
  3
ACDBHEADERROUNDTRIPXREC
350
433
  3
AcDbVariableDictionary
350
42C
  3
AcmDictionary
350
3C5
  3
AMG
350
304
  3
AMGSNAPSETTINGS
350
41B
  3
ASE_INDEX_DICTIONARY
350
423
  3
DWGPROPS
350
432
  3
MAPISURF_MODULE
350
391
  0
DICTIONARY
  5
426
330
A
100
AcDbDictionary
280
     1
281
     1
  3
ACAD_INDEX
360
427
  0
DICTIONARY
  5
2FB
102
{ACAD_REACTORS
330
19
102
}
330
19
100
AcDbDictionary
281
     1
  0
DICTIONARY
  5
1A
102
{ACAD_REACTORS
330
19
102
}
330
19
100
AcDbDictionary
281
     1
  0
DICTIONARY
  5
2FE
102
{ACAD_REACTORS
330
19
102
}
330
19
100
AcDbDictionary
281
     1
  3
Model
350
300
  3
レイアウト1
350
301
  0
DICTIONARY
  5
2FA
102
{ACAD_REACTORS
330
19
102
}
330
19
100
AcDbDictionary
281
     1
  0
DICTIONARY
  5
1B
102
{ACAD_REACTORS
330
19
102
}
330
19
100
AcDbDictionary
281
     1
  3
STANDARD
350
1C
  0
DICTIONARY
  5
2FF
102
{ACAD_REACTORS
330
19
102
}
330
19
100
AcDbDictionary
281
     1
  0
ACDBDICTIONARYWDFLT
  5
2F8
102
{ACAD_REACTORS
330
19
102
}
330
19
100
AcDbDictionary
281
     1
  3
Normal
350
2F9
100
AcDbDictionaryWithDefault
340
2F9
  0
DICTIONARY
  5
2FC
102
{ACAD_REACTORS
330
19
102
}
330
19
100
AcDbDictionary
281
     1
  3
Standard
350
2FD
  0
DICTIONARY
  5
433
102
{ACAD_REACTORS
330
19
102
}
330
19
100
AcDbDictionary
281
     1
  0
DICTIONARY
  5
42C
102
{ACAD_REACTORS
330
19
102
}
330
19
100
AcDbDictionary
281
     1
  3
CTABLESTYLE
350
42D
  3
DIMASSOC
350
42F
  3
INDEXCTL
350
42E
  3
PROJECTNAME
350
430
  0
DICTIONARY
  5
3C5
102
{ACAD_REACTORS
330
19
102
}
330
19
100
AcDbDictionary
281
     1
  3
AcmStdDictionary
350
3D1
  3
AMDTSECTSYM_ARROWCOLOR
350
3F0
  0
DICTIONARY
  5
304
102
{ACAD_REACTORS
330
19
102
}
330
19
100
AcDbDictionary
281
     1
  3
AcMgSettings
350
305
  0
DICTIONARY
  5
41B
102
{ACAD_REACTORS
330
19
102
}
330
19
100
AcDbDictionary
281
     1
  3
DIMENSION
350
420
  3
FEA
350
41F
  3
HATCH (1)
350
41C
  3
HATCH (2)
350
41D
  3
SIMPLE WELD
350
421
  3
SYMBOLS
350
41E
  0
DICTIONARY
  5
423
102
{ACAD_REACTORS
330
19
102
}
330
19
100
AcDbDictionary
281
     1
  3
ASEBlockHierarchyIndexRecord
350
425
1001
DCO15
1040
1934881244.04
  0
XRECORD
  5
432
102
{ACAD_REACTORS
330
19
102
}
330
19
100
AcDbXrecord
280
     1
  1
DWGPROPS COOKIE
  2

  3

  4

  6

  7

  8

  9

300
AmdtFileType=84
301
=
302
=
303
=
304
=
305
=
306
=
307
=
308
=
309
=
 40
0.0001671064814815
 41
2305814.417176053
 42
2458197.670694907
  1

 90
        1
  0
DICTIONARY
  5
427
102
{ACAD_REACTORS
330
426
102
}
330
426
100
AcDbDictionary
281
     1
  3
*A1
350
428
  0
LAYOUT
  5
300
102
{ACAD_XDICTIONARY
360
434
102
}
102
{ACAD_REACTORS
330
2FE
102
}
330
2FE
100
AcDbPlotSettings
  1

  2
Adobe PDF#:3
  4

  6

 40
0.0
 41
0.0
 42
0.0
 43
0.0
 44
0.0
 45
0.0
 46
0.0
 47
0.0
 48
0.0
 49
0.0
140
0.0
141
0.0
142
1.0
143
1.0
 70
  1712
 72
     0
 73
     0
 74
     0
  7

 75
     0
147
1.0
148
0.0
149
0.0
100
AcDbLayout
  1
Model
 70
     1
 71
     0
 10
0.0
 20
0.0
 11
12.0
 21
9.0
 12
0.0
 22
0.0
 32
0.0
 14
0.0
 24
0.0
 34
0.0
 15
0.0
 25
0.0
 35
0.0
146
0.0
 13
0.0
 23
0.0
 33
0.0
 16
1.0
 26
0.0
 36
0.0
 17
0.0
 27
1.0
 37
0.0
 76
     0
330
A
  0
LAYOUT
  5
301
102
{ACAD_XDICTIONARY
360
436
102
}
102
{ACAD_REACTORS
330
2FE
102
}
330
2FE
100
AcDbPlotSettings
  1

  2
Adobe PDF#:3
  4

  6

 40
0.0
 41
0.0
 42
0.0
 43
0.0
 44
0.0
 45
0.0
 46
0.0
 47
0.0
 48
0.0
 49
0.0
140
0.0
141
0.0
142
1.0
143
1.0
 70
   688
 72
     0
 73
     0
 74
     5
  7

 75
    16
147
1.0
148
0.0
149
0.0
100
AcDbLayout
  1
レイアウト1
 70
     0
 71
     1
 10
0.0
 20
0.0
 11
12.0
 21
9.0
 12
0.0
 22
0.0
 32
0.0
 14
1.000000000000000E+20
 24
1.000000000000000E+20
 34
1.000000000000000E+20
 15
-1.000000000000000E+20
 25
-1.000000000000000E+20
 35
-1.000000000000000E+20
146
0.0
 13
0.0
 23
0.0
 33
0.0
 16
1.0
 26
0.0
 36
0.0
 17
0.0
 27
1.0
 37
0.0
 76
     0
330
B
  0
MLINESTYLE
  5
1C
102
{ACAD_REACTORS
330
1B
102
}
330
1B
100
AcDbMlineStyle
  2
STANDARD
 70
     0
  3

 62
     0
 51
90.0
 52
90.0
 71
     2
 49
0.5
 62
   256
  6
BYLAYER
 49
-0.5
 62
   256
  6
BYLAYER
  0
ACDBPLACEHOLDER
  5
2F9
102
{ACAD_REACTORS
330
2F8
102
}
330
2F8
  0
TABLESTYLE
  5
2FD
102
{ACAD_REACTORS
330
2FC
102
}
330
2FC
100
AcDbTableStyle
  3
Standard
 70
     0
 71
     0
 40
1.5
 41
1.5
280
     0
281
     0
  7
STANDARD
140
4.5
170
     2
 62
     0
 63
     7
283
     0
274
    -2
284
     1
 64
     0
275
    -2
285
     1
 65
     0
276
    -2
286
     1
 66
     0
277
    -2
287
     1
 67
     0
278
    -2
288
     1
 68
     0
279
    -2
289
     1
 69
     0
  7
STANDARD
140
6.0
170
     5
 62
     0
 63
     7
283
     0
274
    -2
284
     1
 64
     0
275
    -2
285
     1
 65
     0
276
    -2
286
     1
 66
     0
277
    -2
287
     1
 67
     0
278
    -2
288
     1
 68
     0
279
    -2
289
     1
 69
     0
  7
STANDARD
140
4.5
170
     5
 62
     0
 63
     7
283
     0
274
    -2
284
     1
 64
     0
275
    -2
285
     1
 65
     0
276
    -2
286
     1
 66
     0
277
    -2
287
     1
 67
     0
278
    -2
288
     1
 68
     0
279
    -2
289
     1
 69
     0
  0
DICTIONARYVAR
  5
42D
102
{ACAD_REACTORS
330
42C
102
}
330
42C
100
DictionaryVariables
280
     0
  1
STANDARD
  0
DICTIONARYVAR
  5
42F
102
{ACAD_REACTORS
330
42C
102
}
330
42C
100
DictionaryVariables
280
     0
  1
1
  0
DICTIONARYVAR
  5
42E
102
{ACAD_REACTORS
330
42C
102
}
330
42C
100
DictionaryVariables
280
     0
  1
1
  0
DICTIONARYVAR
  5
430
102
{ACAD_REACTORS
330
42C
102
}
330
42C
100
DictionaryVariables
280
     0
  1

  0
DICTIONARY
  5
3D1
102
{ACAD_REACTORS
330
3C5
102
}
330
3C5
100
AcDbDictionary
281
     1
  0
XRECORD
  5
3F0
102
{ACAD_REACTORS
330
3C5
102
}
330
3C5
100
AcDbXrecord
280
     1
 90
-1023410169
  0
DICTIONARY
  5
305
102
{ACAD_REACTORS
330
304
102
}
330
304
100
AcDbDictionary
281
     1
  3
DWGSETTINGS
350
306
  3
TRANSSETTINGS
350
30A
  0
ACAMGFILTERDAT
  5
420
102
{ACAD_REACTORS
330
41B
102
}
330
41B
100
AcAmgFilterDat
 70
    15
  1
DIMENSION,AMDT_*_DIM
  2
*
  3
*
  4
*
  5
*
290
     1
  0
ACAMGFILTERDAT
  5
41F
102
{ACAD_REACTORS
330
41B
102
}
330
41B
100
AcAmgFilterDat
 70
    15
  1
*
  2
AM_FEA-AM_*
  3
*
  4
*
  5
*
290
     1
  0
ACAMGFILTERDAT
  5
41C
102
{ACAD_REACTORS
330
41B
102
}
330
41B
100
AcAmgFilterDat
 70
    15
  1
HATCH
  2
*
  3
*
  4
*
  5
*
290
     1
  0
ACAMGFILTERDAT
  5
41D
102
{ACAD_REACTORS
330
41B
102
}
330
41B
100
AcAmgFilterDat
 70
    15
  1
LINE
  2
8,8N,*-8,*-8N,AM_8,AM_8N,*-AM_8,*-AM_8N
  3
*
  4
*
  5
INSERT,STDPART2D
290
     1
  0
ACAMGFILTERDAT
  5
421
102
{ACAD_REACTORS
330
41B
102
}
330
41B
100
AcAmgFilterDat
 70
    15
  1
ARC
  2
AM_5
  3
*
  4
2
  5
INSERT
290
     0
  0
ACAMGFILTERDAT
  5
41E
102
{ACAD_REACTORS
330
41B
102
}
330
41B
100
AcAmgFilterDat
 70
    15
  1
ACMFCFRAME,ACMDATUMTARGET,ACMDATUMID,ACMWELDSYM,ACMSURFSYM,ACMFEATID,ACMPARTREF,ACMBALLOON,AMDTEDGESYM,AMGSCREWCALCTABLE
  2
*
  3
*
  4
*
  5
*
290
     1
  0
XRECORD
  5
425
102
{ACAD_REACTORS
330
423
102
}
330
423
100
AcDbXrecord
280
     1
  0
LAYER_INDEX
  5
428
102
{ACAD_REACTORS
330
427
102
}
330
427
100
AcDbIndex
 40
2458197.670694907
100
AcDbLayerIndex
  8
0
360
429
 90
      680
  8
FORMAT
360
42A
 90
       17
  8
1
360
42B
 90
       18
  0
DICTIONARY
  5
434
330
300
100
AcDbDictionary
280
     1
281
     1
  3
ACAD_XREC_ROUNDTRIP
360
435
  0
DICTIONARY
  5
436
330
301
100
AcDbDictionary
280
     1
281
     1
  3
ACAD_XREC_ROUNDTRIP
360
437
  0
IDBUFFER
  5
429
330
0
100
AcDbIdBuffer
330
F6
330
F5
330
F4
330
F3
330
F2
330
F1
330
F0
330
EF
330
EE
330
ED
330
EC
330
EB
330
EA
330
E9
330
E8
330
E7
330
E6
330
E5
330
E4
330
E3
330
E2
330
E1
330
E0
330
DF
330
DE
330
DD
330
DC
330
DB
330
DA
330
D9
330
D8
330
D7
330
D6
330
D5
330
D4
330
D3
330
D2
330
D1
330
D0
330
CF
330
CE
330
CD
330
CC
330
CB
330
CA
330
C9
330
C8
330
C7
330
C6
330
C5
330
C4
330
C3
330
C2
330
C1
330
C0
330
BF
330
BE
330
BD
330
BC
330
BB
330
BA
330
B9
330
B8
330
B7
330
B6
330
B5
330
B4
330
B3
330
B2
330
B1
330
B0
330
AF
330
AE
330
AD
330
AC
330
AB
330
AA
330
A9
330
A8
330
A7
330
A6
330
A5
330
A4
330
A3
330
A2
330
A1
330
A0
330
9F
330
9E
330
9D
330
9C
330
9B
330
9A
330
99
330
98
330
97
330
96
330
95
330
94
330
93
330
92
330
91
330
90
330
8F
330
8E
330
8D
330
8C
330
8B
330
8A
330
89
330
88
330
87
330
86
330
85
330
84
330
83
330
82
330
81
330
80
330
7F
330
7E
330
7D
330
7C
330
7B
330
7A
330
79
330
78
330
77
330
76
330
75
330
74
330
73
330
72
330
71
330
70
330
6F
330
6E
330
6D
330
6C
330
6B
330
6A
330
69
330
68
330
67
330
66
330
65
330
64
330
63
330
62
330
61
330
60
330
5F
330
5E
330
5D
330
5C
330
5B
330
4A
330
45
330
44
330
43
330
42
330
41
330
40
330
3D
330
3C
330
3B
330
3A
330
39
330
38
330
37
330
36
330
35
330
34
330
33
330
32
330
31
330
30
330
2F
330
2E
330
2D
330
2C
330
2B
330
2A
330
29
330
2F2
330
2F1
330
2F0
330
2EF
330
2EE
330
2ED
330
2EC
330
2EB
330
2EA
330
2E9
330
2E8
330
2E7
330
2E6
330
2E5
330
2E4
330
2E3
330
2E2
330
2E1
330
2E0
330
2DF
330
2DE
330
2DD
330
2DC
330
2DB
330
2DA
330
2D9
330
2D8
330
2D7
330
2D6
330
2D5
330
2D4
330
2D3
330
2D2
330
2D1
330
2D0
330
2CF
330
2CE
330
2CD
330
2CC
330
2CB
330
2CA
330
2C9
330
2C8
330
2C7
330
2C6
330
2C5
330
2C4
330
2C3
330
2C2
330
2C1
330
2C0
330
2BF
330
2BE
330
2BD
330
2BC
330
2BB
330
2BA
330
2B9
330
2B8
330
2B7
330
2B6
330
2B5
330
2B4
330
2B3
330
2B2
330
2B1
330
2B0
330
2AF
330
2AE
330
2AD
330
2AC
330
2AB
330
2AA
330
2A9
330
2A8
330
2A7
330
2A6
330
2A5
330
2A4
330
2A3
330
2A2
330
2A1
330
2A0
330
29F
330
29E
330
29D
330
29C
330
29B
330
29A
330
299
330
298
330
297
330
296
330
295
330
294
330
293
330
292
330
291
330
290
330
28F
330
28E
330
28D
330
28C
330
28B
330
28A
330
289
330
288
330
287
330
286
330
285
330
284
330
283
330
282
330
281
330
280
330
27F
330
27E
330
27D
330
27C
330
27B
330
27A
330
279
330
278
330
277
330
276
330
275
330
274
330
273
330
272
330
271
330
270
330
26F
330
26E
330
26D
330
26C
330
26B
330
26A
330
269
330
268
330
267
330
266
330
265
330
264
330
263
330
262
330
261
330
260
330
25F
330
25E
330
25D
330
25C
330
25B
330
25A
330
259
330
258
330
257
330
256
330
255
330
254
330
253
330
252
330
251
330
250
330
24F
330
24E
330
24D
330
24C
330
24B
330
24A
330
249
330
248
330
247
330
246
330
245
330
244
330
243
330
242
330
241
330
240
330
23F
330
23E
330
23D
330
23C
330
23B
330
23A
330
239
330
238
330
237
330
236
330
235
330
234
330
233
330
232
330
231
330
230
330
22F
330
22E
330
22D
330
22C
330
22B
330
22A
330
229
330
228
330
227
330
226
330
225
330
224
330
223
330
222
330
221
330
220
330
21F
330
21E
330
21D
330
21C
330
21B
330
21A
330
219
330
218
330
217
330
216
330
215
330
214
330
213
330
212
330
211
330
210
330
20F
330
20E
330
20D
330
20C
330
20B
330
20A
330
209
330
208
330
207
330
206
330
205
330
204
330
203
330
202
330
201
330
200
330
1FF
330
1FE
330
1FD
330
1FC
330
1FB
330
1FA
330
1F9
330
1F8
330
1F7
330
1F6
330
1F5
330
1F4
330
1F3
330
1F2
330
1F1
330
1F0
330
1EF
330
1EE
330
1ED
330
1EC
330
1EB
330
1EA
330
1E9
330
1E8
330
1E7
330
1E6
330
1E5
330
1E4
330
1E3
330
1E2
330
1E1
330
1E0
330
1DF
330
1DE
330
1DD
330
1DC
330
1DB
330
1DA
330
1D9
330
1D8
330
1D7
330
1D6
330
1D5
330
1D4
330
1D3
330
1D2
330
1D1
330
1D0
330
1CF
330
1CE
330
1CD
330
1CC
330
1CB
330
1CA
330
1C9
330
1C8
330
1C7
330
1C6
330
1C5
330
1C4
330
1C3
330
1C2
330
1C1
330
1C0
330
1BF
330
1BE
330
1BD
330
1BC
330
1BB
330
1BA
330
1B9
330
1B8
330
1B7
330
1B6
330
1B5
330
1B4
330
1B3
330
1B2
330
1B1
330
1AC
330
1AB
330
1AA
330
1A9
330
1A8
330
1A7
330
1A6
330
1A5
330
1A4
330
1A3
330
1A2
330
1A1
330
1A0
330
19F
330
19E
330
19D
330
19C
330
19B
330
19A
330
199
330
198
330
197
330
196
330
195
330
194
330
193
330
192
330
191
330
190
330
18F
330
18E
330
18D
330
18C
330
18B
330
18A
330
189
330
188
330
187
330
186
330
185
330
184
330
183
330
182
330
181
330
180
330
17F
330
17E
330
17D
330
17C
330
17B
330
17A
330
179
330
178
330
177
330
176
330
175
330
174
330
173
330
172
330
171
330
170
330
16F
330
16E
330
16D
330
16C
330
16B
330
16A
330
169
330
168
330
167
330
166
330
165
330
164
330
163
330
162
330
161
330
160
330
15F
330
15E
330
15D
330
15C
330
15B
330
15A
330
159
330
158
330
157
330
156
330
155
330
154
330
153
330
152
330
151
330
150
330
14F
330
14E
330
14D
330
14C
330
14B
330
14A
330
149
330
148
330
147
330
146
330
145
330
144
330
143
330
142
330
141
330
140
330
13F
330
13E
330
13D
330
13C
330
13B
330
13A
330
139
330
138
330
137
330
136
330
135
330
134
330
133
330
132
330
131
330
130
330
12F
330
12E
330
12D
330
12C
330
12B
330
12A
330
129
330
128
330
127
330
126
330
125
330
124
330
123
330
122
330
121
330
120
330
11F
330
11E
330
11D
330
11C
330
11B
330
11A
330
119
330
118
330
117
330
116
330
115
330
114
330
113
330
112
330
111
330
108
330
107
330
106
330
105
330
104
330
103
330
102
330
101
330
100
330
FF
330
FE
330
FD
330
FC
330
FB
330
FA
330
F9
330
F8
330
F7
  0
IDBUFFER
  5
42A
330
0
100
AcDbIdBuffer
330
46
330
1B0
330
1AF
330
1AE
330
1AD
330
110
330
10F
330
10E
330
10D
330
10C
330
10B
330
10A
330
109
330
4E
330
4B
330
49
330
47
  0
IDBUFFER
  5
42B
330
0
100
AcDbIdBuffer
330
3F
330
3E
330
2F4
330
5A
330
59
330
58
330
57
330
56
330
55
330
54
330
53
330
52
330
51
330
50
330
4F
330
4D
330
4C
330
48
  0
XRECORD
  5
435
102
{ACAD_REACTORS
330
434
102
}
330
434
100
AcDbXrecord
280
     1
102
SHADEPLOT
 70
     0
102
SHADEPLOTRESLEVEL
 70
     2
102
SHADEPLOTCUSTOMDPI
 70
   300
  0
XRECORD
  5
437
102
{ACAD_REACTORS
330
436
102
}
330
436
100
AcDbXrecord
280
     1
102
SHADEPLOT
 70
     0
102
SHADEPLOTRESLEVEL
 70
     2
102
SHADEPLOTCUSTOMDPI
 70
   300
  0
ENDSEC
  0
EOF
