  0
SECTION
  2
HEADER
  9
$ACADVER
  1
AC1015
  9
$ACADMAINTVER
 70
    20
  9
$DWGCODEPAGE
  3
ANSI_932
  9
$INSBASE
 10
0.0
 20
0.0
 30
0.0
  9
$EXTMIN
 10
39.768173209353
 20
51.16389999830599
 30
0.0
  9
$EXTMAX
 10
442.8079443200309
 20
193.9448478106
 30
0.0
  9
$LIMMIN
 10
0.0
 20
0.0
  9
$LIMMAX
 10
0.0
 20
0.0
  9
$ORTHOMODE
 70
     0
  9
$REGENMODE
 70
     1
  9
$FILLMODE
 70
     1
  9
$QTEXTMODE
 70
     0
  9
$MIRRTEXT
 70
     1
  9
$LTSCALE
 40
1.0
  9
$ATTMODE
 70
     1
  9
$TEXTSIZE
 40
0.0
  9
$TRACEWID
 40
0.05
  9
$TEXTSTYLE
  7
STANDARD
  9
$CLAYER
  8
0
  9
$CELTYPE
  6
CONTINUOUS
  9
$CECOLOR
 62
   256
  9
$CELTSCALE
 40
1.0
  9
$DISPSILH
 70
     0
  9
$DIMSCALE
 40
1.0
  9
$DIMASZ
 40
0.18
  9
$DIMEXO
 40
0.0625
  9
$DIMDLI
 40
0.38
  9
$DIMRND
 40
0.0
  9
$DIMDLE
 40
0.0
  9
$DIMEXE
 40
0.18
  9
$DIMTP
 40
0.0
  9
$DIMTM
 40
0.0
  9
$DIMTXT
 40
0.18
  9
$DIMCEN
 40
0.09
  9
$DIMTSZ
 40
0.0
  9
$DIMTOL
 70
     0
  9
$DIMLIM
 70
     0
  9
$DIMTIH
 70
     1
  9
$DIMTOH
 70
     1
  9
$DIMSE1
 70
     0
  9
$DIMSE2
 70
     0
  9
$DIMTAD
 70
     0
  9
$DIMZIN
 70
     0
  9
$DIMBLK
  1

  9
$DIMASO
 70
     1
  9
$DIMSHO
 70
     1
  9
$DIMPOST
  1

  9
$DIMAPOST
  1

  9
$DIMALT
 70
     0
  9
$DIMALTD
 70
     2
  9
$DIMALTF
 40
25.4
  9
$DIMLFAC
 40
1.0
  9
$DIMTOFL
 70
     0
  9
$DIMTVP
 40
0.0
  9
$DIMTIX
 70
     0
  9
$DIMSOXD
 70
     0
  9
$DIMSAH
 70
     0
  9
$DIMBLK1
  1

  9
$DIMBLK2
  1

  9
$DIMSTYLE
  2
STANDARD
  9
$DIMCLRD
 70
     0
  9
$DIMCLRE
 70
     0
  9
$DIMCLRT
 70
     0
  9
$DIMTFAC
 40
1.0
  9
$DIMGAP
 40
0.09
  9
$DIMJUST
 70
     0
  9
$DIMSD1
 70
     0
  9
$DIMSD2
 70
     0
  9
$DIMTOLJ
 70
     1
  9
$DIMTZIN
 70
     0
  9
$DIMALTZ
 70
     0
  9
$DIMALTTZ
 70
     0
  9
$DIMUPT
 70
     0
  9
$DIMDEC
 70
     4
  9
$DIMTDEC
 70
     4
  9
$DIMALTU
 70
     2
  9
$DIMALTTD
 70
     2
  9
$DIMTXSTY
  7
STANDARD
  9
$DIMAUNIT
 70
     0
  9
$DIMADEC
 70
     0
  9
$DIMALTRND
 40
0.0
  9
$DIMAZIN
 70
     0
  9
$DIMDSEP
 70
    46
  9
$DIMATFIT
 70
     3
  9
$DIMFRAC
 70
     0
  9
$DIMLDRBLK
  1

  9
$DIMLUNIT
 70
     2
  9
$DIMLWD
 70
    -2
  9
$DIMLWE
 70
    -2
  9
$DIMTMOVE
 70
     0
  9
$LUNITS
 70
     2
  9
$LUPREC
 70
     2
  9
$SKETCHINC
 40
0.1
  9
$FILLETRAD
 40
0.0
  9
$AUNITS
 70
     0
  9
$AUPREC
 70
     0
  9
$MENU
  1
acad
  9
$ELEVATION
 40
0.0
  9
$PELEVATION
 40
0.0
  9
$THICKNESS
 40
0.0
  9
$LIMCHECK
 70
     0
  9
$CHAMFERA
 40
0.0
  9
$CHAMFERB
 40
0.0
  9
$CHAMFERC
 40
0.0
  9
$CHAMFERD
 40
0.0
  9
$SKPOLY
 70
     0
  9
$TDCREATE
 40
2305814.417176053
  9
$TDUCREATE
 40
6.0000000000
  9
$TDUPDATE
 40
2458197.639228646
  9
$TDUUPDATE
 40
2458197.264228646
  9
$TDINDWG
 40
0.0003725347
  9
$TDUSRTIMER
 40
0.0003723611
  9
$USRTIMER
 70
     1
  9
$ANGBASE
 50
0.0
  9
$ANGDIR
 70
     0
  9
$PDMODE
 70
     0
  9
$PDSIZE
 40
0.0
  9
$PLINEWID
 40
0.0
  9
$SPLFRAME
 70
     0
  9
$SPLINETYPE
 70
     6
  9
$SPLINESEGS
 70
     8
  9
$HANDSEED
  5
41E
  9
$SURFTAB1
 70
     6
  9
$SURFTAB2
 70
     6
  9
$SURFTYPE
 70
     6
  9
$SURFU
 70
     6
  9
$SURFV
 70
     6
  9
$UCSBASE
  2

  9
$UCSNAME
  2

  9
$UCSORG
 10
0.0
 20
0.0
 30
0.0
  9
$UCSXDIR
 10
1.0
 20
0.0
 30
0.0
  9
$UCSYDIR
 10
0.0
 20
1.0
 30
0.0
  9
$UCSORTHOREF
  2

  9
$UCSORTHOVIEW
 70
     0
  9
$UCSORGTOP
 10
0.0
 20
0.0
 30
0.0
  9
$UCSORGBOTTOM
 10
0.0
 20
0.0
 30
0.0
  9
$UCSORGLEFT
 10
0.0
 20
0.0
 30
0.0
  9
$UCSORGRIGHT
 10
0.0
 20
0.0
 30
0.0
  9
$UCSORGFRONT
 10
0.0
 20
0.0
 30
0.0
  9
$UCSORGBACK
 10
0.0
 20
0.0
 30
0.0
  9
$PUCSBASE
  2

  9
$PUCSNAME
  2

  9
$PUCSORG
 10
0.0
 20
0.0
 30
0.0
  9
$PUCSXDIR
 10
1.0
 20
0.0
 30
0.0
  9
$PUCSYDIR
 10
0.0
 20
1.0
 30
0.0
  9
$PUCSORTHOREF
  2

  9
$PUCSORTHOVIEW
 70
     0
  9
$PUCSORGTOP
 10
0.0
 20
0.0
 30
0.0
  9
$PUCSORGBOTTOM
 10
0.0
 20
0.0
 30
0.0
  9
$PUCSORGLEFT
 10
0.0
 20
0.0
 30
0.0
  9
$PUCSORGRIGHT
 10
0.0
 20
0.0
 30
0.0
  9
$PUCSORGFRONT
 10
0.0
 20
0.0
 30
0.0
  9
$PUCSORGBACK
 10
0.0
 20
0.0
 30
0.0
  9
$USERI1
 70
     0
  9
$USERI2
 70
     0
  9
$USERI3
 70
     0
  9
$USERI4
 70
     0
  9
$USERI5
 70
     0
  9
$USERR1
 40
0.0
  9
$USERR2
 40
0.0
  9
$USERR3
 40
0.0
  9
$USERR4
 40
0.0
  9
$USERR5
 40
0.0
  9
$WORLDVIEW
 70
     1
  9
$SHADEDGE
 70
     3
  9
$SHADEDIF
 70
    70
  9
$TILEMODE
 70
     1
  9
$MAXACTVP
 70
    16
  9
$PINSBASE
 10
0.0
 20
0.0
 30
0.0
  9
$PLIMCHECK
 70
     0
  9
$PEXTMIN
 10
1.000000000000000E+20
 20
1.000000000000000E+20
 30
1.000000000000000E+20
  9
$PEXTMAX
 10
-1.000000000000000E+20
 20
-1.000000000000000E+20
 30
-1.000000000000000E+20
  9
$PLIMMIN
 10
0.0
 20
0.0
  9
$PLIMMAX
 10
12.0
 20
9.0
  9
$UNITMODE
 70
     0
  9
$VISRETAIN
 70
     0
  9
$PLINEGEN
 70
     1
  9
$PSLTSCALE
 70
     0
  9
$TREEDEPTH
 70
  3020
  9
$CMLSTYLE
  2
STANDARD
  9
$CMLJUST
 70
     0
  9
$CMLSCALE
 40
1.0
  9
$PROXYGRAPHICS
 70
     0
  9
$MEASUREMENT
 70
     1
  9
$CELWEIGHT
370
    -1
  9
$ENDCAPS
280
     0
  9
$JOINSTYLE
280
     0
  9
$LWDISPLAY
290
     0
  9
$INSUNITS
 70
     0
  9
$HYPERLINKBASE
  1

  9
$STYLESHEET
  1

  9
$XEDIT
290
     1
  9
$CEPSNTYPE
380
     0
  9
$PSTYLEMODE
290
     1
  9
$FINGERPRINTGUID
  2
{38F770E7-9794-4A46-A81A-465F83748C1E}
  9
$VERSIONGUID
  2
{F102B06B-8D2F-4B0D-A23C-A024AE5E5645}
  9
$EXTNAMES
290
     1
  9
$PSVPSCALE
 40
0.0
  9
$OLESTARTUP
290
     0
  0
ENDSEC
  0
SECTION
  2
CLASSES
  0
CLASS
  1
IMAGE
  2
AcDbRasterImage
  3
ISM
 90
    32895
280
     0
281
     1
  0
CLASS
  1
DICTIONARYVAR
  2
AcDbDictionaryVar
  3
ObjectDBX Classes
 90
        0
280
     0
281
     0
  0
CLASS
  1
RASTERVARIABLES
  2
AcDbRasterVariables
  3
ISM
 90
    32768
280
     0
281
     0
  0
CLASS
  1
IMAGEDEF
  2
AcDbRasterImageDef
  3
ISM
 90
    32768
280
     0
281
     0
  0
CLASS
  1
IMAGEDEF_REACTOR
  2
AcDbRasterImageDefReactor
  3
ISM
 90
    32769
280
     0
281
     0
  0
CLASS
  1
IDBUFFER
  2
AcDbIdBuffer
  3
ObjectDBX Classes
 90
        0
280
     0
281
     0
  0
CLASS
  1
SPATIAL_FILTER
  2
AcDbSpatialFilter
  3
ObjectDBX Classes
 90
    32768
280
     0
281
     0
  0
CLASS
  1
SORTENTSTABLE
  2
AcDbSortentsTable
  3
ObjectDBX Classes
 90
    32768
280
     0
281
     0
  0
CLASS
  1
LAYER_INDEX
  2
AcDbLayerIndex
  3
ObjectDBX Classes
 90
        0
280
     0
281
     0
  0
CLASS
  1
SPATIAL_INDEX
  2
AcDbSpatialIndex
  3
ObjectDBX Classes
 90
    32768
280
     0
281
     0
  0
CLASS
  1
OBJECT_PTR
  2
CAseDLPNTableRecord
  3
ASE-LPNTableRecord
 90
    32769
280
     0
281
     0
  0
CLASS
  1
LAYOUT
  2
AcDbLayout
  3
ObjectDBX Classes
 90
        0
280
     0
281
     0
  0
CLASS
  1
PLOTSETTINGS
  2
AcDbPlotSettings
  3
ObjectDBX Classes
 90
    32768
280
     0
281
     0
  0
CLASS
  1
ACDBDICTIONARYWDFLT
  2
AcDbDictionaryWithDefault
  3
ObjectDBX Classes
 90
        0
280
     0
281
     0
  0
CLASS
  1
ACDBPLACEHOLDER
  2
AcDbPlaceHolder
  3
ObjectDBX Classes
 90
        0
280
     0
281
     0
  0
CLASS
  1
VBA_PROJECT
  2
AcDbVbaProject
  3
acad
 90
    32768
280
     0
281
     0
  0
CLASS
  1
WIPEOUT
  2
AcDbWipeout
  3
"WipeOut|Product Desc: Object Enabler for WipeOut entity^I^I^I^I^I^I|Company: Autodesk, Inc.^I^I^I^I^I^I|WEB Address: www.autodesk.com"
 90
    32895
280
     0
281
     1
  0
CLASS
  1
WIPEOUTVARIABLES
  2
AcDbWipeoutVariables
  3
"WipeOut|Product Desc:     WipeOut Dbx Application|Company:          Autodesk, Inc.|WEB Address:      www.autodesk.com"
 90
    32768
280
     0
281
     0
  0
CLASS
  1
RTEXT
  2
RText
  3
RText|AutoCAD Express Tool|expresstools@autodesk.com
 90
    32768
280
     0
281
     1
  0
CLASS
  1
ARCALIGNEDTEXT
  2
AcDbArcAlignedText
  3
ATEXT|AutoCAD Express Tool|expresstools@autodesk.com
 90
    32768
280
     0
281
     1
  0
CLASS
  1
TABLESTYLE
  2
AcDbTableStyle
  3
ObjectDBX Classes
 90
     2047
280
     0
281
     0
  0
CLASS
  1
AMGSETTINGSOBJ
  2
AmgSettingsObj
  3
"AcadM|Product Description: AutoCAD Mechanical 2000|Company: Autodesk"
 90
        0
280
     0
281
     0
  0
CLASS
  1
ACME_DOCUMENT
  2
AcMeDbDoc
  3
AcMeServices
 90
        0
280
     0
281
     0
  0
CLASS
  1
ACMESCOPE
  2
AcMeScope
  3
AcMeServices
 90
        0
280
     0
281
     0
  0
CLASS
  1
ACMECOMMANDHISTORY
  2
AcMeCommandHistory
  3
AcMeServices
 90
        0
280
     0
281
     0
  0
CLASS
  1
ACIMSYSVARMAN
  2
AcImSysVarManager
  3
AcMeServices
 90
        0
280
     0
281
     0
  0
CLASS
  1
ACIMREALSYSVAR
  2
AcImRealSysVar
  3
AcMeServices
 90
        0
280
     0
281
     0
  0
CLASS
  1
ACIMINTSYSVAR
  2
AcImIntSysVar
  3
AcMeServices
 90
        0
280
     0
281
     0
  0
CLASS
  1
ACMEDRAWINGMAN
  2
AcMeDrawingMan
  3
AcMeServices
 90
        0
280
     0
281
     0
  0
CLASS
  1
ACMEVIEW
  2
AcMeView
  3
AcMeServices
 90
        0
280
     0
281
     0
  0
CLASS
  1
ACDBENTITYCACHE
  2
AcMeEntityCache
  3
AcMeServices
 90
        0
280
     0
281
     0
  0
CLASS
  1
GSMANAGER
  2
AcMeGSManager
  3
AcMeServices
 90
        0
280
     0
281
     0
  0
CLASS
  1
AMDTINTERNALREACTOR
  2
AmdtInternalReactor
  3
AcMeServices
 90
        0
280
     0
281
     0
  0
CLASS
  1
ACMESTATEMGR
  2
AcMeStateMgr
  3
AcMeServices
 90
        0
280
     0
281
     0
  0
CLASS
  1
ACGREFMASTER
  2
AcGrefMaster
  3
AcAttribServices
 90
        0
280
     0
281
     0
  0
CLASS
  1
AM_DRAWING_MGR
  2
AcDmDwgMgr
  3
AcMechDwgViewMgmt
 90
        0
280
     0
281
     0
  0
CLASS
  1
AM_DWG_DOCUMENT
  2
AcDmDwgDocument
  3
AcMechDwgViewMgmt
 90
        0
280
     0
281
     0
  0
CLASS
  1
AM_DWG_SHEET
  2
AcDmSheet
  3
AcMechDwgViewMgmt
 90
        0
280
     0
281
     0
  0
CLASS
  1
AM_VIEWDIMPARMAP
  2
AcDmViewDimParMap
  3
AcMechDwgViewMgmt
 90
        0
280
     0
281
     0
  0
CLASS
  1
AM_DWGMGR_NAME
  2
AcDmDwgMgrName
  3
AcMechDwgViewMgmt
 90
        0
280
     0
281
     0
  0
CLASS
  1
ACME_DATABASE
  2
AcMeDbDatabase
  3
AcMeServices
 90
        0
280
     0
281
     0
  0
CLASS
  1
ACRFINSADJUSTERMGR
  2
AcRfInsAdjusterMgr
  3
AcMeServices
 90
        0
280
     0
281
     0
  0
CLASS
  1
ACGREFACADMASTER
  2
AcGrefacadMaster
  3
AcGrefServices
 90
        0
280
     0
281
     0
  0
CLASS
  1
AMDTMENUSTATEMGR
  2
AmdtMenuStateMgr
  3
McadcomServices
 90
        0
280
     0
281
     0
  0
CLASS
  1
AMDTMCOMMENUSTATE
  2
AmdtMcomMenuState
  3
McadcomServices
 90
        0
280
     0
281
     0
  0
CLASS
  1
AMIMASTER
  2
AmiMaster
  3
AmiServices
 90
        0
280
     0
281
     0
  0
CLASS
  1
ASAPP
  2
AcAsAppObject
  3
AutoSurfServices
 90
        0
280
     0
281
     0
  0
CLASS
  1
IM_STATIC_MAN
  2
AcImStaticVarManager
  3
AcMeServices
 90
        0
280
     0
281
     0
  0
CLASS
  1
ACIMSTRSYSVAR
  2
AcImStrSysVar
  3
AcMeServices
 90
        0
280
     0
281
     0
  0
CLASS
  1
ACIMDBLSTATICVAR
  2
AcImDblStaticVar
  3
AcMeServices
 90
        0
280
     0
281
     0
  0
CLASS
  1
ACIMSTRSTATICVAR
  2
AcImStrStaticVar
  3
AcMeServices
 90
        0
280
     0
281
     0
  0
CLASS
  1
ACIMINTSTATICVAR
  2
AcImIntStaticVar
  3
AcMeServices
 90
        0
280
     0
281
     0
  0
CLASS
  1
ACASGREFMASTER
  2
AcAsGrefMaster
  3
AutoSurfResolverServices
 90
        0
280
     0
281
     0
  0
CLASS
  1
ACADGREFMODULE
  2
AcAdGrefModule
  3
AdGrefServices
 90
        0
280
     0
281
     0
  0
CLASS
  1
AMDTMAPISURFMOUDULE
  2
AmdtMApiSurfModule
  3
MApiSurfServices
 90
        0
280
     0
281
     0
  0
CLASS
  1
MAPIAMMOUDLE
  2
MApiAmModule
  3
MApiAmServices
 90
        0
280
     0
281
     0
  0
CLASS
  1
AMDTADMENUSTATE
  2
AmdtAdMenuState
  3
DesignerServices
 90
        0
280
     0
281
     0
  0
CLASS
  1
ADAPPL
  2
AcAdAppl
  3
DesignerServices
 90
        0
280
     0
281
     0
  0
CLASS
  1
DEPMGR
  2
AcAdDepMgr
  3
DesignerServices
 90
        0
280
     0
281
     0
  0
CLASS
  1
PARAMMGR
  2
AcAdParamMgr
  3
DesignerServices
 90
        0
280
     0
281
     0
  0
CLASS
  1
PARAMSCOPE
  2
AcAdParamScope
  3
DesignerServices
 90
        0
280
     0
281
     0
  0
CLASS
  1
NAMEDAPPL
  2
AcAdNamedAppl
  3
DesignerServices
 90
        0
280
     0
281
     0
  0
CLASS
  1
AMDTDMMENUSTATE
  2
AmdtDmMenuState
  3
AcMechDwgViewMgmt
 90
        0
280
     0
281
     0
  0
CLASS
  1
MAPIADMODULE
  2
MApiAdModule
  3
MApiAdServices
 90
        0
280
     0
281
     0
  0
CLASS
  1
AMDTAMMENUSTATE
  2
AmdtAmMenuState
  3
DesignerAssemblies
 90
        0
280
     0
281
     0
  0
CLASS
  1
ACAMPROJECT
  2
AcAmProject
  3
DesignerAssemblies
 90
        0
280
     0
281
     0
  0
CLASS
  1
ACAMGRCOMPDEF
  2
AcAmGrCompDef
  3
DesignerAssemblies
 90
        0
280
     0
281
     0
  0
CLASS
  1
ACCMCONTEXT
  2
AcCmContext
  3
DesignerAssemblies
 90
        0
280
     0
281
     0
  0
CLASS
  1
ACAMCOMPDEF
  2
AcAmCompDef
  3
DesignerAssemblies
 90
        0
280
     0
281
     0
  0
CLASS
  1
ACAMCOMPDEFMGR
  2
AcAmCompDefMgr
  3
DesignerAssemblies
 90
        0
280
     0
281
     0
  0
CLASS
  1
AMCONTEXTMGR
  2
AcAmContextMgr
  3
DesignerAssemblies
 90
        0
280
     0
281
     0
  0
CLASS
  1
ACAMCONTEXTMODELER
  2
AcAmContextModeler
  3
DesignerAssemblies
 90
        0
280
     0
281
     0
  0
CLASS
  1
ACMDATADICTIONARY
  2
AcmDataDictionary
  3
"AcmSymBB|Product Description: AutoCAD Mechanical 2004 DX|Company: Autodesk"
 90
        0
280
     0
281
     0
  0
CLASS
  1
ACMDATAENTRYBLOCK
  2
AcmDataEntryBlock
  3
"AcmSymBB|Product Description: AutoCAD Mechanical 2004 DX|Company: Autodesk"
 90
        0
280
     0
281
     0
  0
CLASS
  1
CATALOGSTATE
  2
AcAmCatalogState
  3
DesignerAssemblies
 90
        0
280
     0
281
     0
  0
CLASS
  1
ACAMGRCOMPDEFSET
  2
AcAmGrCompDefSet
  3
DesignerAssemblies
 90
        0
280
     0
281
     0
  0
CLASS
  1
AMDTBROWSERDBTAB
  2
AmdtBrowserDbTab
  3
McadcomServices
 90
        0
280
     0
281
     0
  0
CLASS
  1
CBROWSERAPPOBJECT
  2
CBrowserAppObject
  3
McadcomServices
 90
        0
280
     0
281
     0
  0
CLASS
  1
DM_PLACEHOLDER
  2
AcDmSelsetPlaceholder
  3
AcMechDwgViewMgmt
 90
        0
280
     0
281
     0
  0
CLASS
  1
ACMSTANDARDISO
  2
AcmStandardISO
  3
"Amdt_StdImp|Product Description: AutoCAD Mechanical 2004 DX|Company: Autodesk"
 90
        0
280
     0
281
     0
  0
CLASS
  1
AMGOBJPROPCFG
  2
AmgObjPropCfg
  3
"AmgLay|Product Description: AutoCAD Mechanical 2000|Company: Autodesk"
 90
        1
280
     0
281
     0
  0
CLASS
  1
AMDTEDGESTANDARDISO13715
  2
AmdtEdgeStdISO13715
  3
"Amdt_StdImp|Product Description: AutoCAD Mechanical 2004 DX|Company: Autodesk"
 90
        0
280
     0
281
     0
  0
CLASS
  1
ACMSURFSTANDARDISO
  2
AcmSurfTextStdISO
  3
"Amdt_StdImp|Product Description: AutoCAD Mechanical 2004 DX|Company: Autodesk"
 90
        0
280
     0
281
     0
  0
CLASS
  1
ACMFCFSTANDARDISO
  2
AcmFCFStdISO
  3
"Amdt_StdImp|Product Description: AutoCAD Mechanical 2004 DX|Company: Autodesk"
 90
        0
280
     0
281
     0
  0
CLASS
  1
ACMWELDSTANDARDISO
  2
AcmWeldingStdISO
  3
"Amdt_StdImp|Product Description: AutoCAD Mechanical 2004 DX|Company: Autodesk"
 90
        0
280
     0
281
     0
  0
CLASS
  1
ACMIDSTANDARDISO
  2
AcmIdStdISO
  3
"Amdt_StdImp|Product Description: AutoCAD Mechanical 2004 DX|Company: Autodesk"
 90
        0
280
     0
281
     0
  0
CLASS
  1
ACMDATUMSTANDARDISO
  2
AcmDatumStdISO
  3
"Amdt_StdImp|Product Description: AutoCAD Mechanical 2004 DX|Company: Autodesk"
 90
        0
280
     0
281
     0
  0
CLASS
  1
ACMBOMSTANDARDISO
  2
AcmBOMStdISO
  3
"Amdt_StdImp|Product Description: AutoCAD Mechanical 2004 DX|Company: Autodesk"
 90
        0
280
     0
281
     0
  0
CLASS
  1
ACMDETAILSTANDARDISO
  2
AmdtDetailSymStdISO
  3
"Amdt_StdImp|Product Description: AutoCAD Mechanical 2004 DX|Company: Autodesk"
 90
        0
280
     0
281
     0
  0
CLASS
  1
ACMSECTIONSTANDARDISO
  2
AmdtSectionSymStdISO
  3
"Amdt_StdImp|Product Description: AutoCAD Mechanical 2004 DX|Company: Autodesk"
 90
        0
280
     0
281
     0
  0
CLASS
  1
ACMCENTERLINESTANDARDISO
  2
AmdtCenterLineStdISO
  3
"Amdt_StdImp|Product Description: AutoCAD Mechanical 2004 DX|Company: Autodesk"
 90
        0
280
     0
281
     0
  0
CLASS
  1
ACMTHREADLINESTANDARDISO
  2
AmdtThreadLineStdISO
  3
"Amdt_StdImp|Product Description: AutoCAD Mechanical 2004 DX|Company: Autodesk"
 90
        0
280
     0
281
     0
  0
CLASS
  1
ACMNOTESTANDARDISO
  2
AmdtNoteStdISO
  3
"Amdt_StdImp|Product Description: AutoCAD Mechanical 2004 DX|Company: Autodesk"
 90
        0
280
     0
281
     0
  0
CLASS
  1
AMDTNOTETEMPLATEDB
  2
AmdtNoteTemplateDB
  3
AMDT_STDIMP_MODULE_NAME
 90
        0
280
     0
281
     0
  0
CLASS
  1
ACAMGLAYSTD
  2
AcAmgLayStd
  3
"AcAmgLayStd|Product Description: AutoCAD Mechanical 2000|Company: Autodesk"
 90
        0
280
     0
281
     0
  0
CLASS
  1
ACAMGDIMSTD
  2
AcAmgDimStd
  3
"AcAmgDimStd|Product Description: AutoCAD Mechanical 2000|Company: Autodesk"
 90
        0
280
     0
281
     0
  0
CLASS
  1
ACAMGHOLECHARTSTDISO
  2
AcAmgHoleChartStdISO
  3
ACMSYMBB_MODULE_NAME
 90
        0
280
     0
281
     0
  0
CLASS
  1
ACAMGTITLESTD
  2
AcAmgTitleStd
  3
"TITLEAPP"
 90
        0
280
     0
281
     0
  0
CLASS
  1
ACAMGFILTERDAT
  2
AcAmgFilterDat
  3
"AcadM|Product Description: AutoCAD Mechanical 2000|Company: Autodesk"
 90
        0
280
     0
281
     0
  0
ENDSEC
  0
SECTION
  2
TABLES
  0
TABLE
  2
VPORT
  5
7
330
0
100
AcDbSymbolTable
 70
     3
  0
VPORT
  5
417
330
7
100
AcDbSymbolTableRecord
100
AcDbViewportTableRecord
  2
*Active
 70
     0
 10
0.0
 20
0.0
 11
1.0
 21
1.0
 12
232.7514158426559
 22
117.975189904453
 13
0.0
 23
0.0
 14
1.0
 24
1.0
 15
0.0
 25
0.0
 16
0.0
 26
0.0
 36
1.0
 17
8.53664292203609
 27
4.579183999999999
 37
0.0
 40
364.3437857355043
 41
1.113389626055488
 42
50.0
 43
0.0
 44
0.0
 50
0.0
 51
0.0
 71
     0
 72
   100
 73
     1
 74
     1
 75
     0
 76
     0
 77
     0
 78
     0
281
     0
 65
     0
110
0.0
120
0.0
130
0.0
111
1.0
121
0.0
131
0.0
112
0.0
122
1.0
132
0.0
 79
     0
146
0.0
  0
ENDTAB
  0
TABLE
  2
LTYPE
  5
4
330
0
100
AcDbSymbolTable
 70
    23
  0
LTYPE
  5
11
330
4
100
AcDbSymbolTableRecord
100
AcDbLinetypeTableRecord
  2
BYBLOCK
 70
     0
  3

 72
    65
 73
     0
 40
0.0
  0
LTYPE
  5
12
330
4
100
AcDbSymbolTableRecord
100
AcDbLinetypeTableRecord
  2
BYLAYER
 70
     0
  3

 72
    65
 73
     0
 40
0.0
  0
LTYPE
  5
13
330
4
100
AcDbSymbolTableRecord
100
AcDbLinetypeTableRecord
  2
CONTINUOUS
 70
     0
  3
Solid line
 72
    65
 73
     0
 40
0.0
  0
LTYPE
  5
1D
330
4
100
AcDbSymbolTableRecord
100
AcDbLinetypeTableRecord
  2
DASHED
 70
     0
  3
Dashed
 72
    65
 73
     2
 40
15.0
 49
12.0
 74
     0
 49
-3.0
 74
     0
  0
LTYPE
  5
1E
330
4
100
AcDbSymbolTableRecord
100
AcDbLinetypeTableRecord
  2
DOTTED
 70
     0
  3
Dotted
 72
    65
 73
     2
 40
3.5
 49
0.5
 74
     0
 49
-3.0
 74
     0
  0
LTYPE
  5
1F
330
4
100
AcDbSymbolTableRecord
100
AcDbLinetypeTableRecord
  2
DOT_CENTER
 70
     0
  3
Dot_Center
 72
    65
 73
     4
 40
2.0
 49
1.25
 74
     0
 49
-0.25
 74
     0
 49
0.25
 74
     0
 49
-0.25
 74
     0
  0
LTYPE
  5
20
330
4
100
AcDbSymbolTableRecord
100
AcDbLinetypeTableRecord
  2
LONG_DASHED
 70
     0
  3
Long_Dashed
 72
    65
 73
     2
 40
2.0
 49
1.5
 74
     0
 49
-0.5
 74
     0
  0
LTYPE
  5
21
330
4
100
AcDbSymbolTableRecord
100
AcDbLinetypeTableRecord
  2
DASH_CENTER
 70
     0
  3
Dash_Center
 72
    65
 73
     4
 40
36.0
 49
24.0
 74
     0
 49
-3.0
 74
     0
 49
6.0
 74
     0
 49
-3.0
 74
     0
  0
LTYPE
  5
22
330
4
100
AcDbSymbolTableRecord
100
AcDbLinetypeTableRecord
  2
PHANTOM
 70
     0
  3
Phantom
 72
    65
 73
     6
 40
2.5
 49
1.25
 74
     0
 49
-0.25
 74
     0
 49
0.25
 74
     0
 49
-0.25
 74
     0
 49
0.25
 74
     0
 49
-0.25
 74
     0
  0
LTYPE
  5
23
330
4
100
AcDbSymbolTableRecord
100
AcDbLinetypeTableRecord
  2
CENTER_DASH_DASH
 70
     0
  3
Center_Dash_Dash
 72
    65
 73
     6
 40
22.0
 49
12.0
 74
     0
 49
-3.0
 74
     0
 49
0.5
 74
     0
 49
-3.0
 74
     0
 49
0.5
 74
     0
 49
-3.0
 74
     0
  0
LTYPE
  5
321
330
4
100
AcDbSymbolTableRecord
100
AcDbLinetypeTableRecord
  2
HIDDEN
 70
     0
  3
Hidden __ __ __ __ __ __ __ __ __ __ __ __ __ _
 72
    65
 73
     2
 40
9.524999999999998
 49
6.349999999999999
 74
     0
 49
-3.174999999999999
 74
     0
  0
LTYPE
  5
322
330
4
100
AcDbSymbolTableRecord
100
AcDbLinetypeTableRecord
  2
PHANTOM2
 70
     0
  3
Phantom (.5x) ___ _ _ ___ _ _ ___ _ _ ___ _ _
 72
    65
 73
     6
 40
31.75
 49
15.875
 74
     0
 49
-3.174999999999999
 74
     0
 49
3.174999999999999
 74
     0
 49
-3.174999999999999
 74
     0
 49
3.174999999999999
 74
     0
 49
-3.174999999999999
 74
     0
  0
LTYPE
  5
323
330
4
100
AcDbSymbolTableRecord
100
AcDbLinetypeTableRecord
  2
CENTER
 70
     0
  3
Center ____ _ ____ _ ____ _ ____ _ ____ _ ____
 72
    65
 73
     4
 40
50.8
 49
31.75
 74
     0
 49
-6.349999999999999
 74
     0
 49
6.349999999999999
 74
     0
 49
-6.349999999999999
 74
     0
  0
LTYPE
  5
372
330
4
100
AcDbSymbolTableRecord
100
AcDbLinetypeTableRecord
  2
ASULTYPE
 70
     0
  3
実線
 72
    65
 73
     2
 40
3.0
 49
2.5
 74
     0
 49
0.5
 74
     0
  0
LTYPE
  5
373
330
4
100
AcDbSymbolTableRecord
100
AcDbLinetypeTableRecord
  2
ASVLTYPE
 70
     0
  3
__ __ __ __ __ __ __ __ __ __ __ __ __ __ __ __ __ __ __ __ __
 72
    65
 73
     2
 40
0.75
 49
0.5
 74
     0
 49
-0.25
 74
     0
  0
LTYPE
  5
3BA
330
4
100
AcDbSymbolTableRecord
100
AcDbLinetypeTableRecord
  2
AM_ISO02W050
 70
     0
  3
__ __ __ __ __ __ __ __ __ __ __ __ __ __ __
 72
    65
 73
     2
 40
7.5
 49
6.0
 74
     0
 49
-1.5
 74
     0
  0
LTYPE
  5
3BB
330
4
100
AcDbSymbolTableRecord
100
AcDbLinetypeTableRecord
  2
AM_ISO08W050
 70
     0
  3
____ . ____ . ____ . ____ . ____ . ____ . ____
 72
    65
 73
     4
 40
18.0
 49
12.0
 74
     0
 49
-1.5
 74
     0
 49
3.0
 74
     0
 49
-1.5
 74
     0
  0
LTYPE
  5
3BC
330
4
100
AcDbSymbolTableRecord
100
AcDbLinetypeTableRecord
  2
AM_ISO09W050
 70
     0
  3
_____ . . _____ . . _____ . . ____ .. ____
 72
    65
 73
     6
 40
22.5
 49
12.0
 74
     0
 49
-1.5
 74
     0
 49
3.0
 74
     0
 49
-1.5
 74
     0
 49
3.0
 74
     0
 49
-1.5
 74
     0
  0
LTYPE
  5
3BD
330
4
100
AcDbSymbolTableRecord
100
AcDbLinetypeTableRecord
  2
Amconstr
 70
     0
  3
_______________________
 72
    65
 73
     2
 40
9999.0
 49
9999.0
 74
     0
 49
0.0
 74
     0
  0
LTYPE
  5
3BE
330
4
100
AcDbSymbolTableRecord
100
AcDbLinetypeTableRecord
  2
AM_ISO08W050x2
 70
     0
  3
__ . __ . __ . __ . __ . __
 72
    65
 73
     4
 40
9.0
 49
6.0
 74
     0
 49
-0.75
 74
     0
 49
1.5
 74
     0
 49
-0.75
 74
     0
  0
LTYPE
  5
3BF
330
4
100
AcDbSymbolTableRecord
100
AcDbLinetypeTableRecord
  2
AM_ISO02W050x2
 70
     0
  3
 _ _ _ _ _ _ _ _ _ _ _ _
 72
    65
 73
     2
 40
3.75
 49
3.0
 74
     0
 49
-0.75
 74
     0
  0
LTYPE
  5
3C2
330
4
100
AcDbSymbolTableRecord
100
AcDbLinetypeTableRecord
  2
Amzigzag
 70
     0
  3
/\/-/\/-/\/-/\/-/\/-/\/
 72
    65
 73
     2
 40
11.0001
 49
0.0001
 74
     4
 75
   136
340
3C1
 46
0.04
 50
0.0
 44
0.0
 45
0.0
 49
-11.0
 74
     0
  0
LTYPE
  5
3D1
330
4
100
AcDbSymbolTableRecord
100
AcDbLinetypeTableRecord
  2
ACISOWELD
 70
     0
  3
_ _ _ _ _
 72
    65
 73
     2
 40
2.0
 49
2.0
 74
     0
 49
-1.0
 74
     0
  0
LTYPE
  5
3D2
330
4
100
AcDbSymbolTableRecord
100
AcDbLinetypeTableRecord
  2
ACISOTGB
 70
     0
  3
__ . . __ . .
 72
    65
 73
     6
 40
9.0
 49
4.0
 74
     0
 49
-1.0
 74
     0
 49
1.0
 74
     0
 49
-1.0
 74
     0
 49
1.0
 74
     0
 49
-1.0
 74
     0
  0
LTYPE
  5
3D3
330
4
100
AcDbSymbolTableRecord
100
AcDbLinetypeTableRecord
  2
ACISOTGL
 70
     0
  3
_ _ _ _ _
 72
    65
 73
     2
 40
3.0
 49
2.0
 74
     0
 49
-1.0
 74
     0
  0
ENDTAB
  0
TABLE
  2
LAYER
  5
2
330
0
100
AcDbSymbolTable
 70
     3
  0
LAYER
  5
14
330
2
100
AcDbSymbolTableRecord
100
AcDbLayerTableRecord
  2
0
 70
     0
 62
     7
  6
CONTINUOUS
370
    -3
390
2DF
  0
LAYER
  5
24
330
2
100
AcDbSymbolTableRecord
100
AcDbLayerTableRecord
  2
FORMAT
 70
     0
 62
     7
  6
CONTINUOUS
370
    -3
390
2DF
  0
LAYER
  5
25
330
2
100
AcDbSymbolTableRecord
100
AcDbLayerTableRecord
  2
1
 70
     0
 62
     7
  6
CONTINUOUS
370
    -3
390
2DF
  0
ENDTAB
  0
TABLE
  2
STYLE
  5
3
330
0
100
AcDbSymbolTable
 70
     5
  0
STYLE
  5
17
330
3
100
AcDbSymbolTableRecord
100
AcDbTextStyleTableRecord
  2
STANDARD
 70
     0
 40
0.0
 41
1.0
 50
0.0
 71
     0
 42
0.0
  3
txt
  4

  0
STYLE
  5
2D9
330
3
100
AcDbSymbolTableRecord
100
AcDbTextStyleTableRecord
  2
CONVERTER_1
 70
     0
 40
0.0
 41
0.9
 50
0.0
 71
     0
 42
0.0
  3
txt
  4

  0
STYLE
  5
3C1
330
3
100
AcDbSymbolTableRecord
100
AcDbTextStyleTableRecord
  2

 70
     1
 40
0.0
 41
1.0
 50
0.0
 71
     0
 42
0.2
  3
genltshp.shx
  4

  0
STYLE
  5
3C3
330
3
100
AcDbSymbolTableRecord
100
AcDbTextStyleTableRecord
  2
ACISOTS
 70
     0
 40
1.0
 41
1.0
 50
0.0
 71
     0
 42
0.2
  3
isocp.shx
  4
extfont.shx
  0
STYLE
  5
3D0
330
3
100
AcDbSymbolTableRecord
100
AcDbTextStyleTableRecord
  2
ACISOGDT
 70
     0
 40
0.0
 41
1.0
 50
0.0
 71
     0
 42
0.2
  3
AMGDT
  4

  0
ENDTAB
  0
TABLE
  2
VIEW
  5
5
330
0
100
AcDbSymbolTable
 70
     0
  0
ENDTAB
  0
TABLE
  2
UCS
  5
6
330
0
100
AcDbSymbolTable
 70
     0
  0
ENDTAB
  0
TABLE
  2
APPID
  5
8
330
0
100
AcDbSymbolTable
 70
    16
  0
APPID
  5
16
330
8
100
AcDbSymbolTableRecord
100
AcDbRegAppTableRecord
  2
ACAD
 70
     0
  0
APPID
  5
2ED
330
8
100
AcDbSymbolTableRecord
100
AcDbRegAppTableRecord
  2
GENIUS_GENDIM_13
 70
     0
  0
APPID
  5
2EE
330
8
100
AcDbSymbolTableRecord
100
AcDbRegAppTableRecord
  2
GENIUS_GENDTOL_13
 70
     0
  0
APPID
  5
2EF
330
8
100
AcDbSymbolTableRecord
100
AcDbRegAppTableRecord
  2
GENIUS_GE3DTOL_13
 70
     0
  0
APPID
  5
2F2
330
8
100
AcDbSymbolTableRecord
100
AcDbRegAppTableRecord
  2
MCAD_NO_VIS
 70
     0
  0
APPID
  5
2F3
330
8
100
AcDbSymbolTableRecord
100
AcDbRegAppTableRecord
  2
ACAD_TEMP_GRAPHIC
 70
     0
  0
APPID
  5
325
330
8
100
AcDbSymbolTableRecord
100
AcDbRegAppTableRecord
  2
AD_DRAW
 70
     0
  0
APPID
  5
328
330
8
100
AcDbSymbolTableRecord
100
AcDbRegAppTableRecord
  2
ACATTRIBSERVICES
 70
     0
  0
APPID
  5
374
330
8
100
AcDbSymbolTableRecord
100
AcDbRegAppTableRecord
  2
ASURF_PCURVE_APPNAME
 70
     0
  0
APPID
  5
379
330
8
100
AcDbSymbolTableRecord
100
AcDbRegAppTableRecord
  2
AMG_3D2D_5.0
 70
     0
  0
APPID
  5
3AA
330
8
100
AcDbSymbolTableRecord
100
AcDbRegAppTableRecord
  2
DESIGNERASSEMBLIES
 70
     0
  0
APPID
  5
3B1
330
8
100
AcDbSymbolTableRecord
100
AcDbRegAppTableRecord
  2
ACADM_DIM_EDIT
 70
     0
  0
APPID
  5
3B2
330
8
100
AcDbSymbolTableRecord
100
AcDbRegAppTableRecord
  2
AMDT_DM_ADJ
 70
     0
  0
APPID
  5
3E0
330
8
100
AcDbSymbolTableRecord
100
AcDbRegAppTableRecord
  2
ACAD_DSTYLE_DIMARC_LENGTH_SYMBOL
 70
     0
  0
APPID
  5
3E1
330
8
100
AcDbSymbolTableRecord
100
AcDbRegAppTableRecord
  2
ACAD_DSTYLE_DIMJOGGED_JOGANGLE_SYMBOL
 70
     0
  0
APPID
  5
40A
330
8
100
AcDbSymbolTableRecord
100
AcDbRegAppTableRecord
  2
DCO15
 70
     0
  0
ENDTAB
  0
TABLE
  2
DIMSTYLE
  5
9
330
0
100
AcDbSymbolTable
 70
     8
100
AcDbDimStyleTable
 71
     0
  0
DIMSTYLE
105
18
330
9
100
AcDbSymbolTableRecord
100
AcDbDimStyleTableRecord
  2
STANDARD
 70
     0
340
17
  0
DIMSTYLE
105
3DF
330
9
100
AcDbSymbolTableRecord
100
AcDbDimStyleTableRecord
  2
AM_ISO
 70
     0
  4
"
 41
2.5
 42
1.0
 43
10.0
 44
1.0
 47
0.1
 48
0.1
 73
     0
 74
     0
 77
     1
 78
     8
 79
     2
140
3.5
141
0.0
143
0.0393701
146
0.71
147
1.5
172
     1
176
   256
177
   256
178
     2
271
     2
272
     3
274
     4
283
     0
284
     8
340
17
371
    -1
372
    -1
1001
ACAD_DSTYLE_DIMARC_LENGTH_SYMBOL
1070
   379
1070
     1
1001
ACAD_DSTYLE_DIMJOGGED_JOGANGLE_SYMBOL
1070
   384
1040
0.7853981633974483
  0
DIMSTYLE
105
3E8
330
9
100
AcDbSymbolTableRecord
100
AcDbDimStyleTableRecord
  2
AM_ISO$3
 70
     0
  4
"
 41
2.5
 42
1.0
 43
10.0
 44
1.0
 47
0.1
 48
0.1
 73
     0
 77
     1
 78
     8
 79
     2
140
3.5
141
0.0
143
0.0393701
146
0.71
147
1.5
176
   256
177
   256
178
     2
271
     2
272
     3
274
     4
283
     0
284
     8
288
     1
289
     0
340
17
371
    -1
372
    -1
1001
ACAD_DSTYLE_DIMARC_LENGTH_SYMBOL
1070
   379
1070
     1
1001
ACAD_DSTYLE_DIMJOGGED_JOGANGLE_SYMBOL
1070
   384
1040
0.7853981633974483
  0
DIMSTYLE
105
3EB
330
9
100
AcDbSymbolTableRecord
100
AcDbDimStyleTableRecord
  2
AM_ISO$4
 70
     0
  4
"
 41
2.5
 42
1.0
 43
10.0
 44
1.0
 47
0.1
 48
0.1
 73
     0
 77
     1
 78
     8
 79
     2
140
3.5
141
0.0
143
0.0393701
146
0.71
147
1.5
176
   256
177
   256
178
     2
271
     2
272
     3
274
     4
283
     0
284
     8
288
     1
289
     0
340
17
371
    -1
372
    -1
1001
ACAD_DSTYLE_DIMARC_LENGTH_SYMBOL
1070
   379
1070
     1
1001
ACAD_DSTYLE_DIMJOGGED_JOGANGLE_SYMBOL
1070
   384
1040
0.7853981633974483
  0
DIMSTYLE
105
3EE
330
9
100
AcDbSymbolTableRecord
100
AcDbDimStyleTableRecord
  2
AM_ISO$6
 70
     0
  4
"
 41
2.5
 42
1.0
 43
10.0
 44
1.0
 47
0.1
 48
0.1
 73
     0
 74
     0
 78
     8
 79
     2
140
3.5
141
0.0
143
0.0393701
146
0.71
147
1.5
172
     1
176
   256
177
   256
178
     2
271
     2
272
     3
274
     4
283
     0
284
     8
340
17
371
    -1
372
    -1
1001
ACAD_DSTYLE_DIMARC_LENGTH_SYMBOL
1070
   379
1070
     1
1001
ACAD_DSTYLE_DIMJOGGED_JOGANGLE_SYMBOL
1070
   384
1040
0.7853981633974483
  0
DIMSTYLE
105
3F1
330
9
100
AcDbSymbolTableRecord
100
AcDbDimStyleTableRecord
  2
AM_ISO$7
 70
     0
  4
"
 41
2.5
 42
1.0
 43
10.0
 44
1.0
 47
0.1
 48
0.1
 73
     0
 74
     0
 77
     1
 78
     8
 79
     2
140
5.0
141
0.0
143
0.0393701
146
0.71
147
1.5
172
     1
176
   256
177
   256
178
     2
271
     2
272
     3
274
     4
283
     0
284
     8
340
17
371
    -1
372
    -1
1001
ACAD_DSTYLE_DIMARC_LENGTH_SYMBOL
1070
   379
1070
     1
1001
ACAD_DSTYLE_DIMJOGGED_JOGANGLE_SYMBOL
1070
   384
1040
0.7853981633974483
  0
DIMSTYLE
105
3F4
330
9
100
AcDbSymbolTableRecord
100
AcDbDimStyleTableRecord
  2
AM_ISO$SF
 70
     0
  4
"
 41
2.5
 42
1.0
 43
10.0
 44
1.0
 47
0.1
 48
0.1
 73
     0
 74
     0
 75
     1
 76
     1
 77
     1
 78
     8
 79
     2
140
3.5
141
0.0
143
0.0393701
146
0.71
147
1.5
172
     1
176
   256
177
   256
178
     2
271
     2
272
     3
274
     4
283
     0
284
     8
340
17
371
    -1
372
    -1
1001
ACAD_DSTYLE_DIMARC_LENGTH_SYMBOL
1070
   379
1070
     1
1001
ACAD_DSTYLE_DIMJOGGED_JOGANGLE_SYMBOL
1070
   384
1040
0.7853981633974483
  0
DIMSTYLE
105
3FB
330
9
100
AcDbSymbolTableRecord
100
AcDbDimStyleTableRecord
  2
AM_ISO$SH
 70
     0
  4
"
 41
2.5
 42
1.0
 43
10.0
 44
1.0
 47
0.1
 48
0.1
 73
     0
 74
     0
 75
     1
 76
     1
 77
     1
 78
     8
 79
     2
140
3.5
141
0.0
143
0.0393701
144
2.0
146
0.71
147
1.5
172
     1
173
     1
176
   256
177
   256
178
     2
271
     2
272
     3
274
     4
283
     0
284
     8
340
17
343
3F5
371
    -1
372
    -1
1001
ACAD_DSTYLE_DIMARC_LENGTH_SYMBOL
1070
   379
1070
     1
1001
ACAD_DSTYLE_DIMJOGGED_JOGANGLE_SYMBOL
1070
   384
1040
0.7853981633974483
  0
ENDTAB
  0
TABLE
  2
BLOCK_RECORD
  5
1
330
0
100
AcDbSymbolTable
 70
     2
  0
BLOCK_RECORD
  5
A
102
{ACAD_XDICTIONARY
360
40C
102
}
330
1
100
AcDbSymbolTableRecord
100
AcDbBlockTableRecord
  2
*MODEL_SPACE
340
2E6
  0
BLOCK_RECORD
  5
B
330
1
100
AcDbSymbolTableRecord
100
AcDbBlockTableRecord
  2
*PAPER_SPACE
340
2E7
  0
BLOCK_RECORD
  5
3F5
330
1
100
AcDbSymbolTableRecord
100
AcDbBlockTableRecord
  2
GENAXEH
340
0
  0
ENDTAB
  0
ENDSEC
  0
SECTION
  2
BLOCKS
  0
BLOCK
  5
D
330
A
100
AcDbEntity
  8
0
100
AcDbBlockBegin
  2
*MODEL_SPACE
 70
     0
 10
0.0
 20
0.0
 30
0.0
  3
*MODEL_SPACE
  1

  0
ENDBLK
  5
E
330
A
100
AcDbEntity
  8
0
100
AcDbBlockEnd
  0
BLOCK
  5
F
330
B
100
AcDbEntity
 67
     1
  8
0
100
AcDbBlockBegin
  2
*PAPER_SPACE
 70
     0
 10
0.0
 20
0.0
 30
0.0
  3
*PAPER_SPACE
  1

  0
ENDBLK
  5
10
330
B
100
AcDbEntity
 67
     1
  8
0
100
AcDbBlockEnd
  0
BLOCK
  5
3F7
330
3F5
100
AcDbEntity
  8
0
100
AcDbBlockBegin
  2
GENAXEH
 70
     0
 10
0.0
 20
0.0
 30
0.0
  3
GENAXEH
  1

  0
LINE
  5
3F6
330
3F5
100
AcDbEntity
  8
0
100
AcDbLine
 10
-1.0
 20
0.0
 30
0.0
 11
1.0
 21
0.0
 31
0.0
  0
ENDBLK
  5
3F8
330
3F5
100
AcDbEntity
  8
0
100
AcDbBlockEnd
  0
ENDSEC
  0
SECTION
  2
ENTITIES
  0
MTEXT
  5
2DA
330
A
100
AcDbEntity
  8
1
 62
     1
100
AcDbMText
 10
417.9069917316
 20
55.4640336469
 30
0.0
 40
3.174999999999999
 41
0.0
 71
     2
 72
     1
  1
LARGO S50 F-Strike
  7
CONVERTER_1
 73
     1
 44
1.0
1001
ACAD
1000
MTEXTBEGIN
1070
    73
1070
     1
1070
    44
1040
1.0
1070
    74
1070
     0
1000
MTEXTEND
  0
SPLINE
  5
2D8
330
A
100
AcDbEntity
  8
0
  6
Continuous
 62
     3
100
AcDbSpline
210
0.0
220
0.0
230
1.0
 70
     8
 71
     3
 72
    11
 73
     7
 74
     5
 42
0.0000000001
 43
0.0000000001
 44
0.00000000001
 40
0.0
 40
0.0
 40
0.0
 40
0.0
 40
0.0351278802075565
 40
0.067779482016189
 40
0.094289191863509
 40
0.1182495124535833
 40
0.1182495124535833
 40
0.1182495124535833
 40
0.1182495124535833
 10
175.400667423348
 20
152.884061152733
 30
0.0
 10
175.4093066135842
 20
152.8760938005321
 30
0.0
 10
175.4259759894702
 20
152.8607207406711
 30
0.0
 10
175.4540476291465
 20
152.8458802993274
 30
0.0
 10
175.4807730967799
 20
152.8377902575894
 30
0.0
 10
175.4976045710361
 20
152.8366781249697
 30
0.0
 10
175.5055952046
 20
152.8361501472
 30
0.0
 11
175.400667423348
 21
152.884061152733
 31
0.0
 11
175.4275277379211
 21
152.8614228783087
 31
0.0
 11
175.4563051463248
 21
152.8459960229507
 31
0.0
 11
175.481759485758
 21
152.8385905303805
 31
0.0
 11
175.5055952046
 21
152.8361501472
 31
0.0
  0
SPLINE
  5
2D7
330
A
100
AcDbEntity
  8
0
  6
Continuous
 62
     3
100
AcDbSpline
210
0.0
220
0.0
230
1.0
 70
     8
 71
     3
 72
    11
 73
     7
 74
     5
 42
0.0000000001
 43
0.0000000001
 44
0.00000000001
 40
0.0
 40
0.0
 40
0.0
 40
0.0
 40
0.0354077521836294
 40
0.0683792174861319
 40
0.0953133096885909
 40
0.1197389805071491
 40
0.1197389805071491
 40
0.1197389805071491
 40
0.1197389805071491
 10
174.461469788692
 20
147.468501007581
 30
0.0
 10
174.4636950204933
 20
147.4568662506176
 30
0.0
 10
174.4679923734715
 20
147.4343972847067
 30
0.0
 10
174.4818598646258
 20
147.4054535521462
 30
0.0
 10
174.4987435670852
 20
147.3827028231477
 30
0.0
 10
174.5118401523167
 20
147.3716050044097
 30
0.0
 10
174.518068624975
 20
147.366327104915
 30
0.0
 11
174.461469788692
 21
147.468501007581
 31
0.0
 11
174.4696608035603
 21
147.4340537117492
 31
0.0
 11
174.4837311564236
 21
147.4042352159035
 31
0.0
 11
174.5000196671655
 21
147.3827845809344
 31
0.0
 11
174.518068624975
 21
147.366327104915
 31
0.0
  0
SPLINE
  5
2D6
330
A
100
AcDbEntity
  8
0
  6
Continuous
 62
     3
100
AcDbSpline
210
0.0
220
0.0
230
1.0
 70
     8
 71
     3
 72
    13
 73
     9
 74
     7
 42
0.0000000001
 43
0.0000000001
 44
0.00000000001
 40
0.0
 40
0.0
 40
0.0
 40
0.0
 40
0.1422364369798914
 40
0.306493229103347
 40
0.5069664699287588
 40
0.6922338213481135
 40
0.9095218799131512
 40
1.150029103543502
 40
1.150029103543502
 40
1.150029103543502
 40
1.150029103543502
 10
394.5347272518529
 20
143.336148490147
 30
0.0
 10
394.5351136756914
 20
143.3835590613778
 30
0.0
 10
394.5359463476322
 20
143.4857200784753
 30
0.0
 10
394.5373386829655
 20
143.6547031598573
 30
0.0
 10
394.5387768166583
 20
143.8380300196267
 30
0.0
 10
394.5400741679871
 20
144.0390354259842
 30
0.0
 10
394.5413215782338
 20
144.2533860041213
 30
0.0
 10
394.5422357509279
 20
144.4059816941385
 30
0.0
 10
394.542716020483
 20
144.486149330572
 30
0.0
 11
394.5347272518529
 21
143.336148490147
 31
0.0
 11
394.5358884794745
 21
143.4783801868785
 31
0.0
 11
394.5372294827231
 21
143.6426315048915
 31
0.0
 11
394.538768295458
 21
143.8430988397428
 31
0.0
 11
394.5399872370348
 21
144.0283621811879
 31
0.0
 11
394.5412824274415
 21
144.2456463795935
 31
0.0
 11
394.542716020483
 21
144.486149330572
 31
0.0
  0
SPLINE
  5
2D5
330
A
100
AcDbEntity
  8
0
  6
Continuous
 62
     3
100
AcDbSpline
210
0.0
220
0.0
230
1.0
 70
     8
 71
     3
 72
    13
 73
     9
 74
     7
 42
0.0000000001
 43
0.0000000001
 44
0.00000000001
 40
0.0
 40
0.0
 40
0.0
 40
0.0
 40
0.8877679627665349
 40
1.609186837743223
 40
2.125483050332149
 40
2.751093644071482
 40
3.09829793572474
 40
3.300019187659834
 40
3.300019187659834
 40
3.300019187659834
 40
3.300019187659834
 10
391.789011350598
 20
155.786150623993
 30
0.0
 10
391.7881994357696
 20
155.4902290833076
 30
0.0
 10
391.7867277419148
 20
154.9538354892071
 30
0.0
 10
391.7849167546894
 20
154.2453434460828
 30
0.0
 10
391.7829293890284
 20
153.624237988332
 30
0.0
 10
391.7808265943157
 20
153.1278720164112
 30
0.0
 10
391.7790915980747
 20
152.7363638226183
 30
0.0
 10
391.7782871118854
 20
152.5533904094603
 30
0.0
 10
391.7779914762329
 20
152.486150641874
 30
0.0
 11
391.789011350598
 21
155.786150623993
 31
0.0
 11
391.7866062274728
 21
154.898385919188
 31
0.0
 11
391.7846517739537
 21
154.1769696916993
 31
0.0
 11
391.7829653178637
 21
153.6606762334805
 31
0.0
 11
391.7804072768794
 21
153.0350708695128
 31
0.0
 11
391.7788792438666
 21
152.6878699402837
 31
0.0
 11
391.7779914762329
 21
152.486150641874
 31
0.0
  0
SPLINE
  5
2D4
330
A
100
AcDbEntity
  8
0
  6
Continuous
 62
     3
100
AcDbSpline
210
0.0
220
0.0
230
1.0
 70
    24
 71
     3
 72
    41
 73
    37
 74
    35
 42
0.0000000001
 43
0.0000000001
 44
0.00000000001
 40
0.0
 40
0.0
 40
0.0
 40
0.0
 40
0.0007906459508717
 40
0.001279814629612
 40
0.0035894425150786
 40
0.0074330430887244
 40
0.0176089433875291
 40
0.0268070671754686
 40
0.0426974727247966
 40
0.0589684586598196
 40
0.0897540834715756
 40
0.1207731140244732
 40
0.1772199631550109
 40
0.2365224155697376
 40
0.3224043539681247
 40
0.4027722320848853
 40
0.5212702517883657
 40
0.6432053543065308
 40
0.8465185771134429
 40
1.058050060115363
 40
1.35628788418785
 40
1.661440924098002
 40
1.97701850282155
 40
2.283634473314151
 40
2.528223252507643
 40
2.760910494040444
 40
2.965526342642363
 40
3.178984883859044
 40
3.398648112124703
 40
3.617395145963797
 40
3.840018171159982
 40
4.072807201258086
 40
4.260592237319571
 40
4.429684923332217
 40
4.560730325279308
 40
4.700000000302964
 40
4.700000000302964
 40
4.700000000302964
 40
4.700000000302964
 10
387.421711826462
 20
156.086150146853
 30
0.0
 10
387.421711826462
 20
156.0864136955033
 30
0.0
 10
387.4217118264619
 20
156.0868403003798
 30
0.0
 10
387.4217118264621
 20
156.0880367812181
 30
0.0
 10
387.421711826462
 20
156.0902509135975
 30
0.0
 10
387.421711826462
 20
156.0956939565167
 30
0.0
 10
387.421711826462
 20
156.1034331647369
 30
0.0
 10
387.421711826462
 20
156.1151879746156
 30
0.0
 10
387.421711826462
 20
156.1289744797064
 30
0.0
 10
387.421711826462
 20
156.1499568184717
 30
0.0
 10
387.4217118264621
 20
156.1759820322383
 30
0.0
 10
387.4217118264619
 20
156.2153992004033
 30
0.0
 10
387.4217118264622
 20
156.2643219777694
 30
0.0
 10
387.421711826462
 20
156.331532391084
 30
0.0
 10
387.421711826462
 20
156.4067164807272
 30
0.0
 10
387.421711826462
 20
156.5016324261334
 30
0.0
 10
387.4217118264621
 20
156.608566092913
 30
0.0
 10
387.421711826462
 20
156.7564815412558
 30
0.0
 10
387.4217118264621
 20
156.9354081440315
 30
0.0
 10
387.421711826462
 20
157.1731023206585
 30
0.0
 10
387.421711826462
 20
157.4447431029867
 30
0.0
 10
387.421711826462
 20
157.7510659172221
 30
0.0
 10
387.4217118264619
 20
158.0601814469309
 30
0.0
 10
387.4217118264622
 20
158.3491088897341
 30
0.0
 10
387.421711826462
 20
158.6104062201404
 30
0.0
 10
387.421711826462
 20
158.8377035099165
 30
0.0
 10
387.421711826462
 20
159.0546240537003
 30
0.0
 10
387.4217118264621
 20
159.2672032597284
 30
0.0
 10
387.421711826462
 20
159.4844928608355
 30
0.0
 10
387.421711826462
 20
159.7048372899358
 30
0.0
 10
387.421711826462
 20
159.9295569863136
 30
0.0
 10
387.421711826462
 20
160.1439560167655
 30
0.0
 10
387.421711826462
 20
160.340511600823
 30
0.0
 10
387.4217118264619
 20
160.5031526421633
 30
0.0
 10
387.4217118264621
 20
160.6496218964911
 30
0.0
 10
387.421711826462
 20
160.7397269221481
 30
0.0
 10
387.421711826462
 20
160.786150147156
 30
0.0
 11
387.421711826462
 21
156.086150146853
 31
0.0
 11
387.421711826462
 21
156.0869407928039
 31
0.0
 11
387.421711826462
 21
156.0874299614826
 31
0.0
 11
387.421711826462
 21
156.0897395893681
 31
0.0
 11
387.421711826462
 21
156.0935831899417
 31
0.0
 11
387.421711826462
 21
156.1037590902405
 31
0.0
 11
387.421711826462
 21
156.1129572140285
 31
0.0
 11
387.421711826462
 21
156.1288476195778
 31
0.0
 11
387.421711826462
 21
156.1451186055128
 31
0.0
 11
387.421711826462
 21
156.1759042303246
 31
0.0
 11
387.421711826462
 21
156.2069232608775
 31
0.0
 11
387.4217118264621
 21
156.263370110008
 31
0.0
 11
387.421711826462
 21
156.3226725624227
 31
0.0
 11
387.421711826462
 21
156.4085545008211
 31
0.0
 11
387.421711826462
 21
156.4889223789379
 31
0.0
 11
387.421711826462
 21
156.6074203986414
 31
0.0
 11
387.421711826462
 21
156.7293555011595
 31
0.0
 11
387.421711826462
 21
156.9326687239664
 31
0.0
 11
387.421711826462
 21
157.1442002069684
 31
0.0
 11
387.421711826462
 21
157.4424380310408
 31
0.0
 11
387.421711826462
 21
157.747591070951
 31
0.0
 11
387.421711826462
 21
158.0631686496746
 31
0.0
 11
387.421711826462
 21
158.3697846201672
 31
0.0
 11
387.421711826462
 21
158.6143733993606
 31
0.0
 11
387.421711826462
 21
158.8470606408934
 31
0.0
 11
387.421711826462
 21
159.0516764894954
 31
0.0
 11
387.421711826462
 21
159.265135030712
 31
0.0
 11
387.421711826462
 21
159.4847982589777
 31
0.0
 11
387.421711826462
 21
159.7035452928168
 31
0.0
 11
387.421711826462
 21
159.926168318013
 31
0.0
 11
387.421711826462
 21
160.1589573481111
 31
0.0
 11
387.421711826462
 21
160.3467423841726
 31
0.0
 11
387.421711826462
 21
160.5158350701852
 31
0.0
 11
387.421711826462
 21
160.6468804721323
 31
0.0
 11
387.421711826462
 21
160.786150147156
 31
0.0
  0
SPLINE
  5
2D3
330
A
100
AcDbEntity
  8
0
  6
Continuous
 62
     3
100
AcDbSpline
210
0.0
220
0.0
230
1.0
 70
    24
 71
     3
 72
    29
 73
    25
 74
    23
 42
0.0000000001
 43
0.0000000001
 44
0.00000000001
 40
0.0
 40
0.0
 40
0.0
 40
0.0
 40
0.4957770727531568
 40
0.8753076672565782
 40
1.203926943054938
 40
1.63742116882716
 40
1.965273751282097
 40
2.185027899711201
 40
2.342093283396962
 40
2.576966257808635
 40
2.808006330924968
 40
2.973894678371237
 40
3.123309153232213
 40
3.331404234147754
 40
3.525410189007544
 40
3.664566735744443
 40
3.781193636293977
 40
3.943785854421548
 40
4.086492162814153
 40
4.183089140349125
 40
4.278007891990966
 40
4.417977309804683
 40
4.579019291451885
 40
4.700000000302964
 40
4.700000000302964
 40
4.700000000302964
 40
4.700000000302964
 10
398.421711826848
 20
160.786150147156
 30
0.0
 10
398.421711826848
 20
160.6208911229049
 30
0.0
 10
398.4217118268479
 20
160.329121900486
 30
0.0
 10
398.421711826848
 20
159.9278129194678
 30
0.0
 10
398.4217118268479
 20
159.5472648874431
 30
0.0
 10
398.4217118268479
 20
159.1839428594345
 30
0.0
 10
398.4217118268481
 20
158.8569092072159
 30
0.0
 10
398.4217118268479
 20
158.6220185023592
 30
0.0
 10
398.4217118268481
 20
158.4181210001837
 30
0.0
 10
398.421711826848
 20
158.2104615231124
 30
0.0
 10
398.421711826848
 20
157.999861058121
 30
0.0
 10
398.4217118268479
 20
157.8177467596465
 30
0.0
 10
398.421711826848
 20
157.6432807919056
 30
0.0
 10
398.421711826848
 20
157.4594422883601
 30
0.0
 10
398.4217118268479
 20
157.2790230941894
 30
0.0
 10
398.4217118268482
 20
157.129093293474
 30
0.0
 10
398.421711826848
 20
156.989634738336
 30
0.0
 10
398.421711826848
 20
156.8489929293127
 30
0.0
 10
398.421711826848
 20
156.7150277612944
 30
0.0
 10
398.4217118268479
 20
156.6036204154379
 30
0.0
 10
398.4217118268481
 20
156.4931253664411
 30
0.0
 10
398.421711826848
 20
156.3611486494068
 30
0.0
 10
398.4217118268481
 20
156.2204846133028
 30
0.0
 10
398.4217118268479
 20
156.1264770498033
 30
0.0
 10
398.421711826848
 20
156.086150146853
 30
0.0
 11
398.421711826848
 21
160.786150147156
 31
0.0
 11
398.421711826848
 21
160.2903730744028
 31
0.0
 11
398.421711826848
 21
159.9108424798994
 31
0.0
 11
398.421711826848
 21
159.582223204101
 31
0.0
 11
398.421711826848
 21
159.1487289783288
 31
0.0
 11
398.421711826848
 21
158.8208763958738
 31
0.0
 11
398.421711826848
 21
158.6011222474447
 31
0.0
 11
398.421711826848
 21
158.444056863759
 31
0.0
 11
398.421711826848
 21
158.2091838893473
 31
0.0
 11
398.421711826848
 21
157.978143816231
 31
0.0
 11
398.421711826848
 21
157.8122554687847
 31
0.0
 11
398.421711826848
 21
157.6628409939237
 31
0.0
 11
398.421711826848
 21
157.4547459130082
 31
0.0
 11
398.421711826848
 21
157.2607399581484
 31
0.0
 11
398.4217118268481
 21
157.1215834114115
 31
0.0
 11
398.4217118268481
 21
157.004956510862
 31
0.0
 11
398.421711826848
 21
156.8423642927344
 31
0.0
 11
398.421711826848
 21
156.6996579843418
 31
0.0
 11
398.421711826848
 21
156.6030610068068
 31
0.0
 11
398.421711826848
 21
156.508142255165
 31
0.0
 11
398.421711826848
 21
156.3681728373513
 31
0.0
 11
398.421711826848
 21
156.2071308557041
 31
0.0
 11
398.421711826848
 21
156.086150146853
 31
0.0
  0
SPLINE
  5
2D2
330
A
100
AcDbEntity
  8
0
  6
Continuous
 62
     3
100
AcDbSpline
210
0.0
220
0.0
230
1.0
 70
    24
 71
     3
 72
    29
 73
    25
 74
    23
 42
0.0000000001
 43
0.0000000001
 44
0.00000000001
 40
0.0
 40
0.0
 40
0.0
 40
0.0
 40
0.1209807088510217
 40
0.2820226904982519
 40
0.421992108312054
 40
0.516910859953839
 40
0.6135078374887542
 40
0.7562141458812448
 40
0.9188063640091002
 40
1.03543326455906
 40
1.174589811296243
 40
1.368595766155891
 40
1.576690847070892
 40
1.726105321931697
 40
1.891993669378024
 40
2.123033742494413
 40
2.357906716906086
 40
2.514972100591734
 40
2.73472624902098
 40
3.062578831476258
 40
3.496073057248992
 40
3.824692333047693
 40
4.204222927550659
 40
4.70000000030302
 40
4.70000000030302
 40
4.70000000030302
 40
4.70000000030302
 10
398.421711826848
 20
180.986150147459
 30
0.0
 10
398.4217118268479
 20
180.9458232445086
 30
0.0
 10
398.4217118268479
 20
180.8518156810092
 30
0.0
 10
398.4217118268481
 20
180.7111516449053
 30
0.0
 10
398.421711826848
 20
180.5791749278709
 30
0.0
 10
398.4217118268479
 20
180.4686798788741
 30
0.0
 10
398.421711826848
 20
180.3572725330177
 30
0.0
 10
398.4217118268479
 20
180.2233073649992
 30
0.0
 10
398.4217118268481
 20
180.0826655559758
 30
0.0
 10
398.421711826848
 20
179.9432070008375
 30
0.0
 10
398.421711826848
 20
179.7932772001219
 30
0.0
 10
398.421711826848
 20
179.6128580059514
 30
0.0
 10
398.4217118268479
 20
179.4290195024061
 30
0.0
 10
398.421711826848
 20
179.2545535346654
 30
0.0
 10
398.4217118268481
 20
179.072439236191
 30
0.0
 10
398.4217118268479
 20
178.8618387711994
 30
0.0
 10
398.4217118268481
 20
178.6541792941282
 30
0.0
 10
398.4217118268479
 20
178.4502817919527
 30
0.0
 10
398.4217118268481
 20
178.215391087096
 30
0.0
 10
398.4217118268479
 20
177.8883574348769
 30
0.0
 10
398.421711826848
 20
177.525035406868
 30
0.0
 10
398.421711826848
 20
177.1444873748432
 30
0.0
 10
398.421711826848
 20
176.7431783938252
 30
0.0
 10
398.4217118268479
 20
176.4514091714067
 30
0.0
 10
398.421711826848
 20
176.286150147156
 30
0.0
 11
398.421711826848
 21
180.986150147459
 31
0.0
 11
398.421711826848
 21
180.865169438608
 31
0.0
 11
398.421711826848
 21
180.7041274569607
 31
0.0
 11
398.421711826848
 21
180.5641580391469
 31
0.0
 11
398.421711826848
 21
180.4692392875051
 31
0.0
 11
398.421711826848
 21
180.3726423099702
 31
0.0
 11
398.421711826848
 21
180.2299360015777
 31
0.0
 11
398.4217118268481
 21
180.0673437834499
 31
0.0
 11
398.421711826848
 21
179.9507168828999
 31
0.0
 11
398.421711826848
 21
179.8115603361627
 31
0.0
 11
398.421711826848
 21
179.6175543813031
 31
0.0
 11
398.421711826848
 21
179.4094593003881
 31
0.0
 11
398.421711826848
 21
179.2600448255273
 31
0.0
 11
398.421711826848
 21
179.0941564780809
 31
0.0
 11
398.421711826848
 21
178.8631164049646
 31
0.0
 11
398.421711826848
 21
178.6282434305529
 31
0.0
 11
398.421711826848
 21
178.4711780468672
 31
0.0
 11
398.4217118268481
 21
178.251423898438
 31
0.0
 11
398.421711826848
 21
177.9235713159827
 31
0.0
 11
398.421711826848
 21
177.49007709021
 31
0.0
 11
398.421711826848
 21
177.1614578144113
 31
0.0
 11
398.421711826848
 21
176.7819272199083
 31
0.0
 11
398.421711826848
 21
176.286150147156
 31
0.0
  0
SPLINE
  5
2D1
330
A
100
AcDbEntity
  8
0
  6
Continuous
 62
     3
100
AcDbSpline
210
0.0
220
0.0
230
1.0
 70
    24
 71
     3
 72
    41
 73
    37
 74
    35
 42
0.0000000001
 43
0.0000000001
 44
0.00000000001
 40
0.0
 40
0.0
 40
0.0
 40
0.0
 40
0.0697219948648069
 40
0.1354635988693076
 40
0.2195286896992172
 40
0.3126366542796859
 40
0.4247495759994138
 40
0.5274483826681263
 40
0.6458190278817995
 40
0.7696838644292257
 40
0.9345198746960647
 40
1.099308386338805
 40
1.303112540252129
 40
1.511663433287566
 40
1.731902913702697
 40
1.938817775253312
 40
2.171592657900561
 40
2.416221934972668
 40
2.722863370761587
 40
3.038510326235638
 40
3.343687146164398
 40
3.641894511225814
 40
3.853384847946017
 40
4.056704561966228
 40
4.17863236773087
 40
4.297071814377488
 40
4.376874805379458
 40
4.461086655736323
 40
4.523907433068444
 40
4.585947300561201
 40
4.627121981009111
 40
4.670061071499219
 40
4.685600820011899
 40
4.694907812508404
 40
4.696846119682817
 40
4.70000000030302
 40
4.70000000030302
 40
4.70000000030302
 40
4.70000000030302
 10
387.421711826462
 20
176.286150147156
 30
0.0
 10
387.4217118264621
 20
176.3093908121109
 30
0.0
 10
387.4217118264622
 20
176.3545453450673
 30
0.0
 10
387.4217118264618
 20
176.4277215749671
 30
0.0
 10
387.4217118264621
 20
176.5086931281054
 30
0.0
 10
387.421711826462
 20
176.6051217871488
 30
0.0
 10
387.4217118264617
 20
176.7077616848051
 30
0.0
 10
387.4217118264621
 20
176.8188224760057
 30
0.0
 10
387.421711826462
 20
176.933800572149
 30
0.0
 10
387.4217118264621
 20
177.0694910694917
 30
0.0
 10
387.421711826462
 20
177.2206541889773
 30
0.0
 10
387.4217118264621
 20
177.398463747585
 30
0.0
 10
387.4217118264619
 20
177.5908449337821
 30
0.0
 10
387.421711826462
 20
177.8017097762367
 30
0.0
 10
387.4217118264621
 20
178.0136115212371
 30
0.0
 10
387.421711826462
 20
178.2335879294414
 30
0.0
 10
387.4217118264621
 20
178.4616942698648
 30
0.0
 10
387.421711826462
 20
178.7230428017009
 30
0.0
 10
387.421711826462
 20
179.0120153578126
 30
0.0
 10
387.4217118264621
 20
179.3211704282099
 30
0.0
 10
387.421711826462
 20
179.6275141416979
 30
0.0
 10
387.4217118264621
 20
179.899138982268
 30
0.0
 10
387.421711826462
 20
180.136811454202
 30
0.0
 10
387.421711826462
 20
180.315724073037
 30
0.0
 10
387.4217118264619
 20
180.4636197285141
 30
0.0
 10
387.421711826462
 20
180.5703431429852
 30
0.0
 10
387.4217118264618
 20
180.6644945723204
 30
0.0
 10
387.421711826462
 20
180.7401064452173
 30
0.0
 10
387.421711826462
 20
180.8097972769446
 30
0.0
 10
387.421711826462
 20
180.8651423853689
 30
0.0
 10
387.4217118264619
 20
180.9138602648458
 30
0.0
 10
387.4217118264622
 20
180.9470781046627
 30
0.0
 10
387.4217118264617
 20
180.9696733818292
 30
0.0
 10
387.4217118264622
 20
180.9786017312237
 30
0.0
 10
387.421711826462
 20
180.9834014579874
 30
0.0
 10
387.421711826462
 20
180.9850988539189
 30
0.0
 10
387.421711826462
 20
180.986150147459
 30
0.0
 11
387.421711826462
 21
176.286150147156
 31
0.0
 11
387.4217118264621
 21
176.3558721420208
 31
0.0
 11
387.421711826462
 21
176.4216137460253
 31
0.0
 11
387.421711826462
 21
176.5056788368552
 31
0.0
 11
387.421711826462
 21
176.5987868014356
 31
0.0
 11
387.4217118264618
 21
176.7108997231554
 31
0.0
 11
387.421711826462
 21
176.8135985298241
 31
0.0
 11
387.421711826462
 21
176.9319691750377
 31
0.0
 11
387.421711826462
 21
177.0558340115852
 31
0.0
 11
387.421711826462
 21
177.220670021852
 31
0.0
 11
387.421711826462
 21
177.3854585334948
 31
0.0
 11
387.421711826462
 21
177.5892626874081
 31
0.0
 11
387.421711826462
 21
177.7978135804435
 31
0.0
 11
387.421711826462
 21
178.0180530608586
 31
0.0
 11
387.421711826462
 21
178.2249679224093
 31
0.0
 11
387.421711826462
 21
178.4577428050565
 31
0.0
 11
387.421711826462
 21
178.7023720821286
 31
0.0
 11
387.421711826462
 21
179.0090135179175
 31
0.0
 11
387.421711826462
 21
179.3246604733916
 31
0.0
 11
387.421711826462
 21
179.6298372933204
 31
0.0
 11
387.421711826462
 21
179.9280446583818
 31
0.0
 11
387.421711826462
 21
180.139534995102
 31
0.0
 11
387.421711826462
 21
180.3428547091222
 31
0.0
 11
387.421711826462
 21
180.4647825148868
 31
0.0
 11
387.421711826462
 21
180.5832219615334
 31
0.0
 11
387.421711826462
 21
180.6630249525354
 31
0.0
 11
387.421711826462
 21
180.7472368028923
 31
0.0
 11
387.421711826462
 21
180.8100575802244
 31
0.0
 11
387.421711826462
 21
180.8720974477172
 31
0.0
 11
387.421711826462
 21
180.9132721281651
 31
0.0
 11
387.421711826462
 21
180.9562112186552
 31
0.0
 11
387.421711826462
 21
180.9717509671679
 31
0.0
 11
387.421711826462
 21
180.9810579596644
 31
0.0
 11
387.421711826462
 21
180.9829962668388
 31
0.0
 11
387.421711826462
 21
180.986150147459
 31
0.0
  0
SPLINE
  5
2D0
330
A
100
AcDbEntity
  8
0
  6
Continuous
 62
     3
100
AcDbSpline
210
0.0
220
0.0
230
1.0
 70
    24
 71
     3
 72
    13
 73
     9
 74
     7
 42
0.0000000001
 43
0.0000000001
 44
0.00000000001
 40
0.0
 40
0.0
 40
0.0
 40
0.0
 40
0.2401414097704446
 40
0.4572406806217373
 40
0.6425429470682503
 40
0.8429358480132691
 40
1.007398846136567
 40
1.150000840425008
 40
1.150000840425008
 40
1.150000840425008
 40
1.150000840425008
 10
394.621711849
 20
144.486149330572
 30
0.0
 10
394.621711849
 20
144.4061021939818
 30
0.0
 10
394.6217118489999
 20
144.2536886337746
 30
0.0
 10
394.6217118490001
 20
144.0395076514185
 30
0.0
 10
394.6217118490001
 20
143.8385761720042
 30
0.0
 10
394.6217118489999
 20
143.6551901168326
 30
0.0
 10
394.621711849
 20
143.4860374857137
 30
0.0
 10
394.6217118489999
 20
143.3836824882431
 30
0.0
 10
394.621711849
 20
143.336148490147
 30
0.0
 11
394.621711849
 21
144.486149330572
 31
0.0
 11
394.621711849
 21
144.2460079208015
 31
0.0
 11
394.621711849
 21
144.0289086499502
 31
0.0
 11
394.6217118490001
 21
143.8436063835037
 31
0.0
 11
394.621711849
 21
143.6432134825587
 31
0.0
 11
394.621711849
 21
143.4787504844354
 31
0.0
 11
394.621711849
 21
143.336148490147
 31
0.0
  0
SPLINE
  5
2CF
330
A
100
AcDbEntity
  8
0
  6
Continuous
 62
     3
100
AcDbSpline
210
0.0
220
0.0
230
1.0
 70
     8
 71
     3
 72
    17
 73
    13
 74
    11
 42
0.0000000001
 43
0.0000000001
 44
0.00000000001
 40
0.0
 40
0.0
 40
0.0
 40
0.0
 40
0.2283461526110774
 40
0.4376268149501292
 40
0.6760245317902737
 40
0.9513256663360186
 40
1.235587454475043
 40
1.499953814912328
 40
1.6596427573796
 40
1.812696662810731
 40
1.879663959028661
 40
1.932733303841166
 40
1.932733303841166
 40
1.932733303841166
 40
1.932733303841166
 10
393.23399947793
 20
143.336148490147
 30
0.0
 10
393.1583077850639
 20
143.3442532915394
 30
0.0
 10
393.0132441871517
 20
143.359786193577
 30
0.0
 10
392.7884179152238
 20
143.3751703328316
 30
0.0
 10
392.5513575061984
 20
143.4310188510421
 30
0.0
 10
392.3178982356196
 20
143.5636040043261
 30
0.0
 10
392.0999237796723
 20
143.732027569243
 30
0.0
 10
391.9426520387582
 20
143.9104317836011
 30
0.0
 10
391.8403612884593
 20
144.074010829233
 30
0.0
 10
391.7894471941242
 20
144.19032829206
 30
0.0
 10
391.7592740906973
 20
144.2762016676659
 30
0.0
 10
391.7455804359708
 20
144.3137989172842
 30
0.0
 10
391.7395263405031
 20
144.330421020226
 30
0.0
 11
393.23399947793
 21
143.336148490147
 31
0.0
 11
393.0067941335916
 21
143.358945352131
 31
0.0
 11
392.798559029096
 21
143.3798388172529
 31
0.0
 11
392.5673659757517
 21
143.4380044727547
 31
0.0
 11
392.3243143937228
 21
143.5672973308537
 31
0.0
 11
392.1009227686348
 21
143.7430839800525
 31
0.0
 11
391.92679168909
 21
143.9420008965463
 31
0.0
 11
391.8427044514751
 21
144.0777576452427
 31
0.0
 11
391.7804167107188
 21
144.2175637084846
 31
0.0
 11
391.7576043634954
 21
144.2805257254226
 31
0.0
 11
391.7395263405031
 21
144.330421020226
 31
0.0
  0
SPLINE
  5
2CE
330
A
100
AcDbEntity
  8
0
  6
Continuous
 62
     3
100
AcDbSpline
210
0.0
220
0.0
230
1.0
 70
     8
 71
     3
 72
    15
 73
    11
 74
     9
 42
0.0000000001
 43
0.0000000001
 44
0.00000000001
 40
0.0
 40
0.0
 40
0.0
 40
0.0
 40
0.1542937377981159
 40
0.3182366956594596
 40
0.5153505739324613
 40
0.7320622693103449
 40
0.8741433356788498
 40
0.9809478341672111
 40
1.025515506801352
 40
1.076812627120062
 40
1.076812627120062
 40
1.076812627120062
 40
1.076812627120062
 10
391.3687676384559
 20
144.486149330572
 30
0.0
 10
391.3505489100172
 20
144.4380403138737
 30
0.0
 10
391.3129720905026
 20
144.3388136393242
 30
0.0
 10
391.247120123846
 20
144.1802985485853
 30
0.0
 10
391.1979845109487
 20
143.9918589374744
 30
0.0
 10
391.2067441054897
 20
143.8049862751161
 30
0.0
 10
391.2242982385182
 20
143.6509881009649
 30
0.0
 10
391.2262679348503
 20
143.5529865400518
 30
0.0
 10
391.2233305678098
 20
143.4854968016382
 30
0.0
 10
391.2222404234743
 20
143.4535599329045
 30
0.0
 10
391.2216570887231
 20
143.436470557884
 30
0.0
 11
391.3687676384559
 21
144.486149330572
 31
0.0
 11
391.3133856162355
 21
144.3421375632108
 31
0.0
 11
391.2545401137238
 21
144.1891195895395
 31
0.0
 11
391.2091153473505
 21
143.9973111653039
 31
0.0
 11
391.2107925721248
 21
143.7806059604042
 31
0.0
 11
391.2231146389209
 21
143.6390602218944
 31
0.0
 11
391.2250876566452
 21
143.5322739489076
 31
0.0
 11
391.223492780952
 21
143.4877348221139
 31
0.0
 11
391.2216570887231
 21
143.436470557884
 31
0.0
  0
SPLINE
  5
2CD
330
A
100
AcDbEntity
  8
0
  6
Continuous
 62
     6
100
AcDbSpline
210
0.0
220
0.0
230
1.0
 70
    24
 71
     3
 72
    19
 73
    15
 74
    13
 42
0.0000000001
 43
0.0000000001
 44
0.00000000001
 40
0.0
 40
0.0
 40
0.0
 40
0.0
 40
0.1639204389531415
 40
0.3165672430210975
 40
0.5344406383102296
 40
0.7913643071978527
 40
1.08131072465062
 40
1.347760584073114
 40
1.522664782229298
 40
1.697391774022491
 40
1.780702520516911
 40
1.85442962722891
 40
1.868020767715165
 40
1.873499248175903
 40
1.873499248175903
 40
1.873499248175903
 40
1.873499248175903
 10
398.1482126244791
 20
152.486150641874
 30
0.0
 10
398.2028527707968
 20
152.486150641874
 30
0.0
 10
398.3083751851371
 20
152.4861506418739
 30
0.0
 10
398.486522064574
 20
152.4861506418741
 30
0.0
 10
398.6956700206554
 20
152.486150641874
 30
0.0
 10
398.950584514532
 20
152.486150641874
 30
0.0
 10
399.2216911631197
 20
152.486150641874
 30
0.0
 10
399.4654579881301
 20
152.486150641874
 30
0.0
 10
399.6708183379208
 20
152.486150641874
 30
0.0
 10
399.8151323167351
 20
152.486150641874
 30
0.0
 10
399.925720598402
 20
152.4861506418741
 30
0.0
 10
399.9825969296324
 20
152.4861506418739
 30
0.0
 10
400.0135291721859
 20
152.4861506418741
 30
0.0
 10
400.0198857125013
 20
152.486150641874
 30
0.0
 10
400.0217118726549
 20
152.486150641874
 30
0.0
 11
398.1482126244791
 21
152.486150641874
 31
0.0
 11
398.3121330634322
 21
152.4861506418739
 31
0.0
 11
398.4647798675002
 21
152.486150641874
 31
0.0
 11
398.6826532627893
 21
152.486150641874
 31
0.0
 11
398.9395769316769
 21
152.486150641874
 31
0.0
 11
399.2295233491297
 21
152.486150641874
 31
0.0
 11
399.4959732085522
 21
152.486150641874
 31
0.0
 11
399.6708774067084
 21
152.486150641874
 31
0.0
 11
399.8456043985015
 21
152.486150641874
 31
0.0
 11
399.928915144996
 21
152.486150641874
 31
0.0
 11
400.002642251708
 21
152.486150641874
 31
0.0
 11
400.0162333921942
 21
152.486150641874
 31
0.0
 11
400.0217118726549
 21
152.486150641874
 31
0.0
  0
SPLINE
  5
2CC
330
A
100
AcDbEntity
  8
0
  6
Continuous
 62
     3
100
AcDbSpline
210
0.0
220
0.0
230
1.0
 70
     8
 71
     3
 72
    15
 73
    11
 74
     9
 42
0.0000000001
 43
0.0000000001
 44
0.00000000001
 40
0.0
 40
0.0
 40
0.0
 40
0.0
 40
0.1556439463559817
 40
0.3342357565887814
 40
0.731337836201517
 40
1.18462172549848
 40
1.761641559313972
 40
2.283097519935017
 40
2.780950317683516
 40
3.29999999297094
 40
3.29999999297094
 40
3.29999999297094
 40
3.29999999297094
 10
391.221754062686
 20
155.786150623993
 30
0.0
 10
391.221752825954
 20
155.7342693085541
 30
0.0
 10
391.2217501701484
 20
155.6228573897194
 30
0.0
 10
391.2217418767122
 20
155.3790781111569
 30
0.0
 10
391.2217527245459
 20
155.0360855173561
 30
0.0
 10
391.2218287923376
 20
154.560283588781
 30
0.0
 10
391.2219122426139
 20
154.0430303671094
 30
0.0
 10
391.221931989433
 20
153.5109208357169
 30
0.0
 10
391.2219232157621
 20
152.9981346913394
 30
0.0
 10
391.221921904424
 20
152.6591672003114
 30
0.0
 10
391.221921235088
 20
152.486150641874
 30
0.0
 11
391.221754062686
 21
155.786150623993
 31
0.0
 11
391.2217501064832
 21
155.6305066776873
 31
0.0
 11
391.2217455669853
 21
155.4519148675122
 31
0.0
 11
391.2217600592808
 21
155.0548127881639
 31
0.0
 11
391.221822295432
 21
154.6015289031394
 31
0.0
 11
391.2219026799024
 21
154.0245090749231
 31
0.0
 11
391.2219274600456
 21
153.5030531148909
 31
0.0
 11
391.2219244124448
 21
153.0052003171517
 31
0.0
 11
391.221921235088
 21
152.486150641874
 31
0.0
  0
SPLINE
  5
2CB
330
A
100
AcDbEntity
  8
0
  6
Continuous
 62
     3
100
AcDbSpline
210
0.0
220
0.0
230
1.0
 70
     8
 71
     3
 72
    21
 73
    17
 74
    15
 42
0.0000000001
 43
0.0000000001
 44
0.00000000001
 40
0.0
 40
0.0
 40
0.0
 40
0.0
 40
0.0064229153522327
 40
0.0117663950667704
 40
0.0153850067627631
 40
0.0183801733901961
 40
0.0270137062412385
 40
0.0387999392089195
 40
0.0640339787621622
 40
0.0883612309968264
 40
0.1210679151131905
 40
0.1572262509399487
 40
0.1851690320935378
 40
0.2073149118329233
 40
0.2199245506088654
 40
0.2340292369812583
 40
0.2340292369812583
 40
0.2340292369812583
 40
0.2340292369812583
 10
198.4985826524209
 20
97.4952904529719
 30
0.0
 10
198.4972437950786
 20
97.49361967498263
 30
0.0
 10
198.4947910888597
 20
97.49055891007877
 30
0.0
 10
198.4915878858532
 20
97.48655489171657
 30
0.0
 10
198.489088434995
 20
97.48344805073498
 30
0.0
 10
198.4856531526563
 20
97.47970074668678
 30
0.0
 10
198.4809226607842
 20
97.47346002387391
 30
0.0
 10
198.4732647296003
 20
97.46030935161076
 30
0.0
 10
198.4644154272355
 20
97.44164785429399
 30
0.0
 10
198.4595819487632
 20
97.41458037874437
 30
0.0
 10
198.4523849069467
 20
97.38408479561249
 30
0.0
 10
198.4348447617184
 20
97.35648085865664
 30
0.0
 10
198.4167233589693
 20
97.33411669000297
 30
0.0
 10
198.4006019611246
 20
97.32056825694051
 30
0.0
 10
198.3866799345886
 20
97.31210340835657
 30
0.0
 10
198.3792028313574
 20
97.30726762896376
 30
0.0
 10
198.375255054445
 20
97.30471442384541
 30
0.0
 11
198.4985826524209
 21
97.4952904529719
 31
0.0
 11
198.4945669470965
 21
97.490277674065
 31
0.0
 11
198.4912261215114
 21
97.48610734315851
 31
0.0
 11
198.4889258986236
 21
97.48331389989392
 31
0.0
 11
198.4869414557608
 21
97.48107046287664
 31
0.0
 11
198.4816847641592
 21
97.4742217343161
 31
0.0
 11
198.4756085992281
 21
97.46412245180204
 31
0.0
 11
198.4653830636828
 21
97.44105309604627
 31
0.0
 11
198.4598825573633
 21
97.41735584659579
 31
0.0
 11
198.4510366302754
 21
97.38586812264118
 31
0.0
 11
198.4327662556821
 21
97.35466525959976
 31
0.0
 11
198.4147724672634
 21
97.33328717275968
 31
0.0
 11
198.3977575187556
 21
97.3191121413062
 31
0.0
 11
198.3871359535486
 21
97.31231616142
 31
0.0
 11
198.375255054445
 21
97.30471442384541
 31
0.0
  0
SPLINE
  5
2CA
330
A
100
AcDbEntity
  8
0
  6
Continuous
 62
     3
100
AcDbSpline
210
0.0
220
0.0
230
1.0
 70
     8
 71
     3
 72
    21
 73
    17
 74
    15
 42
0.0000000001
 43
0.0000000001
 44
0.00000000001
 40
0.0
 40
0.0
 40
0.0
 40
0.0
 40
0.098145373091349
 40
0.1849619492342977
 40
0.268796234552349
 40
0.3638369253645353
 40
0.4540099521059437
 40
0.5358961768237637
 40
0.5951173585006464
 40
0.6545499623913841
 40
0.7140015114909002
 40
0.780454653053995
 40
0.8259987947514979
 40
0.8610490338384018
 40
0.8868244189478524
 40
0.9190093349189519
 40
0.9190093349189519
 40
0.9190093349189519
 40
0.9190093349189519
 10
198.4985826524209
 20
97.4952904529719
 30
0.0
 10
198.473882401169
 20
97.51674265564147
 30
0.0
 10
198.4273330175943
 20
97.55717086021352
 30
0.0
 10
198.3590391089449
 20
97.61517074620972
 30
0.0
 10
198.2940440913563
 20
97.67542470620966
 30
0.0
 10
198.2331318919568
 20
97.741339000126
 30
0.0
 10
198.1751459242468
 20
97.80890196604373
 30
0.0
 10
198.1268996669444
 20
97.86907673778523
 30
0.0
 10
198.0880865034569
 20
97.92354038900237
 30
0.0
 10
198.0564464837576
 20
97.97381896568211
 30
0.0
 10
198.0277847262996
 20
98.02867612333415
 30
0.0
 10
198.0048478000353
 20
98.08083464002869
 30
0.0
 10
197.9885895968182
 20
98.12775383249695
 30
0.0
 10
197.9906331056833
 20
98.16400711810016
 30
0.0
 10
198.000687794249
 20
98.19338520822894
 30
0.0
 10
198.0058618203599
 20
98.21199900433368
 30
0.0
 10
198.008734917851
 20
98.2223351042567
 30
0.0
 11
198.4985826524209
 21
97.4952904529719
 31
0.0
 11
198.424356748817
 21
97.55950127365984
 31
0.0
 11
198.3586986478893
 21
97.61630032009328
 31
0.0
 11
198.2975016191901
 21
97.67359875875596
 31
0.0
 11
198.2324836240291
 21
97.74291970231054
 31
0.0
 11
198.1737481070414
 21
97.81133982943627
 31
0.0
 11
198.1228873532268
 21
97.87551566227033
 31
0.0
 11
198.0885972577184
 21
97.92379959033373
 31
0.0
 11
198.057133254825
 21
97.97422032939174
 31
0.0
 11
198.0294531940747
 21
98.02683497494971
 31
0.0
 11
198.0029660372918
 21
98.08778126728292
 31
0.0
 11
197.9907694000365
 21
98.13166191088148
 31
0.0
 11
197.9926066613701
 21
98.16666396411898
 31
0.0
 11
197.9997790192457
 21
98.1914213420101
 31
0.0
 11
198.008734917851
 21
98.2223351042567
 31
0.0
  0
SPLINE
  5
2C9
330
A
100
AcDbEntity
  8
0
  6
Continuous
 62
     3
100
AcDbSpline
210
0.0
220
0.0
230
1.0
 70
     8
 71
     3
 72
    17
 73
    13
 74
    11
 42
0.0000000001
 43
0.0000000001
 44
0.00000000001
 40
0.0
 40
0.0
 40
0.0
 40
0.0
 40
0.0020416041452858
 40
0.003989965358207
 40
0.0070177334451558
 40
0.0100395820703613
 40
0.0173942263085724
 40
0.0263250369192695
 40
0.0376273565702463
 40
0.0469806700110864
 40
0.0575462551953118
 40
0.0702076737198256
 40
0.0702076737198256
 40
0.0702076737198256
 40
0.0702076737198256
 10
197.941970265122
 20
98.20068185439692
 30
0.0
 10
197.9426019887138
 20
98.2009349450136
 30
0.0
 10
197.9438365841928
 20
98.20142956724259
 30
0.0
 10
197.946006158115
 20
98.20230416213107
 30
0.0
 10
197.9484897774762
 20
98.20327396368378
 30
0.0
 10
197.9526957572118
 20
98.20478297614805
 30
0.0
 10
197.9588073901696
 20
98.20680204888232
 30
0.0
 10
197.9675883797829
 20
98.2095334789416
 30
0.0
 10
197.9770212716596
 20
98.2124114935225
 30
0.0
 10
197.9869572842532
 20
98.21550723427066
 30
0.0
 10
197.9973190617948
 20
98.21875920794559
 30
0.0
 10
198.0047074091908
 20
98.22107352971599
 30
0.0
 10
198.008734917851
 20
98.2223351042567
 30
0.0
 11
197.941970265122
 21
98.20068185439692
 31
0.0
 11
197.9438651546962
 21
98.20144181557207
 31
0.0
 11
197.9456735019987
 21
98.20216706825165
 31
0.0
 11
197.9484965381634
 21
98.20326152994635
 31
0.0
 11
197.9513386495933
 21
98.20428816120152
 31
0.0
 11
197.9583142670585
 21
98.20661873041281
 31
0.0
 11
197.9668356427548
 21
98.20929184365525
 31
0.0
 11
197.9776390806503
 21
98.21261271088104
 31
0.0
 11
197.9865705726283
 21
98.21538992591948
 31
0.0
 11
197.9966527717978
 21
98.21854917427808
 31
0.0
 11
198.008734917851
 21
98.2223351042567
 31
0.0
  0
SPLINE
  5
2C8
330
A
100
AcDbEntity
  8
0
  6
Continuous
 62
     3
100
AcDbSpline
210
0.0
220
0.0
230
1.0
 70
     8
 71
     3
 72
    13
 73
     9
 74
     7
 42
0.0000000001
 43
0.0000000001
 44
0.00000000001
 40
0.0
 40
0.0
 40
0.0
 40
0.0
 40
0.0473724335437544
 40
0.0948618177973643
 40
0.1383840768646913
 40
0.1809927069495886
 40
0.2206014801893248
 40
0.2603496706863738
 40
0.2603496706863738
 40
0.2603496706863738
 40
0.2603496706863738
 10
198.008734917851
 20
98.2223351042567
 30
0.0
 10
198.0229049111852
 20
98.22930911886606
 30
0.0
 10
198.0512798800291
 20
98.24327436518551
 30
0.0
 10
198.0929818168427
 20
98.26292172600085
 30
0.0
 10
198.1321059339437
 20
98.28457627926955
 30
0.0
 10
198.1642862188337
 20
98.31171165540796
 30
0.0
 10
198.1933397142117
 20
98.34011876996974
 30
0.0
 10
198.2125820555076
 20
98.35827490490864
 30
0.0
 10
198.222220128985
 20
98.36736892106372
 30
0.0
 11
198.008734917851
 21
98.2223351042567
 31
0.0
 11
198.0512976595538
 21
98.24313319259665
 31
0.0
 11
198.0939654780383
 21
98.2639826262234
 31
0.0
 11
198.1315625383373
 21
98.28590631412495
 31
0.0
 11
198.1646627388887
 21
98.31273674612228
 31
0.0
 11
198.1933908744579
 21
98.34000484367745
 31
0.0
 11
198.222220128985
 21
98.36736892106372
 31
0.0
  0
SPLINE
  5
2C7
330
A
100
AcDbEntity
  8
0
  6
Continuous
 62
     3
100
AcDbSpline
210
0.0
220
0.0
230
1.0
 70
     8
 71
     3
 72
    17
 73
    13
 74
    11
 42
0.0000000001
 43
0.0000000001
 44
0.00000000001
 40
0.0
 40
0.0
 40
0.0
 40
0.0
 40
0.2761686085708276
 40
0.5391388519265512
 40
0.8515037351029604
 40
1.19591327148299
 40
1.570994595974862
 40
1.937320127434761
 40
2.18354997919369
 40
2.404239417607343
 40
2.553657593070707
 40
2.712084899750137
 40
2.712084899750137
 40
2.712084899750137
 40
2.712084899750137
 10
197.942029869766
 20
98.2006812723203
 30
0.0
 10
197.8499820185142
 20
98.20192155169696
 30
0.0
 10
197.6702853719511
 20
98.20434283629793
 30
0.0
 10
197.3864746934435
 20
98.2080238669465
 30
0.0
 10
197.0799277001577
 20
98.21267620115657
 30
0.0
 10
196.7360406873538
 20
98.21939407910051
 30
0.0
 10
196.3741836724521
 20
98.22708596489404
 30
0.0
 10
196.0450525078286
 20
98.23439493572323
 30
0.0
 10
195.7673771443385
 20
98.24075864457611
 30
0.0
 10
195.5619860206583
 20
98.24549917449671
 30
0.0
 10
195.3858553712985
 20
98.24959676534845
 30
0.0
 10
195.2832678803614
 20
98.25197960144317
 30
0.0
 10
195.230473017903
 20
98.25320588646809
 30
0.0
 11
197.942029869766
 21
98.2006812723203
 31
0.0
 11
197.6658860085886
 21
98.20437833791
 31
0.0
 11
197.4029393299244
 21
98.20789871715531
 31
0.0
 11
197.0906118089015
 21
98.21272985093102
 31
0.0
 11
196.7462647352519
 21
98.21928893763761
 31
0.0
 11
196.3712670183636
 21
98.2272080481386
 31
0.0
 11
196.0050316592025
 21
98.23533557540963
 31
0.0
 11
195.7588660697687
 21
98.24096073993404
 31
0.0
 11
195.5382354452424
 21
98.24605541838096
 31
0.0
 11
195.3888575818768
 21
98.24952602281491
 31
0.0
 11
195.230473017903
 21
98.25320588646809
 31
0.0
  0
SPLINE
  5
2C6
330
A
100
AcDbEntity
  8
0
  6
Continuous
 62
     3
100
AcDbSpline
210
0.0
220
0.0
230
1.0
 70
     8
 71
     3
 72
    17
 73
    13
 74
    11
 42
0.0000000001
 43
0.0000000001
 44
0.00000000001
 40
0.0
 40
0.0
 40
0.0
 40
0.0
 40
0.0016221241612592
 40
0.0043603096231256
 40
0.0110966263006461
 40
0.0175267662751974
 40
0.0275456310870663
 40
0.039032701013767
 40
0.0481798171909571
 40
0.0549787173516195
 40
0.0596450144198141
 40
0.0655943131730786
 40
0.0655943131730786
 40
0.0655943131730786
 40
0.0655943131730786
 10
192.190084791394
 20
95.45800497511759
 30
0.0
 10
192.1899860187778
 20
95.4574733618447
 30
0.0
 10
192.1897205155574
 20
95.45604437229821
 30
0.0
 10
192.1890594867556
 20
95.45240517507522
 30
0.0
 10
192.1879666854184
 20
95.44721433110202
 30
0.0
 10
192.1858637864409
 20
95.43977108027602
 30
0.0
 10
192.1825800123483
 20
95.43104337762578
 30
0.0
 10
192.1783197660904
 20
95.42175404232621
 30
0.0
 10
192.174127546033
 20
95.41361331802267
 30
0.0
 10
192.1702140912829
 20
95.40793787551082
 30
0.0
 10
192.1663816465979
 20
95.4035743899996
 30
0.0
 10
192.1641107159159
 20
95.40086095700351
 30
0.0
 10
192.162838018151
 20
95.39934026765058
 30
0.0
 11
192.190084791394
 21
95.45800497511759
 31
0.0
 11
192.1897892705153
 21
95.45640999731059
 31
0.0
 11
192.1892904240076
 21
95.453717635562
 31
0.0
 11
192.1878698599982
 21
95.44713280752512
 31
0.0
 11
192.1861218003215
 21
95.44094483633427
 31
0.0
 11
192.1826525391621
 21
95.43154580025996
 31
0.0
 11
192.1779060899888
 21
95.42108520774583
 31
0.0
 11
192.1735743292444
 21
95.41302880760605
 31
0.0
 11
192.1696873870969
 21
95.40745057095488
 31
0.0
 11
192.1666766102389
 21
95.4038855252272
 31
0.0
 11
192.162838018151
 21
95.39934026765058
 31
0.0
  0
SPLINE
  5
2C5
330
A
100
AcDbEntity
  8
0
  6
Continuous
 62
     3
100
AcDbSpline
210
0.0
220
0.0
230
1.0
 70
    24
 71
     3
 72
    41
 73
    37
 74
    35
 42
0.0000000001
 43
0.0000000001
 44
0.00000000001
 40
0.0
 40
0.0
 40
0.0
 40
0.0
 40
0.0697219948610268
 40
0.1354635988618611
 40
0.2195286896890138
 40
0.3126366542663845
 40
0.4247495759856293
 40
0.5274483826541996
 40
0.6458190278723919
 40
0.7696838644253035
 40
0.9345198746980258
 40
1.099308386344603
 40
1.303112540261508
 40
1.511663433303169
 40
1.731902913720944
 40
1.938817775270308
 40
2.171592657913151
 40
2.416221934984264
 40
2.722863370771847
 40
3.038510326240896
 40
3.343687146166075
 40
3.641894511227292
 40
3.853384847951417
 40
4.05670456197447
 40
4.178632367740249
 40
4.297071814388345
 40
4.37687480538716
 40
4.461086655738711
 40
4.523907433068075
 40
4.585947300561485
 40
4.627121981010873
 40
4.670061071500072
 40
4.685600820011586
 40
4.694907812508233
 40
4.696846119682618
 40
4.700000000301997
 40
4.700000000301997
 40
4.700000000301997
 40
4.700000000301997
 10
274.202369395109
 20
102.571020400509
 30
0.0
 10
274.2256100600627
 20
102.571020400509
 30
0.0
 10
274.2707645930166
 20
102.571020400509
 30
0.0
 10
274.343940822913
 20
102.571020400509
 30
0.0
 10
274.4249123760481
 20
102.5710204005089
 30
0.0
 10
274.5213410350893
 20
102.571020400509
 30
0.0
 10
274.6239809327444
 20
102.571020400509
 30
0.0
 10
274.7350417239465
 20
102.571020400509
 30
0.0
 10
274.8500198200929
 20
102.571020400509
 30
0.0
 10
274.9857103174409
 20
102.571020400509
 30
0.0
 10
275.1368734369316
 20
102.571020400509
 30
0.0
 10
275.3146829955437
 20
102.571020400509
 30
0.0
 10
275.5070641817454
 20
102.5710204005089
 30
0.0
 10
275.7179290242042
 20
102.571020400509
 30
0.0
 10
275.9298307692071
 20
102.571020400509
 30
0.0
 10
276.1498071774105
 20
102.571020400509
 30
0.0
 10
276.3779135178315
 20
102.571020400509
 30
0.0
 10
276.6392620496655
 20
102.571020400509
 30
0.0
 10
276.9282346057746
 20
102.571020400509
 30
0.0
 10
277.2373896761686
 20
102.571020400509
 30
0.0
 10
277.5437333896537
 20
102.571020400509
 30
0.0
 10
277.815358230224
 20
102.571020400509
 30
0.0
 10
278.05303070216
 20
102.5710204005089
 30
0.0
 10
278.2319433209977
 20
102.571020400509
 30
0.0
 10
278.3798389764767
 20
102.571020400509
 30
0.0
 10
278.4865623909476
 20
102.571020400509
 30
0.0
 10
278.5807138202803
 20
102.5710204005089
 30
0.0
 10
278.6563256931736
 20
102.5710204005089
 30
0.0
 10
278.7260165248984
 20
102.571020400509
 30
0.0
 10
278.7813616333224
 20
102.571020400509
 30
0.0
 10
278.8300795127998
 20
102.571020400509
 30
0.0
 10
278.8632973526164
 20
102.571020400509
 30
0.0
 10
278.8858926297823
 20
102.571020400509
 30
0.0
 10
278.8948209791764
 20
102.571020400509
 30
0.0
 10
278.89962070594
 20
102.571020400509
 30
0.0
 10
278.9013181018712
 20
102.571020400509
 30
0.0
 10
278.902369395411
 20
102.571020400509
 30
0.0
 11
274.202369395109
 21
102.571020400509
 31
0.0
 11
274.27209138997
 21
102.571020400509
 31
0.0
 11
274.3378329939708
 21
102.571020400509
 31
0.0
 11
274.421898084798
 21
102.571020400509
 31
0.0
 11
274.5150060493754
 21
102.571020400509
 31
0.0
 11
274.6271189710946
 21
102.571020400509
 31
0.0
 11
274.7298177777632
 21
102.571020400509
 31
0.0
 11
274.8481884229814
 21
102.571020400509
 31
0.0
 11
274.9720532595343
 21
102.571020400509
 31
0.0
 11
275.136889269807
 21
102.571020400509
 31
0.0
 11
275.3016777814536
 21
102.571020400509
 31
0.0
 11
275.5054819353705
 21
102.571020400509
 31
0.0
 11
275.7140328284121
 21
102.571020400509
 31
0.0
 11
275.9342723088299
 21
102.571020400509
 31
0.0
 11
276.1411871703793
 21
102.571020400509
 31
0.0
 11
276.3739620530221
 21
102.571020400509
 31
0.0
 11
276.6185913300932
 21
102.571020400509
 31
0.0
 11
276.9252327658808
 21
102.571020400509
 31
0.0
 11
277.2408797213499
 21
102.571020400509
 31
0.0
 11
277.5460565412751
 21
102.571020400509
 31
0.0
 11
277.8442639063363
 21
102.571020400509
 31
0.0
 11
278.0557542430604
 21
102.571020400509
 31
0.0
 11
278.2590739570835
 21
102.571020400509
 31
0.0
 11
278.3810017628492
 21
102.571020400509
 31
0.0
 11
278.4994412094973
 21
102.571020400509
 31
0.0
 11
278.5792442004961
 21
102.571020400509
 31
0.0
 11
278.6634560508477
 21
102.571020400509
 31
0.0
 11
278.726276828177
 21
102.571020400509
 31
0.0
 11
278.7883166956705
 21
102.571020400509
 31
0.0
 11
278.8294913761198
 21
102.571020400509
 31
0.0
 11
278.872430466609
 21
102.571020400509
 31
0.0
 11
278.8879702151206
 21
102.571020400509
 31
0.0
 11
278.8972772076172
 21
102.571020400509
 31
0.0
 11
278.8992155147916
 21
102.571020400509
 31
0.0
 11
278.902369395411
 21
102.571020400509
 31
0.0
  0
SPLINE
  5
2C4
330
A
100
AcDbEntity
  8
0
  6
Continuous
 62
     3
100
AcDbSpline
210
0.0
220
0.0
230
1.0
 70
     8
 71
     3
 72
    15
 73
    11
 74
     9
 42
0.0000000001
 43
0.0000000001
 44
0.00000000001
 40
0.0
 40
0.0
 40
0.0
 40
0.0
 40
0.0630844957196923
 40
0.1114982698292527
 40
0.1655712985830176
 40
0.2383202763032516
 40
0.3109939586359551
 40
0.3649952891836058
 40
0.4132254790598954
 40
0.4760692849123764
 40
0.4760692849123764
 40
0.4760692849123764
 40
0.4760692849123764
 10
279.2023693950189
 20
102.271020400685
 30
0.0
 10
279.2018495392266
 20
102.2920325521266
 30
0.0
 10
279.2009307235849
 20
102.329170338589
 30
0.0
 10
279.1905917138567
 20
102.3840923413547
 30
0.0
 10
279.1600902372059
 20
102.4350041209391
 30
0.0
 10
279.1150750050428
 20
102.4840887141238
 30
0.0
 10
279.0659368067981
 20
102.5290118638407
 30
0.0
 10
279.0150629261268
 20
102.5593593759845
 30
0.0
 10
278.9602971088526
 20
102.5695923684166
 30
0.0
 10
278.9233011110326
 20
102.5705043928076
 30
0.0
 10
278.902369395296
 20
102.571020400928
 30
0.0
 11
279.2023693950189
 21
102.271020400685
 31
0.0
 11
279.198875156679
 21
102.3340080494634
 31
0.0
 11
279.1883924415629
 21
102.3812733243206
 31
0.0
 11
279.1621516579492
 21
102.428552428732
 31
0.0
 11
279.1143026534377
 21
102.4833510284094
 31
0.0
 11
279.0594820549481
 21
102.5310602108068
 31
0.0
 11
279.0122177140586
 21
102.5571796629679
 31
0.0
 11
278.9651178698361
 21
102.5675602164079
 31
0.0
 11
278.902369395296
 21
102.571020400928
 31
0.0
  0
SPLINE
  5
2C3
330
A
100
AcDbEntity
  8
0
  6
Continuous
 62
     3
100
AcDbSpline
210
0.0
220
0.0
230
1.0
 70
    24
 71
     3
 72
    29
 73
    25
 74
    23
 42
0.0000000001
 43
0.0000000001
 44
0.00000000001
 40
0.0
 40
0.0
 40
0.0
 40
0.0
 40
0.120980708850368
 40
0.2820226904973992
 40
0.4219921083118834
 40
0.5169108599540096
 40
0.6135078374887258
 40
0.7562141458807333
 40
0.9188063640081622
 40
1.035433264557923
 40
1.174589811295163
 40
1.368595766154896
 40
1.576690847069812
 40
1.726105321930674
 40
1.891993669376972
 40
2.123033742493305
 40
2.357906716904949
 40
2.514972100590682
 40
2.734726249019956
 40
3.062578831475263
 40
3.49607305724794
 40
3.824692333046584
 40
4.204222927549665
 40
4.700000000301997
 40
4.700000000301997
 40
4.700000000301997
 40
4.700000000301997
 10
278.902369395411
 20
91.57102040012318
 30
0.0
 10
278.8620424924609
 20
91.57102040012318
 30
0.0
 10
278.7680349289617
 20
91.57102040012318
 30
0.0
 10
278.6273708928578
 20
91.57102040012317
 30
0.0
 10
278.4953941758231
 20
91.57102040012318
 30
0.0
 10
278.3848991268262
 20
91.57102040012318
 30
0.0
 10
278.2734917809698
 20
91.5710204001232
 30
0.0
 10
278.1395266129517
 20
91.57102040012317
 30
0.0
 10
277.9988848039287
 20
91.57102040012318
 30
0.0
 10
277.8594262487906
 20
91.5710204001232
 30
0.0
 10
277.7094964480749
 20
91.57102040012318
 30
0.0
 10
277.5290772539043
 20
91.57102040012318
 30
0.0
 10
277.3452387503592
 20
91.57102040012318
 30
0.0
 10
277.1707727826186
 20
91.57102040012318
 30
0.0
 10
276.9886584841439
 20
91.57102040012317
 30
0.0
 10
276.7780580191526
 20
91.5710204001232
 30
0.0
 10
276.5703985420814
 20
91.57102040012322
 30
0.0
 10
276.3665010399057
 20
91.57102040012317
 30
0.0
 10
276.131610335049
 20
91.57102040012322
 30
0.0
 10
275.8045766828299
 20
91.57102040012317
 30
0.0
 10
275.441254654821
 20
91.57102040012318
 30
0.0
 10
275.0607066227964
 20
91.57102040012322
 30
0.0
 10
274.6593976417781
 20
91.57102040012315
 30
0.0
 10
274.3676284193597
 20
91.57102040012318
 30
0.0
 10
274.202369395109
 20
91.57102040012318
 30
0.0
 11
278.902369395411
 21
91.57102040012318
 31
0.0
 11
278.7813886865606
 21
91.57102040012318
 31
0.0
 11
278.6203467049136
 21
91.57102040012318
 31
0.0
 11
278.4803772870991
 21
91.57102040012318
 31
0.0
 11
278.3854585354569
 21
91.57102040012318
 31
0.0
 11
278.2888615579222
 21
91.57102040012318
 31
0.0
 11
278.1461552495303
 21
91.57102040012318
 31
0.0
 11
277.9835630314028
 21
91.57102040012318
 31
0.0
 11
277.866936130853
 21
91.57102040012318
 31
0.0
 11
277.7277795841158
 21
91.57102040012318
 31
0.0
 11
277.5337736292561
 21
91.57102040012318
 31
0.0
 11
277.3256785483412
 21
91.57102040012318
 31
0.0
 11
277.1762640734803
 21
91.57102040012318
 31
0.0
 11
277.010375726034
 21
91.57102040012318
 31
0.0
 11
276.7793356529177
 21
91.57102040012318
 31
0.0
 11
276.544462678506
 21
91.57102040012318
 31
0.0
 11
276.3873972948203
 21
91.57102040012318
 31
0.0
 11
276.167643146391
 21
91.57102040012318
 31
0.0
 11
275.8397905639357
 21
91.57102040012318
 31
0.0
 11
275.406296338163
 21
91.57102040012318
 31
0.0
 11
275.0776770623644
 21
91.57102040012318
 31
0.0
 11
274.6981464678613
 21
91.57102040012318
 31
0.0
 11
274.202369395109
 21
91.57102040012318
 31
0.0
  0
SPLINE
  5
2C2
330
A
100
AcDbEntity
  8
0
  6
Continuous
 62
     3
100
AcDbSpline
210
0.0
220
0.0
230
1.0
 70
     8
 71
     3
 72
    15
 73
    11
 74
     9
 42
0.0000000001
 43
0.0000000001
 44
0.00000000001
 40
0.0
 40
0.0
 40
0.0
 40
0.0
 40
0.062843805852478
 40
0.1110739957288012
 40
0.1650753262765687
 40
0.2377490086093749
 40
0.3104979863296089
 40
0.3645710150834014
 40
0.4129847891928092
 40
0.4760692849121153
 40
0.4760692849121153
 40
0.4760692849121153
 40
0.4760692849121153
 10
278.902369395296
 20
91.57102040008991
 30
0.0
 10
278.9233011110326
 20
91.57153640821022
 30
0.0
 10
278.9602971088527
 20
91.57244843260111
 30
0.0
 10
279.0150629261268
 20
91.58268142503352
 30
0.0
 10
279.0659368067981
 20
91.61302893717762
 30
0.0
 10
279.1150750050428
 20
91.65795208689457
 30
0.0
 10
279.160090237206
 20
91.70703668007924
 30
0.0
 10
279.1905917138568
 20
91.75794845966361
 30
0.0
 10
279.200930723585
 20
91.81287046242911
 30
0.0
 10
279.2018495392266
 20
91.85000824889138
 30
0.0
 10
279.2023693950189
 20
91.87102040033286
 30
0.0
 11
278.902369395296
 21
91.57102040008991
 31
0.0
 11
278.9651178698361
 21
91.57448058460991
 31
0.0
 11
279.0122177140586
 21
91.58486113805006
 31
0.0
 11
279.0594820549481
 21
91.6109805902114
 31
0.0
 11
279.1143026534377
 21
91.65868977260901
 31
0.0
 11
279.1621516579492
 21
91.71348837228642
 31
0.0
 11
279.1883924415629
 21
91.7607674766978
 31
0.0
 11
279.198875156679
 21
91.80803275155485
 31
0.0
 11
279.2023693950189
 21
91.87102040033286
 31
0.0
  0
SPLINE
  5
2C1
330
A
100
AcDbEntity
  8
0
  6
Continuous
 62
     3
100
AcDbSpline
210
0.0
220
0.0
230
1.0
 70
     8
 71
     3
 72
    17
 73
    13
 74
    11
 42
0.0000000001
 43
0.0000000001
 44
0.00000000001
 40
0.0
 40
0.0
 40
0.0
 40
0.0
 40
0.0803424449517677
 40
0.1682365916803364
 40
0.2796727231055446
 40
0.3977362496322695
 40
0.4976881208600989
 40
0.5903554194721085
 40
0.6319594385691892
 40
0.66901961474453
 40
0.6762181674807848
 40
0.6794939347587099
 40
0.6794939347587099
 40
0.6794939347587099
 40
0.6794939347587099
 10
199.338082409115
 20
98.52102038206888
 30
0.0
 10
199.3646510530859
 20
98.51760864131241
 30
0.0
 10
199.4202856321671
 20
98.51046447689336
 30
0.0
 10
199.5129855236111
 20
98.50133525660718
 30
0.0
 10
199.6170857040209
 20
98.47683429556335
 30
0.0
 10
199.7127835361738
 20
98.42053413494586
 30
0.0
 10
199.7942079499786
 20
98.35652778281511
 30
0.0
 10
199.85092060391
 20
98.3026057108346
 30
0.0
 10
199.8888648030468
 20
98.2598936350968
 30
0.0
 10
199.9066881833645
 20
98.23747543821724
 30
0.0
 10
199.9160687719722
 20
98.22470580249945
 30
0.0
 10
199.9181445232614
 20
98.22189841577369
 30
0.0
 10
199.918793699355
 20
98.22102042602729
 30
0.0
 11
199.338082409115
 21
98.52102038206888
 31
0.0
 11
199.4178177295994
 21
98.51116202885551
 31
0.0
 11
199.5050476858487
 21
98.50037705032573
 31
0.0
 11
199.6128824958283
 21
98.47227606913895
 31
0.0
 11
199.7162291482708
 21
98.41519309685409
 31
0.0
 11
199.7950823084088
 21
98.35377196288382
 31
0.0
 11
199.8619630302482
 21
98.28962995419777
 31
0.0
 11
199.8895655556414
 21
98.25850126972587
 31
0.0
 11
199.9125691726293
 21
98.2294445964197
 31
0.0
 11
199.9168470239681
 21
98.22365502394671
 31
0.0
 11
199.918793699355
 21
98.22102042602729
 31
0.0
  0
SPLINE
  5
2C0
330
A
100
AcDbEntity
  8
0
  6
Continuous
 62
     3
100
AcDbSpline
210
0.0
220
0.0
230
1.0
 70
     8
 71
     3
 72
    17
 73
    13
 74
    11
 42
0.0000000001
 43
0.0000000001
 44
0.00000000001
 40
0.0
 40
0.0
 40
0.0
 40
0.0
 40
0.0276148350467398
 40
0.0538221682618928
 40
0.0871887291006506
 40
0.1240085920486316
 40
0.1714521837613067
 40
0.2193259253947017
 40
0.2576845452373108
 40
0.2918078532583792
 40
0.319726305978639
 40
0.3500058270019089
 40
0.3500058270019089
 40
0.3500058270019089
 40
0.3500058270019089
 10
198.4985826524209
 20
98.22102042602729
 30
0.0
 10
198.4977459258638
 20
98.23018823047545
 30
0.0
 10
198.496115119905
 20
98.24805656511399
 30
0.0
 10
198.4942165193847
 20
98.2770505443624
 30
0.0
 10
198.4883818542109
 20
98.30886264574756
 30
0.0
 10
198.4727640317543
 20
98.34507964883828
 30
0.0
 10
198.450247868995
 20
98.38303952995204
 30
0.0
 10
198.4230509544614
 20
98.41844041562854
 30
0.0
 10
198.394863916394
 20
98.44728057992149
 30
0.0
 10
198.3667982161246
 20
98.46586932819487
 30
0.0
 10
198.3393585799238
 20
98.47979423691242
 30
0.0
 10
198.3222925623533
 20
98.48902163059914
 30
0.0
 10
198.313413372846
 20
98.49382250326108
 30
0.0
 11
198.4985826524209
 21
98.22102042602729
 31
0.0
 11
198.4961932469413
 21
98.24853169382999
 31
0.0
 11
198.4939256271822
 21
98.27464073852485
 31
0.0
 11
198.4874449591833
 21
98.30737189072721
 31
0.0
 11
198.4735691419528
 21
98.34147708100225
 31
0.0
 11
198.4495406007218
 21
98.38238580379957
 31
0.0
 11
198.4202979518765
 21
98.42029045557865
 31
0.0
 11
198.3929516142448
 21
98.4471895547152
 31
0.0
 11
198.3647318840765
 21
98.46637410525808
 31
0.0
 11
198.3401136141041
 21
98.47954151904586
 31
0.0
 11
198.313413372846
 21
98.49382250326108
 31
0.0
  0
SPLINE
  5
2BF
330
A
100
AcDbEntity
  8
0
  6
Continuous
 62
     3
100
AcDbSpline
210
0.0
220
0.0
230
1.0
 70
     8
 71
     3
 72
    17
 73
    13
 74
    11
 42
0.0000000001
 43
0.0000000001
 44
0.00000000001
 40
0.0
 40
0.0
 40
0.0
 40
0.0
 40
0.0363702797316605
 40
0.0718983154162511
 40
0.1136322613658818
 40
0.1590472626078483
 40
0.2055077346727017
 40
0.2516681665377366
 40
0.2756351713520461
 40
0.2942601221926964
 40
0.3030975279511964
 40
0.3138661959661525
 40
0.3138661959661525
 40
0.3138661959661525
 40
0.3138661959661525
 10
198.4985826524209
 20
98.22102042602729
 30
0.0
 10
198.487480159318
 20
98.22588996048915
 30
0.0
 10
198.4655322788806
 20
98.23551626326308
 30
0.0
 10
198.4307902480403
 20
98.25060578659302
 30
0.0
 10
198.3935379828566
 20
98.26748070999062
 30
0.0
 10
198.3534782515759
 20
98.28695254255473
 30
0.0
 10
198.3125852736567
 20
98.3080577600703
 30
0.0
 10
198.2784963364857
 20
98.32671478257989
 30
0.0
 10
198.2530338894208
 20
98.3418270165432
 30
0.0
 10
198.2393059241374
 20
98.35216727312937
 30
0.0
 10
198.2298371967664
 20
98.36069867279068
 30
0.0
 10
198.224920585659
 20
98.36500413752975
 30
0.0
 10
198.222220128985
 20
98.36736892106372
 30
0.0
 11
198.4985826524209
 21
98.22102042602729
 31
0.0
 11
198.4652663766251
 21
98.23560888087531
 31
0.0
 11
198.4327216218393
 21
98.24985950386317
 31
0.0
 11
198.3947324071433
 21
98.26713786638121
 31
0.0
 11
198.3538720417741
 21
98.28696090549488
 31
0.0
 11
198.3125863597104
 21
98.3082697750337
 31
0.0
 11
198.2721742068054
 21
98.330577696666
 31
0.0
 11
198.2517705431694
 21
98.3431517902715
 31
0.0
 11
198.2369365955845
 21
98.35441424084244
 31
0.0
 11
198.2303031722804
 21
98.36025354181165
 31
0.0
 11
198.222220128985
 21
98.36736892106372
 31
0.0
  0
SPLINE
  5
2BE
330
A
100
AcDbEntity
  8
0
  6
Continuous
 62
     3
100
AcDbSpline
210
0.0
220
0.0
230
1.0
 70
    24
 71
     3
 72
    19
 73
    15
 74
    13
 42
0.0000000001
 43
0.0000000001
 44
0.00000000001
 40
0.0
 40
0.0
 40
0.0
 40
0.0
 40
0.4208905633191478
 40
0.7956032351105762
 40
1.137635885923828
 40
1.531665320460945
 40
1.818228241904108
 40
2.056957036947153
 40
2.14606958033579
 40
2.23702850557612
 40
2.26209762759197
 40
2.278472675479719
 40
2.282088660635906
 40
2.287909388542004
 40
2.287909388542004
 40
2.287909388542004
 40
2.287909388542004
 10
194.904441198917
 20
95.62102041894929
 30
0.0
 10
194.7641443444773
 20
95.62102041894931
 30
0.0
 10
194.4989432661071
 20
95.62102041894933
 30
0.0
 10
194.1197313041324
 20
95.62102041894927
 30
0.0
 10
193.7494730517519
 20
95.62102041894931
 30
0.0
 10
193.4085980494874
 20
95.62102041894929
 30
0.0
 10
193.1021576658128
 20
95.62102041894929
 30
0.0
 10
192.8973562458547
 20
95.62102041894936
 30
0.0
 10
192.7577561579639
 20
95.62102041894929
 30
0.0
 10
192.6893759610823
 20
95.62102041894936
 30
0.0
 10
192.6452415960343
 20
95.62102041894922
 30
0.0
 10
192.6302215443478
 20
95.62102041894934
 30
0.0
 10
192.6216176240311
 20
95.62102041894929
 30
0.0
 10
192.6184720530103
 20
95.62102041894929
 30
0.0
 10
192.616531810375
 20
95.62102041894929
 30
0.0
 11
194.904441198917
 21
95.62102041894929
 31
0.0
 11
194.4835506355978
 21
95.62102041894929
 31
0.0
 11
194.1088379638064
 21
95.62102041894929
 31
0.0
 11
193.7668053129931
 21
95.62102041894929
 31
0.0
 11
193.372775878456
 21
95.62102041894929
 31
0.0
 11
193.0862129570129
 21
95.62102041894931
 31
0.0
 11
192.8474841619698
 21
95.62102041894931
 31
0.0
 11
192.7583716185812
 21
95.62102041894929
 31
0.0
 11
192.6674126933409
 21
95.62102041894929
 31
0.0
 11
192.642343571325
 21
95.62102041894929
 31
0.0
 11
192.6259685234373
 21
95.62102041894929
 31
0.0
 11
192.6223525382811
 21
95.62102041894929
 31
0.0
 11
192.616531810375
 21
95.62102041894929
 31
0.0
  0
SPLINE
  5
2BD
330
A
100
AcDbEntity
  8
0
  6
Continuous
 62
     3
100
AcDbSpline
210
0.0
220
0.0
230
1.0
 70
     8
 71
     3
 72
    13
 73
     9
 74
     7
 42
0.0000000001
 43
0.0000000001
 44
0.00000000001
 40
0.0
 40
0.0
 40
0.0
 40
0.0
 40
0.0651975875831501
 40
0.1252780176016071
 40
0.209401712629887
 40
0.3057918439842253
 40
0.431859066881271
 40
0.5511994665486489
 40
0.5511994665486489
 40
0.5511994665486489
 40
0.5511994665486489
 10
197.983809000464
 20
98.11416280212242
 30
0.0
 10
197.9932705468741
 20
98.09459798766603
 30
0.0
 10
198.0114510320984
 20
98.05700394069745
 30
0.0
 10
198.0418396679795
 20
97.99416565217853
 30
0.0
 10
198.0767548583536
 20
97.92196688214922
 30
0.0
 10
198.1212457511055
 20
97.82996628798631
 30
0.0
 10
198.170847179989
 20
97.72739761784109
 30
0.0
 10
198.2064605659719
 20
97.65375427171166
 30
0.0
 10
198.223779162975
 20
97.6179419107585
 30
0.0
 11
197.983809000464
 21
98.11416280212242
 31
0.0
 11
198.0121936439865
 21
98.05546836082889
 31
0.0
 11
198.0383504643843
 21
98.00138066520517
 31
0.0
 11
198.0749747015529
 21
97.925647836676
 31
0.0
 11
198.1169390144174
 21
97.83887195368819
 31
0.0
 11
198.1718233765321
 21
97.7253789958263
 31
0.0
 11
198.223779162975
 21
97.6179419107585
 31
0.0
  0
SPLINE
  5
2BC
330
A
100
AcDbEntity
  8
0
  6
Continuous
 62
     3
100
AcDbSpline
210
0.0
220
0.0
230
1.0
 70
     8
 71
     3
 72
    41
 73
    37
 74
    35
 42
0.0000000001
 43
0.0000000001
 44
0.00000000001
 40
0.0
 40
0.0
 40
0.0
 40
0.0
 40
0.0646715293943131
 40
0.123134295884328
 40
0.1685848097845386
 40
0.2183179146446768
 40
0.2503759712641663
 40
0.2782790069697657
 40
0.2865406846863268
 40
0.2931499127748988
 40
0.2952523323065615
 40
0.2979971318975006
 40
0.3005551890877495
 40
0.3032714000998841
 40
0.3054579295168336
 40
0.3074697140416915
 40
0.3091210194014784
 40
0.3108068633634659
 40
0.312778298225896
 40
0.3145597372642724
 40
0.3180014836883604
 40
0.3214684006920623
 40
0.330541458201262
 40
0.3388399151094688
 40
0.3700845202787862
 40
0.4072063729748457
 40
0.5068729043099887
 40
0.6088082226367904
 40
0.7999683457714472
 40
1.00591719634403
 40
1.299152515244101
 40
1.595705095907442
 40
1.840070914054274
 40
2.060347316650924
 40
2.216093657686463
 40
2.374149762757125
 40
2.374149762757125
 40
2.374149762757125
 40
2.374149762757125
 10
195.230473017903
 20
98.25320588646809
 30
0.0
 10
195.2481467823385
 20
98.26555196385001
 30
0.0
 10
195.2817975489089
 20
98.28905883866177
 30
0.0
 10
195.3287024288255
 20
98.3199979538574
 30
0.0
 10
195.3687516962572
 20
98.35222740524578
 30
0.0
 10
195.3963550063335
 20
98.38469958541425
 30
0.0
 10
195.4176028444311
 20
98.41446536914659
 30
0.0
 10
195.4291140595009
 20
98.43414120511717
 30
0.0
 10
195.4353182360381
 20
98.44697705346987
 30
0.0
 10
195.437674667796
 20
98.45212630382178
 30
0.0
 10
195.4390065858187
 20
98.4557064345388
 30
0.0
 10
195.4397800530682
 20
98.4580511288585
 30
0.0
 10
195.4405030526983
 20
98.46062633053026
 30
0.0
 10
195.4409934440892
 20
98.46306648720727
 30
0.0
 10
195.4413451083611
 20
98.46534475519025
 30
0.0
 10
195.441556451805
 20
98.46728408890584
 30
0.0
 10
195.4416479881957
 20
98.46906576023382
 30
0.0
 10
195.441632778174
 20
98.47083595310731
 30
0.0
 10
195.4415366011258
 20
98.47264714197926
 30
0.0
 10
195.4412792000281
 20
98.4750323878284
 30
0.0
 10
195.4407694434953
 20
98.47788812937857
 30
0.0
 10
195.4394303255448
 20
98.48304602212184
 30
0.0
 10
195.4371843462383
 20
98.4896402403344
 30
0.0
 10
195.430086197075
 20
98.50423338170259
 30
0.0
 10
195.4161270088783
 20
98.5257160040193
 30
0.0
 10
195.3836977436843
 20
98.57136384934001
 30
0.0
 10
195.3301616015798
 20
98.63084331594905
 30
0.0
 10
195.2282494385588
 20
98.7134702277482
 30
0.0
 10
195.0727820567337
 20
98.78492857345152
 30
0.0
 10
194.8395082976287
 20
98.78885961881175
 30
0.0
 10
194.5760318861167
 20
98.76605565672349
 30
0.0
 10
194.2974717531347
 20
98.76810278081418
 30
0.0
 10
194.0438739717903
 20
98.77159378149611
 30
0.0
 10
193.8370502152417
 20
98.77188994322965
 30
0.0
 10
193.6590294221809
 20
98.77135118750844
 30
0.0
 10
193.5544282764366
 20
98.77113121756874
 30
0.0
 10
193.501742741676
 20
98.77102042304709
 30
0.0
 11
195.230473017903
 21
98.25320588646809
 31
0.0
 11
195.2836621762316
 21
98.28999338638986
 31
0.0
 11
195.3317449318475
 21
98.32324911789648
 31
0.0
 11
195.3666864991277
 21
98.35231518212612
 31
0.0
 11
195.3994867180212
 21
98.38969869934381
 31
0.0
 11
195.4179796802849
 21
98.41588513363584
 31
0.0
 11
195.4319182540388
 21
98.44005734005762
 31
0.0
 11
195.4355293943258
 21
98.44748801866186
 31
0.0
 11
195.4381871731764
 21
98.45353930840108
 31
0.0
 11
195.4389211326517
 21
98.45550945341496
 31
0.0
 11
195.4397792584826
 21
98.45811666358157
 31
0.0
 11
195.4404584826212
 21
98.4605828977874
 31
0.0
 11
195.4410058822547
 21
98.46324337817707
 31
0.0
 11
195.4413372223528
 21
98.46540465664837
 31
0.0
 11
195.4415484648406
 21
98.46740531993484
 31
0.0
 11
195.4416310728086
 21
98.46905455773301
 31
0.0
 11
195.4416220809159
 21
98.4707403777145
 31
0.0
 11
195.4415145036745
 21
98.47270887525169
 31
0.0
 11
195.4413246975741
 21
98.47448017384079
 31
0.0
 11
195.4407278300142
 21
98.47786977080263
 31
0.0
 11
195.4398770730607
 21
98.4812306823035
 31
0.0
 11
195.4369197257504
 21
98.48980823845026
 31
0.0
 11
195.4333735997289
 21
98.49731086314413
 31
0.0
 11
195.417041312397
 21
98.52394696163273
 31
0.0
 11
195.3954534728951
 21
98.55414625190965
 31
0.0
 11
195.3289352313329
 21
98.62836714524744
 31
0.0
 11
195.2495556641207
 21
98.69231785620195
 31
0.0
 11
195.0749617748397
 21
98.77015850434013
 31
0.0
 11
194.8695809322279
 21
98.78544374363377
 31
0.0
 11
194.5767171770165
 21
98.77068660523022
 31
0.0
 11
194.2801720965722
 21
98.76857749109873
 31
0.0
 11
194.035820096847
 21
98.77117620401731
 31
0.0
 11
193.8155443878338
 21
98.7717289785305
 31
0.0
 11
193.6597984438284
 21
98.77137730847394
 31
0.0
 11
193.501742741676
 21
98.77102042304709
 31
0.0
  0
SPLINE
  5
2BB
330
A
100
AcDbEntity
  8
0
  6
Continuous
 62
     3
100
AcDbSpline
210
0.0
220
0.0
230
1.0
 70
     8
 71
     3
 72
    17
 73
    13
 74
    11
 42
0.0000000001
 43
0.0000000001
 44
0.00000000001
 40
0.0
 40
0.0
 40
0.0
 40
0.0
 40
0.3268539664398906
 40
0.6315710971837843
 40
0.9668113018801328
 40
1.34934745241655
 40
1.679873684013255
 40
1.975026942997669
 40
2.102676891034522
 40
2.218061454938996
 40
2.256811073029726
 40
2.29034789681371
 40
2.29034789681371
 40
2.29034789681371
 40
2.29034789681371
 10
193.501742741676
 20
96.758732749041
 30
0.0
 10
193.5795663765668
 20
96.83498150687933
 30
0.0
 10
193.7299428857162
 20
96.98231492360783
 30
0.0
 10
193.9590661501876
 20
97.20894828813515
 30
0.0
 10
194.2061548143484
 20
97.44377073403606
 30
0.0
 10
194.4666774015236
 20
97.67672328396429
 30
0.0
 10
194.7227199036406
 20
97.89447585605145
 30
0.0
 10
194.9204584821129
 20
98.04942361708521
 30
0.0
 10
195.0665546347174
 20
98.15363411756104
 30
0.0
 10
195.1461054385766
 20
98.20367902237865
 30
0.0
 10
195.200099030117
 20
98.23526945574217
 30
0.0
 10
195.2208470904696
 20
98.24752158904232
 30
0.0
 10
195.230473017903
 20
98.25320588646809
 30
0.0
 11
193.501742741676
 21
96.758732749041
 31
0.0
 11
193.7350258010403
 21
96.98767057813684
 31
0.0
 11
193.9525093007053
 21
97.20110313690486
 31
0.0
 11
194.1958005653419
 21
97.43174432012324
 31
0.0
 11
194.4807187249163
 21
97.68700016983476
 31
0.0
 11
194.7331924957753
 21
97.90031820658207
 31
0.0
 11
194.9662746596572
 21
98.0813931942785
 31
0.0
 11
195.0706117538658
 21
98.1549342032865
 31
0.0
 11
195.1682061051402
 21
98.21648857101751
 31
0.0
 11
195.2015846893763
 21
98.23617112716684
 31
0.0
 11
195.230473017903
 21
98.25320588646809
 31
0.0
  0
SPLINE
  5
2BA
330
A
100
AcDbEntity
  8
0
  6
Continuous
 62
     3
100
AcDbSpline
210
0.0
220
0.0
230
1.0
 70
     8
 71
     3
 72
    15
 73
    11
 74
     9
 42
0.0000000001
 43
0.0000000001
 44
0.00000000001
 40
0.0
 40
0.0
 40
0.0
 40
0.0
 40
0.0385543927616422
 40
0.0756683516963054
 40
0.1137819917315789
 40
0.1562055315183614
 40
0.1893564003218928
 40
0.2186444638413312
 40
0.2285192872143657
 40
0.2353552890792544
 40
0.2353552890792544
 40
0.2353552890792544
 40
0.2353552890792544
 10
191.978834754439
 20
95.3710203779711
 30
0.0
 10
191.991598353932
 20
95.37254052881067
 30
0.0
 10
192.0166486910316
 20
95.37552403600974
 30
0.0
 10
192.0544298769439
 20
95.37868250904027
 30
0.0
 10
192.0930214634075
 20
95.38751418275509
 30
0.0
 10
192.1264411801023
 20
95.40613002509635
 30
0.0
 10
192.1550164783017
 20
95.42624401540662
 30
0.0
 10
192.173405894325
 20
95.44190549550766
 30
0.0
 10
192.1844079540114
 20
95.45258460245733
 30
0.0
 10
192.188436719203
 20
95.45643135853428
 30
0.0
 10
192.190084791394
 20
95.45800497511759
 30
0.0
 11
191.978834754439
 21
95.3710203779711
 31
0.0
 11
192.0171450901119
 21
95.37535158817744
 31
0.0
 11
192.0540241101947
 21
95.37952097968435
 31
0.0
 11
192.090993450774
 21
95.38879014436428
 31
0.0
 11
192.1286559833159
 21
95.40831680231123
 31
0.0
 11
192.155748727575
 21
95.42742081526501
 31
0.0
 11
192.1780115263264
 21
95.4464512765435
 31
0.0
 11
192.1851459052921
 21
95.45327863133307
 31
0.0
 11
192.190084791394
 21
95.45800497511759
 31
0.0
  0
SPLINE
  5
2B9
330
A
100
AcDbEntity
  8
0
  6
Continuous
 62
     3
100
AcDbSpline
210
0.0
220
0.0
230
1.0
 70
     8
 71
     3
 72
    13
 73
     9
 74
     7
 42
0.0000000001
 43
0.0000000001
 44
0.00000000001
 40
0.0
 40
0.0
 40
0.0
 40
0.0
 40
0.0316939338961334
 40
0.0587714907697977
 40
0.0794371797040318
 40
0.1030947448737766
 40
0.1194370809852896
 40
0.1316112299690225
 40
0.1316112299690225
 40
0.1316112299690225
 40
0.1316112299690225
 10
192.162838018151
 20
95.39934026765058
 30
0.0
 10
192.1529002147364
 20
95.39575218258105
 30
0.0
 10
192.1344720977481
 20
95.38909863464224
 30
0.0
 10
192.1098534557695
 20
95.379354549082
 30
0.0
 10
192.0868083700208
 20
95.37297653683879
 30
0.0
 10
192.0665322951641
 20
95.37168039933584
 30
0.0
 10
192.0491576244192
 20
95.37138271192956
 30
0.0
 10
192.0396541778538
 20
95.37112878393948
 30
0.0
 10
192.0355970027159
 20
95.3710203779711
 30
0.0
 11
192.162838018151
 21
95.39934026765058
 31
0.0
 11
192.1330868565066
 21
95.38841443465615
 31
0.0
 11
192.1076690975714
 21
95.37908000286005
 31
0.0
 11
192.0876634973623
 21
95.37389862665273
 31
0.0
 11
192.0641043250237
 21
95.3717432175312
 31
0.0
 11
192.0477672399574
 21
95.37132896987738
 31
0.0
 11
192.0355970027159
 21
95.3710203779711
 31
0.0
  0
SPLINE
  5
2B8
330
A
100
AcDbEntity
  8
0
  6
Continuous
 62
     3
100
AcDbSpline
210
0.0
220
0.0
230
1.0
 70
     8
 71
     3
 72
    13
 73
     9
 74
     7
 42
0.0000000001
 43
0.0000000001
 44
0.00000000001
 40
0.0
 40
0.0
 40
0.0
 40
0.0
 40
0.0208784048293046
 40
0.0361774680512679
 40
0.0796295968183649
 40
0.1475183991893124
 40
0.2744527918938585
 40
0.3882430970839135
 40
0.3882430970839135
 40
0.3882430970839135
 40
0.3882430970839135
 10
50.8023707183316
 20
91.871020386353
 30
0.0
 10
50.80682640591776
 20
91.86568168871426
 30
0.0
 10
50.81454708652591
 20
91.85643095500932
 30
0.0
 10
50.83048048039442
 20
91.83504716157983
 30
0.0
 10
50.8687734565288
 20
91.81352445503756
 30
0.0
 10
50.9470059826614
 20
91.79909101343691
 30
0.0
 10
51.04857597858623
 20
91.78311678839119
 30
0.0
 10
51.12774074132959
 20
91.76996542490577
 30
0.0
 10
51.1651618393376
 20
91.76374878956359
 30
0.0
 11
50.8023707183316
 21
91.871020386353
 31
0.0
 11
50.81557731727093
 21
91.85484962469276
 31
0.0
 11
50.8252547133063
 21
91.84300017991908
 31
0.0
 11
50.86182445759231
 21
91.81953230193135
 31
0.0
 11
50.92763830807575
 21
91.80287617477329
 31
0.0
 11
51.05288472216393
 21
91.7822442623723
 31
0.0
 11
51.1651618393376
 21
91.76374878956359
 31
0.0
  0
SPLINE
  5
2B7
330
A
100
AcDbEntity
  8
0
  6
Continuous
 62
     3
100
AcDbSpline
210
0.0
220
0.0
230
1.0
 70
     8
 71
     3
 72
    21
 73
    17
 74
    15
 42
0.0000000001
 43
0.0000000001
 44
0.00000000001
 40
0.0
 40
0.0
 40
0.0
 40
0.0
 40
0.0090859478074739
 40
0.0254399447368068
 40
0.1202176452997594
 40
0.2346265975915664
 40
0.5013161412613502
 40
0.7729343200229062
 40
1.150872940336219
 40
1.511444141542836
 40
2.001733177836126
 40
2.537636169484959
 40
3.092891707254181
 40
3.582406088303435
 40
4.08095863938764
 40
4.643989028743039
 40
4.643989028743039
 40
4.643989028743039
 40
4.643989028743039
 10
51.1651618393376
 20
91.76374878956359
 30
0.0
 10
51.16813357821346
 20
91.76316441118
 30
0.0
 10
51.1764542151328
 20
91.76152819731454
 30
0.0
 10
51.2157519291381
 20
91.75368650399731
 30
0.0
 10
51.2900354431497
 20
91.74177148117728
 30
0.0
 10
51.447818592462
 20
91.72517362849042
 30
0.0
 10
51.66460063554082
 20
91.70665474292686
 30
0.0
 10
51.969071189256
 20
91.68260241346544
 30
0.0
 10
52.30503214370802
 20
91.6599894331687
 30
0.0
 10
52.71405170165429
 20
91.63801187251264
 30
0.0
 10
53.17591342305369
 20
91.61877325221922
 30
0.0
 10
53.70272138162668
 20
91.59982213738377
 30
0.0
 10
54.22940983602094
 20
91.5846803311253
 30
0.0
 10
54.74381669435739
 20
91.57764031340549
 30
0.0
 10
55.26084243815461
 20
91.57497636350603
 30
0.0
 10
55.61469409715343
 20
91.57239140921822
 30
0.0
 10
55.80236594996001
 20
91.57102043031141
 30
0.0
 11
51.1651618393376
 21
91.76374878956359
 31
0.0
 11
51.17407646632857
 21
91.76199269356052
 31
0.0
 11
51.19012209915913
 21
91.75883185781165
 31
0.0
 11
51.283664467213
 21
91.74357938578657
 31
0.0
 11
51.39734712513505
 21
91.73070842419523
 31
0.0
 11
51.6629874186998
 21
91.70707482231929
 31
0.0
 11
51.93377366923274
 21
91.68583237528372
 31
0.0
 11
52.31086040964076
 21
91.6604711660698
 31
0.0
 11
52.67090251921886
 21
91.64094501770085
 31
0.0
 11
53.16073747563709
 21
91.619848700957
 31
0.0
 11
53.69629777822311
 21
91.60068679207144
 31
0.0
 11
54.25134644561179
 21
91.58553129625522
 31
0.0
 11
54.74080846014266
 21
91.57837129727322
 31
0.0
 11
55.23934905881866
 21
91.57491910024097
 31
0.0
 11
55.80236594996001
 21
91.57102043031141
 31
0.0
  0
SPLINE
  5
2B6
330
A
100
AcDbEntity
  8
0
  6
Continuous
 62
     3
100
AcDbSpline
210
0.0
220
0.0
230
1.0
 70
     8
 71
     3
 72
    21
 73
    17
 74
    15
 42
0.0000000001
 43
0.0000000001
 44
0.00000000001
 40
0.0
 40
0.0
 40
0.0
 40
0.0
 40
0.5629149553027397
 40
1.061311202104132
 40
1.55102538734717
 40
2.106821337212291
 40
2.642113100879782
 40
3.130519979355543
 40
3.490300098782047
 40
3.865753641242602
 40
4.15358316731953
 40
4.443477828138004
 40
4.581735735257661
 40
4.693421038393544
 40
4.733924441388466
 40
4.777781563902077
 40
4.777781563902077
 40
4.777781563902077
 40
4.777781563902077
 10
55.80236594996001
 20
102.571020370707
 30
0.0
 10
55.61473257999342
 20
102.569648964886
 30
0.0
 10
55.26097150905689
 20
102.567063337436
 30
0.0
 10
54.74396974740449
 20
102.5643971425839
 30
0.0
 10
54.22936832480828
 20
102.5573521819172
 30
0.0
 10
53.70263664176867
 20
102.5422202829734
 30
0.0
 10
53.17647836386512
 20
102.5233156570579
 30
0.0
 10
52.71571380964494
 20
102.5040334664923
 30
0.0
 10
52.30841254501708
 20
102.4821569509478
 30
0.0
 10
51.96811507886678
 20
102.4597900619508
 30
0.0
 10
51.65137831430382
 20
102.4346035896488
 30
0.0
 10
51.4137183788993
 20
102.4127993878539
 30
0.0
 10
51.23485748116027
 20
102.3926485811109
 30
0.0
 10
51.1394165924132
 20
102.375945733507
 30
0.0
 10
51.07560818918455
 20
102.3618381074574
 30
0.0
 10
51.04811571691956
 20
102.3559297029866
 30
0.0
 10
51.033823004575
 20
102.352858057603
 30
0.0
 11
55.80236594996001
 21
102.571020370707
 31
0.0
 11
55.23946450529713
 21
102.5671203066128
 31
0.0
 11
54.74108022060856
 21
102.5636672498263
 31
0.0
 11
54.25141841783085
 21
102.5565046993907
 31
0.0
 11
53.69582923772489
 21
102.5413455161787
 31
0.0
 11
53.16087984394752
 21
102.522203459145
 31
0.0
 11
52.67292770330437
 21
102.5011324510012
 31
0.0
 11
52.3136708318849
 21
102.4817356813618
 31
0.0
 11
51.939039277948
 21
102.456905028108
 31
0.0
 11
51.65211617558373
 21
102.4340802737538
 31
0.0
 11
51.3635049133405
 21
102.4068322705715
 31
0.0
 11
51.22626160023339
 21
102.3901133624584
 31
0.0
 11
51.11628219258445
 21
102.3706676218003
 31
0.0
 11
51.07669166487678
 21
102.3621168458123
 31
0.0
 11
51.033823004575
 21
102.352858057603
 31
0.0
  0
SPLINE
  5
2B5
330
A
100
AcDbEntity
  8
0
  6
Continuous
 62
     3
100
AcDbSpline
210
0.0
220
0.0
230
1.0
 70
     8
 71
     3
 72
    13
 73
     9
 74
     7
 42
0.0000000001
 43
0.0000000001
 44
0.00000000001
 40
0.0
 40
0.0
 40
0.0
 40
0.0
 40
0.0167076745702908
 40
0.0547533238153897
 40
0.0947935918465653
 40
0.1132471140421146
 40
0.1226088257170883
 40
0.1380754079756735
 40
0.1380754079756735
 40
0.1380754079756735
 40
0.1380754079756735
 10
50.91056059917949
 20
102.328987794354
 30
0.0
 10
50.90509333617496
 20
102.3279575616997
 30
0.0
 10
50.88717637110526
 20
102.3245813490563
 30
0.0
 10
50.85590900723454
 20
102.3183237982405
 30
0.0
 10
50.82510251859942
 20
102.3136748751665
 30
0.0
 10
50.80330307783946
 20
102.2993871456269
 30
0.0
 10
50.80400538473268
 20
102.2842044570092
 30
0.0
 10
50.80299816044699
 20
102.2760809110527
 30
0.0
 10
50.8023707183316
 20
102.271020414665
 30
0.0
 11
50.91056059917949
 21
102.328987794354
 31
0.0
 11
50.89414547225377
 21
102.3258749182628
 31
0.0
 11
50.85676599381716
 21
102.3187864756773
 31
0.0
 11
50.81815495762672
 21
102.3081840727276
 31
0.0
 11
50.80451398254029
 21
102.2957560286291
 31
0.0
 11
50.80370584720812
 21
102.286429262696
 31
0.0
 11
50.8023707183316
 21
102.271020414665
 31
0.0
  0
SPLINE
  5
2B4
330
A
100
AcDbEntity
  8
0
  6
Continuous
 62
     3
100
AcDbSpline
210
0.0
220
0.0
230
1.0
 70
     8
 71
     3
 72
    21
 73
    17
 74
    15
 42
0.0000000001
 43
0.0000000001
 44
0.00000000001
 40
0.0
 40
0.0
 40
0.0
 40
0.0
 40
0.0069805175750795
 40
0.0124676088765076
 40
0.0286644529726547
 40
0.0488081532493464
 40
0.1114443768362336
 40
0.1749721885798239
 40
0.324045799625683
 40
0.4870582853189075
 40
0.7581998166098167
 40
1.033681609463772
 40
1.333086415252057
 40
1.623177106325897
 40
1.866795684100241
 40
2.096442818048471
 40
2.096442818048471
 40
2.096442818048471
 40
2.096442818048471
 10
195.748698151322
 20
98.77105197159929
 30
0.0
 10
195.746371318263
 20
98.77104662935659
 30
0.0
 10
195.7422154595909
 20
98.77103708780156
 30
0.0
 10
195.7326606684924
 20
98.7710145524309
 30
0.0
 10
195.7187181461551
 20
98.77098856810539
 30
0.0
 10
195.6857259135007
 20
98.77094859012515
 30
0.0
 10
195.6369566820965
 20
98.77090865474807
 30
0.0
 10
195.5452108023099
 20
98.77088036561159
 30
0.0
 10
195.4200061565677
 20
98.7709069503796
 30
0.0
 10
195.225597018662
 20
98.77106931020554
 30
0.0
 10
194.989051747576
 20
98.77121250224149
 30
0.0
 10
194.7070424060493
 20
98.77100893673523
 30
0.0
 10
194.4187167346575
 20
98.77076760616477
 30
0.0
 10
194.1410120113819
 20
98.7708082511545
 30
0.0
 10
193.8865599101376
 20
98.77092770523354
 30
0.0
 10
193.7288046845828
 20
98.77099013141096
 30
0.0
 10
193.652255645604
 20
98.77102042304709
 30
0.0
 11
195.748698151322
 21
98.77105197159929
 31
0.0
 11
195.7417176523327
 21
98.77103586330122
 31
0.0
 11
195.7362305756408
 21
98.77102320124549
 31
0.0
 11
195.720033760474
 21
98.77099258872776
 31
0.0
 11
195.6998900772273
 21
98.77096639532521
 31
0.0
 11
195.6372538753962
 21
98.77091418997276
 31
0.0
 11
195.5737260673715
 21
98.77089245269424
 31
0.0
 11
195.4246524590108
 21
98.7709207468908
 31
0.0
 11
195.2616400130215
 21
98.77103452070169
 31
0.0
 11
194.9904985072361
 21
98.77115212676049
 31
0.0
 11
194.7150167512388
 21
98.77100962522757
 31
0.0
 11
194.4156120088028
 21
98.77081485363728
 31
0.0
 11
194.1255213180046
 21
98.77082749974334
 31
0.0
 11
193.8819027604717
 21
98.7709268090736
 31
0.0
 11
193.652255645604
 21
98.77102042304709
 31
0.0
  0
SPLINE
  5
2B3
330
A
100
AcDbEntity
  8
0
  6
Continuous
 62
     6
100
AcDbSpline
210
0.0
220
0.0
230
1.0
 70
     8
 71
     3
 72
    43
 73
    39
 74
    37
 42
0.0000000001
 43
0.0000000001
 44
0.00000000001
 40
0.0
 40
0.0
 40
0.0
 40
0.0
 40
0.0016536335597038
 40
0.0040886903184267
 40
0.0124005779860223
 40
0.0210141351306715
 40
0.0410270978080777
 40
0.0625199018047499
 40
0.0976277362436338
 40
0.1318630991376289
 40
0.1780397547574053
 40
0.2253148274118129
 40
0.2828620775681378
 40
0.339553856415287
 40
0.4024546685928899
 40
0.4661935485182218
 40
0.5329593873853199
 40
0.6003674488448266
 40
0.659540091167859
 40
0.7172610727818859
 40
0.7608809321292038
 40
0.8042319827740367
 40
0.8351213077540984
 40
0.8650757115064386
 40
0.888761822218575
 40
0.913522145115975
 40
0.9353850821783671
 40
0.9571071352747175
 40
0.97480224483299
 40
0.992480205371857
 40
1.006200686338332
 40
1.019821414461192
 40
1.030194281375095
 40
1.041002299040724
 40
1.046891166018979
 40
1.051689069038611
 40
1.054485842518873
 40
1.057768256252646
 40
1.057768256252646
 40
1.057768256252646
 40
1.057768256252646
 10
215.002371183248
 20
152.486150641891
 30
0.0
 10
215.0018199726417
 20
152.4861498280191
 30
0.0
 10
215.0004570773039
 20
152.4861478156807
 30
0.0
 10
214.996323554046
 20
152.4861436185706
 30
0.0
 10
214.9898700800451
 20
152.4861107977779
 30
0.0
 10
214.9775581093784
 20
152.4859593942685
 30
0.0
 10
214.9608561881484
 20
152.4855293118246
 30
0.0
 10
214.9353406908855
 20
152.4844415774219
 30
0.0
 10
214.9051182717329
 20
152.4825225137209
 30
0.0
 10
214.8667783429944
 20
152.478883090707
 30
0.0
 10
214.8245561981949
 20
152.4734321232243
 30
0.0
 10
214.7748837217548
 20
152.4652558693893
 30
0.0
 10
214.7220573067707
 20
152.454810303418
 30
0.0
 10
214.6645470650682
 20
152.4413848594472
 30
0.0
 10
214.6054819665888
 20
152.4256727321569
 30
0.0
 10
214.5436267666202
 20
152.4074834261135
 30
0.0
 10
214.4807277897121
 20
152.3875759165858
 30
0.0
 10
214.4195648631456
 20
152.3672539264477
 30
0.0
 10
214.3614931767207
 20
152.3472063741732
 30
0.0
 10
214.3110508771112
 20
152.32936357377
 30
0.0
 10
214.2657022630816
 20
152.3129403689853
 30
0.0
 10
214.2288326411541
 20
152.2993720789092
 30
0.0
 10
214.1963076023163
 20
152.2871896234326
 30
0.0
 10
214.1699702402346
 20
152.2771756572923
 30
0.0
 10
214.145619677067
 20
152.2676873768935
 30
0.0
 10
214.1238525855272
 20
152.2589992965933
 30
0.0
 10
214.1027936542626
 20
152.2503073340739
 30
0.0
 10
214.0840219826539
 20
152.2422494371837
 30
0.0
 10
214.0666933244668
 20
152.2343780043002
 30
0.0
 10
214.0519462232705
 20
152.2272774491758
 30
0.0
 10
214.0386692247975
 20
152.2202775353929
 30
0.0
 10
214.027783703955
 20
152.2139788246059
 30
0.0
 10
214.018161509202
 20
152.2074686801673
 30
0.0
 10
214.011082453001
 20
152.2019007320621
 30
0.0
 10
214.0058691537163
 20
152.1968702335401
 30
0.0
 10
214.0039224823715
 20
152.1927135705037
 30
0.0
 10
214.0031561411833
 20
152.189169390749
 30
0.0
 10
214.0026450933299
 20
152.1872082128628
 30
0.0
 10
214.00236915669
 20
152.186149288865
 30
0.0
 11
215.002371183248
 21
152.486150641891
 31
0.0
 11
215.0007175513422
 21
152.4861483030767
 31
0.0
 11
214.998282497019
 21
152.4861448590579
 31
0.0
 11
214.9899707224534
 21
152.4861014981405
 31
0.0
 11
214.9813578298906
 21
152.4859945010159
 31
0.0
 11
214.9613512824023
 21
152.4854878130192
 31
0.0
 11
214.9398777297926
 21
152.4845783285732
 31
0.0
 11
214.9048426295939
 21
152.4823196136593
 31
0.0
 11
214.8707593478652
 21
152.4790962646122
 31
0.0
 11
214.8249584237539
 21
152.4732175849324
 31
0.0
 11
214.778303123674
 21
152.4655876787115
 31
0.0
 11
214.7218473676816
 21
152.4544326970496
 31
0.0
 11
214.6666296348542
 21
152.4415890305068
 31
0.0
 11
214.6058255566778
 21
152.4254838682997
 31
0.0
 11
214.5446574136229
 21
152.4075645187201
 31
0.0
 11
214.4809808413561
 21
152.3874903715659
 31
0.0
 11
214.4170044827833
 21
152.3662566179295
 31
0.0
 11
214.3610607697197
 21
152.3469770285108
 31
0.0
 11
214.3066471597097
 21
152.3277190233138
 31
0.0
 11
214.2656309238807
 21
152.3128744779218
 31
0.0
 11
214.2249512329328
 21
152.2978919435435
 31
0.0
 11
214.1960248783596
 21
152.2870560583083
 31
0.0
 11
214.1680336604699
 21
152.2763903175836
 31
0.0
 11
214.1459649024684
 21
152.2677878899645
 31
0.0
 11
214.1229748437661
 21
152.2585938271604
 31
0.0
 11
214.1027699815901
 21
152.2502420871355
 31
0.0
 11
214.0828221915523
 21
152.2416436417336
 31
0.0
 11
214.066715713528
 21
152.2343157315314
 31
0.0
 11
214.0508118778297
 21
152.2265970335262
 31
0.0
 11
214.0386830861901
 21
152.2201826737519
 31
0.0
 11
214.0269401788168
 21
152.2132813433715
 31
0.0
 11
214.0183578957689
 21
152.2074554712738
 31
0.0
 11
214.0099287807448
 21
152.2006906160816
 31
0.0
 11
214.0059230974555
 21
152.1963739905855
 31
0.0
 11
214.0038576248013
 21
152.1920434367987
 31
0.0
 11
214.0031728444199
 21
152.1893317919604
 31
0.0
 11
214.00236915669
 21
152.186149288865
 31
0.0
  0
SPLINE
  5
2B2
330
A
100
AcDbEntity
  8
0
  6
Continuous
 62
     6
100
AcDbSpline
210
0.0
220
0.0
230
1.0
 70
     8
 71
     3
 72
    19
 73
    15
 74
    13
 42
0.0000000001
 43
0.0000000001
 44
0.00000000001
 40
0.0
 40
0.0
 40
0.0
 40
0.0
 40
0.0068329417719407
 40
0.0121242475619198
 40
0.0245818270447249
 40
0.0415964950532997
 40
0.0793396050639762
 40
0.1155579334347928
 40
0.1678159642922157
 40
0.2236062307545394
 40
0.2826166040025147
 40
0.336390577189315
 40
0.3873156972484618
 40
0.4414124947832045
 40
0.4414124947832045
 40
0.4414124947832045
 40
0.4414124947832045
 10
180.002369171591
 20
152.186149288865
 30
0.0
 10
180.0013633690715
 20
152.1881923642996
 30
0.0
 10
179.9995786913804
 20
152.1918175601791
 30
0.0
 10
179.9962814347626
 20
152.199332877172
 30
0.0
 10
179.9885714363756
 20
152.2083931483087
 30
0.0
 10
179.9689972195686
 20
152.219625511159
 30
0.0
 10
179.9418313442774
 20
152.2329616378189
 30
0.0
 10
179.9033608130836
 20
152.2500784310006
 30
0.0
 10
179.8587188668726
 20
152.2679502096554
 30
0.0
 10
179.8068354199054
 20
152.288181015421
 30
0.0
 10
179.7541848205791
 20
152.3078218067087
 30
0.0
 10
179.7026937049419
 20
152.3258994712503
 30
0.0
 10
179.6525598013548
 20
152.342881485548
 30
0.0
 10
179.6194333094954
 20
152.3542017383994
 30
0.0
 10
179.602369851084
 20
152.360032801482
 30
0.0
 11
180.002369171591
 21
152.186149288865
 31
0.0
 11
179.9994020763785
 21
152.1923044037509
 31
0.0
 11
179.9971044118288
 21
152.1970708127325
 31
0.0
 11
179.9892165166078
 21
152.2067130321634
 31
0.0
 11
179.9749946225627
 21
152.2160530887591
 31
0.0
 11
179.941256886092
 21
152.2329737120074
 31
0.0
 11
179.9081806280893
 21
152.2477293369186
 31
0.0
 11
179.859783332198
 21
152.2674423666071
 31
0.0
 11
179.8077878263948
 21
152.2876666393557
 31
0.0
 11
179.7524814432773
 21
152.3082440088989
 31
0.0
 11
179.7017649224922
 21
152.3261178644359
 31
0.0
 11
179.6535682597315
 21
152.3425632148964
 31
0.0
 11
179.602369851084
 21
152.360032801482
 31
0.0
  0
SPLINE
  5
2B1
330
A
100
AcDbEntity
  8
0
  6
Continuous
 62
     3
100
AcDbSpline
210
0.0
220
0.0
230
1.0
 70
     8
 71
     3
 72
    13
 73
     9
 74
     7
 42
0.0000000001
 43
0.0000000001
 44
0.00000000001
 40
0.0
 40
0.0
 40
0.0
 40
0.0
 40
0.0190244930879936
 40
0.0409810668641246
 40
0.063261068210017
 40
0.082818499243558
 40
0.1032334266063322
 40
0.1261389896525941
 40
0.1261389896525941
 40
0.1261389896525941
 40
0.1261389896525941
 10
79.65236734470899
 20
171.728529524955
 30
0.0
 10
79.64817994284286
 20
171.7332975680855
 30
0.0
 10
79.63915977105329
 20
171.7435685116232
 30
0.0
 10
79.6249526421278
 20
171.7590521830105
 30
0.0
 10
79.6117757660044
 20
171.7761747623021
 30
0.0
 10
79.60637534896491
 20
171.7966042889949
 30
0.0
 10
79.60495082794747
 20
171.8174935893656
 30
0.0
 10
79.60326033876888
 20
171.8318407485479
 30
0.0
 10
79.60236649832309
 20
171.839426760527
 30
0.0
 11
79.65236734470899
 21
171.728529524955
 31
0.0
 11
79.6397656305523
 21
171.7427818278415
 31
0.0
 11
79.62522172311098
 21
171.7592307149869
 31
0.0
 11
79.61263486583658
 21
171.7776146613513
 31
0.0
 11
79.60706305885152
 21
171.7963616097844
 31
0.0
 11
79.60484978884609
 21
171.8166562074673
 31
0.0
 11
79.60236649832309
 21
171.839426760527
 31
0.0
  0
SPLINE
  5
2B0
330
A
100
AcDbEntity
  8
0
  6
Continuous
 62
     3
100
AcDbSpline
210
0.0
220
0.0
230
1.0
 70
     8
 71
     3
 72
    51
 73
    47
 74
    45
 42
0.0000000001
 43
0.0000000001
 44
0.00000000001
 40
0.0
 40
0.0
 40
0.0
 40
0.0
 40
0.0188382166626265
 40
0.0377885920090713
 40
0.0664122634806243
 40
0.0974686373534378
 40
0.1395054654109791
 40
0.1807393941701942
 40
0.224233295665858
 40
0.26727500632655
 40
0.3104105801682496
 40
0.3534874296894979
 40
0.3963604273885907
 40
0.4391946286051397
 40
0.4817117707171581
 40
0.5241691113100159
 40
0.5666294578302496
 40
0.6091301063112235
 40
0.6520423238769663
 40
0.6949933375613732
 40
0.7383698825582982
 40
0.7817255839619016
 40
0.8254796146608985
 40
0.869274581021181
 40
0.9127440786302935
 40
0.9549601069737629
 40
1.00224528373509
 40
1.050884582056993
 40
1.110708958644132
 40
1.170505170508247
 40
1.241672524304246
 40
1.314117438117733
 40
1.392996203659024
 40
1.471346066968229
 40
1.546629573160148
 40
1.621192003890117
 40
1.689623281489497
 40
1.757994577893303
 40
1.820041669755118
 40
1.881299103008447
 40
1.941249336503016
 40
2.004715696454707
 40
2.056777612738878
 40
2.103772433762225
 40
2.140590306454365
 40
2.17964196501656
 40
2.17964196501656
 40
2.17964196501656
 40
2.17964196501656
 10
195.274416542264
 20
144.410820235463
 30
0.0
 10
195.2715036274537
 20
144.4052573220188
 30
0.0
 10
195.265660454966
 20
144.3940983747422
 30
0.0
 10
195.2554525965408
 20
144.3744550550811
 30
0.0
 10
195.243002147504
 20
144.3513870272265
 30
0.0
 10
195.2259898221872
 20
144.3220541230973
 30
0.0
 10
195.2062671079388
 20
144.2894437974675
 30
0.0
 10
195.1837885871787
 20
144.2536612519915
 30
0.0
 10
195.1603972847675
 20
144.2180657455742
 30
0.0
 10
195.135856737295
 20
144.1824797877574
 30
0.0
 10
195.1106209792714
 20
144.1475550379924
 30
0.0
 10
195.0846792053511
 20
144.1132220216148
 30
0.0
 10
195.0580665582168
 20
144.0795342295948
 30
0.0
 10
195.0308535124184
 20
144.04657118351
 30
0.0
 10
195.0030362476968
 20
144.0142993131961
 30
0.0
 10
194.9746317203213
 20
143.9827104878604
 30
0.0
 10
194.9455655580203
 20
143.9517367869544
 30
0.0
 10
194.9157377166572
 20
143.9212832983299
 30
0.0
 10
194.8851488944635
 20
143.8913598170669
 30
0.0
 10
194.8537126642701
 20
143.8618992293845
 30
0.0
 10
194.8215400545903
 20
143.8330226815559
 30
0.0
 10
194.7885458573242
 20
143.8046760974606
 30
0.0
 10
194.7548342424661
 20
143.7769660940878
 30
0.0
 10
194.7204873589111
 20
143.7499864159195
 30
0.0
 10
194.685989745648
 20
143.7240441924974
 30
0.0
 10
194.6499818281756
 20
143.6981918271427
 30
0.0
 10
194.6119436841376
 20
143.6722342728347
 30
0.0
 10
194.5684491873861
 20
143.6438809039537
 30
0.0
 10
194.5206933236088
 20
143.6144526820536
 30
0.0
 10
194.4655674372086
 20
143.5827226138523
 30
0.0
 10
194.4056569585844
 20
143.5509374642141
 30
0.0
 10
194.3388370526536
 20
143.5187221712779
 30
0.0
 10
194.2686854816895
 20
143.4880192445936
 30
0.0
 10
194.1965358012604
 20
143.4596599658459
 30
0.0
 10
194.1247128246084
 20
143.4345554827958
 30
0.0
 10
194.0551231155008
 20
143.4132510142248
 30
0.0
 10
193.9870296098685
 20
143.3951098156
 30
0.0
 10
193.9224255078215
 20
143.3802277876996
 30
0.0
 10
193.8597304113989
 20
143.3678717883541
 30
0.0
 10
193.7994638902542
 20
143.3578448782946
 30
0.0
 10
193.7384409379987
 20
143.349676374409
 30
0.0
 10
193.680274105231
 20
143.3434662084303
 30
0.0
 10
193.6262670471183
 20
143.3390571884795
 30
0.0
 10
193.5809946015955
 20
143.3373822014833
 30
0.0
 10
193.5400435407345
 20
143.3368489094127
 30
0.0
 10
193.5147578325385
 20
143.33638650139
 30
0.0
 10
193.501742741676
 20
143.336148490163
 30
0.0
 11
195.274416542264
 21
144.410820235463
 31
0.0
 11
195.2656864708388
 21
144.3941269955157
 31
0.0
 11
195.2569044224492
 21
144.3773343676137
 31
0.0
 11
195.2432650192924
 21
144.3521692876409
 31
0.0
 11
195.2277569211322
 21
144.325262090656
 31
0.0
 11
195.2060264492072
 21
144.289277628689
 31
0.0
 11
195.1840739641264
 21
144.2543731120801
 31
0.0
 11
195.1601794465336
 21
144.2180306920132
 31
0.0
 11
195.1357457471757
 21
144.1825964826628
 31
0.0
 11
195.1104859639279
 21
144.1476304837363
 31
0.0
 11
195.084515618812
 21
144.1132625315245
 31
0.0
 11
195.0579387763086
 21
144.0796208107858
 31
0.0
 11
195.0306697597345
 21
144.0465879554908
 31
0.0
 11
195.0029116130314
 21
144.0143824797921
 31
0.0
 11
194.9745215493432
 21
143.9828130316816
 31
0.0
 11
194.9454655730093
 21
143.9518512606421
 31
0.0
 11
194.9157272044363
 21
143.9214878854029
 31
0.0
 11
194.8850521544872
 21
143.8914795577749
 31
0.0
 11
194.8537126028684
 21
143.8621091290948
 31
0.0
 11
194.8214314138574
 21
143.8331358743259
 31
0.0
 11
194.7885457563072
 21
143.8048825493589
 31
0.0
 11
194.7547436502452
 21
143.7771006698655
 31
0.0
 11
194.7203080088218
 21
143.7500417401333
 31
0.0
 11
194.6855595247428
 21
143.7239239286514
 31
0.0
 11
194.6512636818736
 21
143.6993071008504
 31
0.0
 11
194.6122255995786
 21
143.6726253454344
 31
0.0
 11
194.5714732417332
 21
143.6460730070951
 31
0.0
 11
194.5205322641634
 21
143.6147046657573
 31
0.0
 11
194.4687002408427
 21
143.5848880879562
 31
0.0
 11
194.4058289239851
 21
143.5515415774503
 31
0.0
 11
194.3405919390217
 21
143.5200391754731
 31
0.0
 11
194.2683314296461
 21
143.488411996685
 31
0.0
 11
194.1954069767906
 21
143.4597636938331
 31
0.0
 11
194.1243319066477
 21
143.4349455410266
 31
0.0
 11
194.0530382794262
 21
143.4131103677053
 31
0.0
 11
193.986916890408
 21
143.395480799696
 31
0.0
 11
193.9202919846561
 21
143.3801264483428
 31
0.0
 11
193.8594166032017
 21
143.3681252175186
 31
0.0
 11
193.7989854324151
 21
143.3580979184736
 31
0.0
 11
193.7395725213334
 21
143.3500893922139
 31
0.0
 11
193.6764649297924
 21
143.3433506434121
 31
0.0
 11
193.6245589081582
 21
143.3393247217418
 31
0.0
 11
193.5776008115164
 21
143.3374672065214
 31
0.0
 11
193.5407885008051
 21
143.3368272614711
 31
0.0
 11
193.501742741676
 21
143.336148490163
 31
0.0
  0
SPLINE
  5
2AF
330
A
100
AcDbEntity
  8
0
  6
Continuous
 62
     3
100
AcDbSpline
210
0.0
220
0.0
230
1.0
 70
     8
 71
     3
 72
    23
 73
    19
 74
    17
 42
0.0000000001
 43
0.0000000001
 44
0.00000000001
 40
0.0
 40
0.0
 40
0.0
 40
0.0
 40
0.0144511377459786
 40
0.0277677480607503
 40
0.0454087317998656
 40
0.0654037134766337
 40
0.0911182310494752
 40
0.115522932008297
 40
0.1398639499195875
 40
0.164407589898747
 40
0.1891574962214445
 40
0.2136681779139617
 40
0.2388240417265289
 40
0.265313222273189
 40
0.2869171531325932
 40
0.3062631573178497
 40
0.3214585094970904
 40
0.3377000108651342
 40
0.3377000108651342
 40
0.3377000108651342
 40
0.3377000108651342
 10
177.222477922799
 20
167.815561895224
 30
0.0
 10
177.2202111337432
 20
167.8198123553438
 30
0.0
 10
177.215855516316
 20
167.8279795811931
 30
0.0
 10
177.2089136938073
 20
167.8414299788942
 30
0.0
 10
177.2001803783391
 20
167.8560295175272
 30
0.0
 10
177.1874160736057
 20
167.8728872539836
 30
0.0
 10
177.1721559518816
 20
167.8906086935121
 30
0.0
 10
177.1545732467419
 20
167.9081666215907
 30
0.0
 10
177.1358583839619
 20
167.9239144626544
 30
0.0
 10
177.1158224229623
 20
167.9381380529591
 30
0.0
 10
177.0946578853137
 20
167.9507332984236
 30
0.0
 10
177.0723324358529
 20
167.9616137017547
 30
0.0
 10
177.0486117740135
 20
167.9707369830712
 30
0.0
 10
177.0252192347347
 20
167.977784222591
 30
0.0
 10
177.0032672821339
 20
167.9828015935281
 30
0.0
 10
176.9846142403313
 20
167.9847270046882
 30
0.0
 10
176.9676983834987
 20
167.9853410473491
 30
0.0
 10
176.9572327546714
 20
167.9858746886944
 30
0.0
 10
176.951825803729
 20
167.986150388571
 30
0.0
 11
177.222477922799
 21
167.815561895224
 31
0.0
 11
177.2157075236247
 21
167.8283289260916
 31
0.0
 11
177.2094686537817
 21
167.8400936451004
 31
0.0
 11
177.2003350785628
 21
167.8551860972208
 31
0.0
 11
177.1884271461935
 21
167.8712484892887
 31
0.0
 11
177.1716269464436
 21
167.8907161471439
 31
0.0
 11
177.1543233696848
 21
167.9079259019429
 31
0.0
 11
177.1357071845487
 21
167.9236078279705
 31
0.0
 11
177.115699322898
 21
167.9378231624932
 31
0.0
 11
177.094424631575
 21
167.9504701135919
 31
0.0
 11
177.0723872662017
 21
167.9611998873284
 31
0.0
 11
177.0489305048743
 21
167.9702882222795
 31
0.0
 11
177.0235693528454
 21
167.9779360097898
 31
0.0
 11
177.0024557135952
 21
167.9825124785369
 31
0.0
 11
176.9832258111736
 21
167.9846287797419
 31
0.0
 11
176.9680482689672
 21
167.9853642662627
 31
0.0
 11
176.951825803729
 21
167.986150388571
 31
0.0
  0
SPLINE
  5
2AE
330
A
100
AcDbEntity
  8
0
  6
Continuous
 62
     3
100
AcDbSpline
210
0.0
220
0.0
230
1.0
 70
     8
 71
     3
 72
    37
 73
    33
 74
    31
 42
0.0000000001
 43
0.0000000001
 44
0.00000000001
 40
0.0
 40
0.0
 40
0.0
 40
0.0
 40
0.0067694912860927
 40
0.0131025565665817
 40
0.0214768303150162
 40
0.0308089637491596
 40
0.0428988855546685
 40
0.0544949028106642
 40
0.0664940163091533
 40
0.0785692417254018
 40
0.0910236576715535
 40
0.1034076498492927
 40
0.1158622453571793
 40
0.1283301633236314
 40
0.1408464938215162
 40
0.1533452839599004
 40
0.165860507864978
 40
0.1783896664287226
 40
0.1909199941616572
 40
0.2034380049140362
 40
0.2159347887576711
 40
0.2284493803112466
 40
0.2408952444278753
 40
0.2533259845070122
 40
0.2656265722971758
 40
0.2779355345388208
 40
0.2903720861191661
 40
0.3033661428053149
 40
0.3136571837292735
 40
0.3228817003648898
 40
0.3299517075425281
 40
0.3375029810354967
 40
0.3375029810354967
 40
0.3375029810354967
 40
0.3375029810354967
 10
176.951825803729
 20
169.586150464567
 30
0.0
 10
176.9540818022592
 20
169.5861983676362
 30
0.0
 10
176.9584483561267
 20
169.5862910854857
 30
0.0
 10
176.9656064379814
 20
169.5863994277828
 30
0.0
 10
176.9736148870988
 20
169.5867475459527
 30
0.0
 10
176.9835055452423
 20
169.587686345126
 30
0.0
 10
176.9944266902999
 20
169.5890633331091
 30
0.0
 10
177.0061729754145
 20
169.5909562256644
 30
0.0
 10
177.0178283754449
 20
169.5933251114193
 30
0.0
 10
177.029652252051
 20
169.5962472397136
 30
0.0
 10
177.0414714044179
 20
169.5996814403309
 30
0.0
 10
177.0532602654203
 20
169.6036361530346
 30
0.0
 10
177.0648785269862
 20
169.6080800352177
 30
0.0
 10
177.0763421506495
 20
169.6130212176329
 30
0.0
 10
177.0876043391867
 20
169.6184399018491
 30
0.0
 10
177.0986444793376
 20
169.6243313622016
 30
0.0
 10
177.1094325680749
 20
169.630681035542
 30
0.0
 10
177.1199551080515
 20
169.6374810338755
 30
0.0
 10
177.1301867833146
 20
169.6447129101918
 30
0.0
 10
177.1400990199107
 20
169.6523591605003
 30
0.0
 10
177.1496789762104
 20
169.6604096740774
 30
0.0
 10
177.1588958464659
 20
169.6688378255774
 30
0.0
 10
177.1677407240862
 20
169.6776241800178
 30
0.0
 10
177.1761679841206
 20
169.686714889613
 30
0.0
 10
177.1841806797588
 20
169.696113106191
 30
0.0
 10
177.1917956101188
 20
169.705839067125
 30
0.0
 10
177.199128490967
 20
169.7160649464292
 30
0.0
 10
177.2057052684488
 20
169.7259933679911
 30
0.0
 10
177.211385874234
 20
169.735226491161
 30
0.0
 10
177.2155903357316
 20
169.7430319476186
 30
0.0
 10
177.2191357486306
 20
169.7501459732862
 30
0.0
 10
177.2213396835587
 20
169.7544929808916
 30
0.0
 10
177.222477922799
 20
169.756738026592
 30
0.0
 11
176.951825803729
 21
169.586150464567
 31
0.0
 11
176.9585939165972
 21
169.5862870679162
 31
0.0
 11
176.9649256923258
 21
169.5864148645097
 31
0.0
 11
176.9732910539989
 21
169.5868011091121
 31
0.0
 11
176.9825853237717
 21
169.587640908983
 31
0.0
 11
176.994580198935
 21
169.5891539123143
 31
0.0
 11
177.0060265424902
 21
169.5910110163546
 31
0.0
 11
177.0177851673997
 21
169.5934013018998
 31
0.0
 11
177.0295086909126
 21
169.5962944084129
 31
0.0
 11
177.0414685402247
 21
169.5997692438036
 31
0.0
 11
177.0532090052982
 21
169.6037093887395
 31
0.0
 11
177.0648418189214
 21
169.6081585006141
 31
0.0
 11
177.0762916440974
 21
169.613093121355
 31
0.0
 11
177.087570185195
 21
169.6185201868458
 31
0.0
 11
177.0985970887187
 21
169.6244046709865
 31
0.0
 11
177.109382856223
 21
169.6307527453984
 31
0.0
 11
177.1199061624693
 21
169.6375527336308
 31
0.0
 11
177.1301382776788
 21
169.6447855015267
 31
0.0
 11
177.1400498540119
 21
169.6524314970661
 31
0.0
 11
177.1496169757554
 21
169.6604713843775
 31
0.0
 11
177.1588530616637
 21
169.6689158925839
 31
0.0
 11
177.1676828345855
 21
169.6776871321632
 31
0.0
 11
177.1761327914044
 21
169.6868042330552
 31
0.0
 11
177.1841126460782
 21
169.6961651293461
 31
0.0
 11
177.1917004989883
 21
169.7058571384093
 31
0.0
 11
177.198958189132
 21
169.7159563338717
 31
0.0
 11
177.2061349407557
 21
169.7267886810456
 31
0.0
 11
177.2114822167129
 21
169.7355814145873
 31
0.0
 11
177.2158816276562
 21
169.7436892435515
 31
0.0
 11
177.2190712151523
 21
169.7499988816629
 31
0.0
 11
177.222477922799
 21
169.756738026592
 31
0.0
  0
SPLINE
  5
2AD
330
A
100
AcDbEntity
  8
0
  6
Continuous
 62
     3
100
AcDbSpline
210
0.0
220
0.0
230
1.0
 70
     8
 71
     3
 72
    13
 73
     9
 74
     7
 42
0.0000000001
 43
0.0000000001
 44
0.00000000001
 40
0.0
 40
0.0
 40
0.0
 40
0.0
 40
0.0000434239654919
 40
0.0001369376832397
 40
0.0003309902058657
 40
0.0004862110564991
 40
0.0007117452492354
 40
0.0009959937025007
 40
0.0009959937025007
 40
0.0009959937025007
 40
0.0009959937025007
 10
176.053784506978
 20
167.559726652655
 30
0.0
 10
176.0537757048071
 20
167.5597151619007
 30
0.0
 10
176.0537479471192
 20
167.5596789257522
 30
0.0
 10
176.0536808509306
 20
167.5595913425084
 30
0.0
 10
176.0535911204653
 20
167.5594741548637
 30
0.0
 10
176.0534748601719
 20
167.5593218555226
 30
0.0
 10
176.0533405318946
 20
167.5591455247383
 30
0.0
 10
176.0532375179303
 20
167.5590103822398
 30
0.0
 10
176.053180078627
 20
167.558935028466
 30
0.0
 11
176.053784506978
 21
167.559726652655
 31
0.0
 11
176.0537581003216
 21
167.5596921805028
 31
0.0
 11
176.0537012334601
 21
167.5596179445582
 31
0.0
 11
176.0535832932749
 21
167.5594638455826
 31
0.0
 11
176.0534890983657
 21
167.5593404728484
 31
0.0
 11
176.0533523841841
 21
167.5591610992031
 31
0.0
 11
176.053180078627
 21
167.558935028466
 31
0.0
  0
SPLINE
  5
2AC
330
A
100
AcDbEntity
  8
0
  6
Continuous
 62
     3
100
AcDbSpline
210
0.0
220
0.0
230
1.0
 70
     8
 71
     3
 72
    19
 73
    15
 74
    13
 42
0.0000000001
 43
0.0000000001
 44
0.00000000001
 40
0.0
 40
0.0
 40
0.0
 40
0.0
 40
0.0311414741216576
 40
0.0668080579744406
 40
0.1441558337468642
 40
0.2273900959516289
 40
0.3671996898572555
 40
0.5171409437190202
 40
0.6588115499264762
 40
0.7881957053635808
 40
0.8623866585183508
 40
0.9370036329782562
 40
0.9557868876886242
 40
0.9620602252901095
 40
0.9620602252901095
 40
0.9620602252901095
 40
0.9620602252901095
 10
176.872936262401
 20
167.986150388571
 30
0.0
 10
176.8625669476307
 20
167.9856680045602
 30
0.0
 10
176.8403215722313
 20
167.9846331422146
 30
0.0
 10
176.7923056379668
 20
167.9827670608623
 30
0.0
 10
176.7270741348695
 20
167.9770612377622
 30
0.0
 10
176.6282171285386
 20
167.9605397375621
 30
0.0
 10
176.5083383894927
 20
167.9255670827757
 30
0.0
 10
176.3779143405788
 20
167.863992101471
 30
0.0
 10
176.258775108323
 20
167.7887239784994
 30
0.0
 10
176.1744328955697
 20
167.7094182885643
 30
0.0
 10
176.1151091253754
 20
167.6381231717311
 30
0.0
 10
176.0802877859626
 20
167.5944323093401
 30
0.0
 10
176.0601362796281
 20
167.5680162575822
 30
0.0
 10
176.0550563519618
 20
167.5613865188097
 30
0.0
 10
176.053784506978
 20
167.559726652655
 30
0.0
 11
176.872936262401
 21
167.986150388571
 31
0.0
 11
176.8418267344378
 21
167.9847401827773
 31
0.0
 11
176.8061967387805
 21
167.9831250626003
 31
0.0
 11
176.729153643307
 21
167.9762665017598
 31
0.0
 11
176.6470745804076
 21
167.9624473180531
 31
0.0
 11
176.5128826396407
 21
167.9232140976744
 31
0.0
 11
176.3769034305075
 21
167.8600315502966
 31
0.0
 11
176.2581635234429
 21
167.7827567475891
 31
0.0
 11
176.1635025816222
 21
167.6945549008296
 31
0.0
 11
176.1154023797115
 21
167.6380689016248
 31
0.0
 11
176.0690207572095
 21
167.5796185981899
 31
0.0
 11
176.0575991574419
 21
167.5647069344242
 31
0.0
 11
176.053784506978
 21
167.559726652655
 31
0.0
  0
SPLINE
  5
2AB
330
A
100
AcDbEntity
  8
0
  6
Continuous
 62
     3
100
AcDbSpline
210
0.0
220
0.0
230
1.0
 70
     8
 71
     3
 72
    19
 73
    15
 74
    13
 42
0.0000000001
 43
0.0000000001
 44
0.00000000001
 40
0.0
 40
0.0
 40
0.0
 40
0.0
 40
0.0012405974375202
 40
0.004925631525263
 40
0.0331669693254616
 40
0.0681966486615161
 40
0.1498912313522025
 40
0.2301968354443861
 40
0.3595573525012015
 40
0.5022815098852567
 40
0.6382862278499179
 40
0.7525910482699149
 40
0.8507182254506567
 40
0.9615033013193686
 40
0.9615033013193686
 40
0.9615033013193686
 40
0.9615033013193686
 10
176.053784506978
 20
170.012573269161
 30
0.0
 10
176.0540359644296
 20
170.0122449730531
 30
0.0
 10
176.055034343689
 20
170.0109415158559
 30
0.0
 10
176.0617578239165
 20
170.002165310302
 30
0.0
 10
176.0753012691347
 20
169.9844243503827
 30
0.0
 10
176.1041477615987
 20
169.9456624084055
 30
0.0
 10
176.1457469345226
 20
169.8947171534149
 30
0.0
 10
176.2148418908389
 20
169.8262262360961
 30
0.0
 10
176.3083715488596
 20
169.7544539870766
 30
0.0
 10
176.4257171857752
 20
169.6854292293605
 30
0.0
 10
176.545163805889
 20
169.6298936721603
 30
0.0
 10
176.6594812343543
 20
169.6052368501774
 30
0.0
 10
176.7669576487216
 20
169.5973640691493
 30
0.0
 10
176.8362113739052
 20
169.5900363276069
 30
0.0
 10
176.872936262401
 20
169.586150464567
 30
0.0
 11
176.053784506978
 21
170.012573269161
 31
0.0
 11
176.0545388873121
 21
170.0115883872831
 31
0.0
 11
176.0567796764364
 21
170.0086629231613
 31
0.0
 11
176.0738867553706
 21
169.986192475656
 31
0.0
 11
176.0949896331938
 21
169.958232737067
 31
0.0
 11
176.1471119223165
 21
169.8953258867436
 31
0.0
 11
176.2040782413363
 21
169.8387235144793
 31
0.0
 11
176.3061859480351
 21
169.7592995910939
 31
0.0
 11
176.4288450187579
 21
169.6863274219442
 31
0.0
 11
176.5535452509664
 21
169.6320398967126
 31
0.0
 11
176.6650616283121
 21
169.6069462808923
 31
0.0
 11
176.7627014304438
 21
169.5971783772708
 31
0.0
 11
176.872936262401
 21
169.586150464567
 31
0.0
  0
SPLINE
  5
2AA
330
A
100
AcDbEntity
  8
0
  6
Continuous
 62
     3
100
AcDbSpline
210
0.0
220
0.0
230
1.0
 70
     8
 71
     3
 72
    13
 73
     9
 74
     7
 42
0.0000000001
 43
0.0000000001
 44
0.00000000001
 40
0.0
 40
0.0
 40
0.0
 40
0.0
 40
0.0002837324541949
 40
0.0005088384056984
 40
0.0006641262297842
 40
0.0008583609915857
 40
0.0009522828755544
 40
0.0009960086055391
 40
0.0009960086055391
 40
0.0009960086055391
 40
0.0009960086055391
 10
176.053180078627
 20
170.01336489335
 30
0.0
 10
176.0532378130975
 20
170.0132899825285
 30
0.0
 10
176.0533413525956
 20
170.0131556394091
 30
0.0
 10
176.0534767803665
 20
170.0129805208528
 30
0.0
 10
176.0535931099022
 20
170.0128283476185
 30
0.0
 10
176.0536819072121
 20
170.0127101757171
 30
0.0
 10
176.0537482434768
 20
170.0126216437706
 30
0.0
 10
176.0537757645243
 20
170.012584931377
 30
0.0
 10
176.053784506978
 20
170.012573269161
 30
0.0
 11
176.053180078627
 21
170.01336489335
 31
0.0
 11
176.0533533511197
 21
170.0131402141368
 31
0.0
 11
176.0534908210098
 21
170.0129619594911
 31
0.0
 11
176.0535850736851
 21
170.0128385466007
 31
0.0
 11
176.0537019464404
 21
170.0126834082697
 31
0.0
 11
176.0537582804446
 21
170.0126082564217
 31
0.0
 11
176.053784506978
 21
170.012573269161
 31
0.0
  0
SPLINE
  5
2A9
330
A
100
AcDbEntity
  8
0
  6
Continuous
 62
     6
100
AcDbSpline
210
0.0
220
0.0
230
1.0
 70
    24
 71
     3
 72
    39
 73
    35
 74
    33
 42
0.0000000001
 43
0.0000000001
 44
0.00000000001
 40
0.0
 40
0.0
 40
0.0
 40
0.0
 40
0.0008592997579626
 40
0.0013941927679184
 40
0.0038969142554208
 40
0.008045085695727
 40
0.0189237079424061
 40
0.0286819192758401
 40
0.045984602215384
 40
0.0641381931997387
 40
0.0976753514729012
 40
0.1316858579518509
 40
0.1865443845961181
 40
0.2439261484464623
 40
0.3154872727691043
 40
0.3858100894838401
 40
0.454057614261842
 40
0.5215673666612304
 40
0.5810319896650924
 40
0.6404565876110837
 40
0.6881424185536958
 40
0.7337936670674594
 40
0.7735359160796805
 40
0.8133517936233545
 40
0.8611870058996373
 40
0.9106829821333803
 40
0.977219087277092
 40
1.047353840119143
 40
1.119491320971206
 40
1.190421159471839
 40
1.237197113406296
 40
1.282221295827838
 40
1.294588658735165
 40
1.300003379582989
 40
1.300003379582989
 40
1.300003379582989
 40
1.300003379582989
 10
213.702367803665
 20
152.486150641891
 30
0.0
 10
213.7026542369177
 20
152.486150641891
 30
0.0
 10
213.7031189678403
 20
152.4861506418909
 30
0.0
 10
213.7044179392586
 20
152.4861506418911
 30
0.0
 10
213.7068132012381
 20
152.486150641891
 30
0.0
 10
213.7126563729628
 20
152.486150641891
 30
0.0
 10
213.720918041303
 20
152.4861506418909
 30
0.0
 10
213.7335645468096
 20
152.4861506418911
 30
0.0
 10
213.7486360418953
 20
152.4861506418909
 30
0.0
 10
213.7716338526277
 20
152.4861506418911
 30
0.0
 10
213.8002009378732
 20
152.4861506418909
 30
0.0
 10
213.841003001672
 20
152.4861506418911
 30
0.0
 10
213.8897532673299
 20
152.486150641891
 30
0.0
 10
213.9510204056022
 20
152.4861506418911
 30
0.0
 10
214.0174423072315
 20
152.4861506418909
 30
0.0
 10
214.0874861291699
 20
152.4861506418911
 30
0.0
 10
214.1561794938007
 20
152.486150641891
 30
0.0
 10
214.2212534605278
 20
152.486150641891
 30
0.0
 10
214.2833864516441
 20
152.486150641891
 30
0.0
 10
214.3389114689416
 20
152.486150641891
 30
0.0
 10
214.3898320280758
 20
152.4861506418909
 30
0.0
 10
214.4341918042319
 20
152.4861506418911
 30
0.0
 10
214.4759282625884
 20
152.4861506418909
 30
0.0
 10
214.5183927088659
 20
152.486150641891
 30
0.0
 10
214.5641083975505
 20
152.486150641891
 30
0.0
 10
214.6187308287683
 20
152.486150641891
 30
0.0
 10
214.6807864401749
 20
152.4861506418909
 30
0.0
 10
214.7503892197875
 20
152.486150641891
 30
0.0
 10
214.8214565771857
 20
152.486150641891
 30
0.0
 10
214.8847376682815
 20
152.486150641891
 30
0.0
 10
214.9389809932336
 20
152.486150641891
 30
0.0
 10
214.973703492988
 20
152.4861506418909
 30
0.0
 10
214.994638915047
 20
152.486150641891
 30
0.0
 10
215.0005662762987
 20
152.486150641891
 30
0.0
 10
215.002371183248
 20
152.486150641891
 30
0.0
 11
213.702367803665
 21
152.486150641891
 31
0.0
 11
213.703227103423
 21
152.4861506418909
 31
0.0
 11
213.7037619964329
 21
152.486150641891
 31
0.0
 11
213.7062647179204
 21
152.486150641891
 31
0.0
 11
213.7104128893607
 21
152.486150641891
 31
0.0
 11
213.7212915116074
 21
152.486150641891
 31
0.0
 11
213.7310497229409
 21
152.486150641891
 31
0.0
 11
213.7483524058804
 21
152.4861506418909
 31
0.0
 11
213.7665059968647
 21
152.486150641891
 31
0.0
 11
213.8000431551379
 21
152.486150641891
 31
0.0
 11
213.8340536616169
 21
152.486150641891
 31
0.0
 11
213.8889121882611
 21
152.486150641891
 31
0.0
 11
213.9462939521115
 21
152.486150641891
 31
0.0
 11
214.0178550764341
 21
152.4861506418909
 31
0.0
 11
214.0881778931488
 21
152.486150641891
 31
0.0
 11
214.1564254179268
 21
152.486150641891
 31
0.0
 11
214.2239351703262
 21
152.486150641891
 31
0.0
 11
214.2833997933301
 21
152.486150641891
 31
0.0
 11
214.3428243912761
 21
152.486150641891
 31
0.0
 11
214.3905102222187
 21
152.4861506418909
 31
0.0
 11
214.4361614707325
 21
152.486150641891
 31
0.0
 11
214.4759037197447
 21
152.486150641891
 31
0.0
 11
214.5157195972883
 21
152.486150641891
 31
0.0
 11
214.5635548095647
 21
152.486150641891
 31
0.0
 11
214.6130507857984
 21
152.486150641891
 31
0.0
 11
214.6795868909421
 21
152.4861506418909
 31
0.0
 11
214.7497216437841
 21
152.486150641891
 31
0.0
 11
214.8218591246362
 21
152.486150641891
 31
0.0
 11
214.8927889631369
 21
152.486150641891
 31
0.0
 11
214.9395649170713
 21
152.486150641891
 31
0.0
 11
214.9845890994928
 21
152.486150641891
 31
0.0
 11
214.9969564624002
 21
152.486150641891
 31
0.0
 11
215.002371183248
 21
152.486150641891
 31
0.0
  0
SPLINE
  5
2A8
330
A
100
AcDbEntity
  8
0
  6
Continuous
 62
     6
100
AcDbSpline
210
0.0
220
0.0
230
1.0
 70
    24
 71
     3
 72
    15
 73
    11
 74
     9
 42
0.0000000001
 43
0.0000000001
 44
0.00000000001
 40
0.0
 40
0.0
 40
0.0
 40
0.0
 40
0.1348780915876375
 40
0.270288025212551
 40
0.4072445842088257
 40
0.5585684046987467
 40
0.6313751162100232
 40
0.6748861249312199
 40
0.6848342944448405
 40
0.6999997422100251
 40
0.6999997422100251
 40
0.6999997422100251
 40
0.6999997422100251
 10
179.602369851084
 20
152.486150641891
 30
0.0
 10
179.6473292149465
 20
152.486150641891
 30
0.0
 10
179.7374252233507
 20
152.4861506418911
 30
0.0
 10
179.8731734180869
 20
152.4861506418909
 30
0.0
 10
180.0144035224573
 20
152.4861506418911
 30
0.0
 10
180.1347658861231
 20
152.4861506418909
 30
0.0
 10
180.2239797330306
 20
152.486150641891
 30
0.0
 10
180.2660683629459
 20
152.486150641891
 30
0.0
 10
180.2889432382794
 20
152.486150641891
 30
0.0
 10
180.2973144440389
 20
152.486150641891
 30
0.0
 10
180.302369593294
 20
152.486150641891
 30
0.0
 11
179.602369851084
 21
152.486150641891
 31
0.0
 11
179.7372479426716
 21
152.486150641891
 31
0.0
 11
179.8726578762965
 21
152.4861506418909
 31
0.0
 11
180.0096144352928
 21
152.486150641891
 31
0.0
 11
180.1609382557827
 21
152.486150641891
 31
0.0
 11
180.233744967294
 21
152.486150641891
 31
0.0
 11
180.2772559760152
 21
152.486150641891
 31
0.0
 11
180.2872041455288
 21
152.486150641891
 31
0.0
 11
180.302369593294
 21
152.486150641891
 31
0.0
  0
CIRCLE
  5
2A7
330
A
100
AcDbEntity
  8
0
  6
Continuous
 62
     6
100
AcDbCircle
 10
206.5023693956
 20
61.4710204005
 30
0.0
 40
2.0
  0
CIRCLE
  5
2A6
330
A
100
AcDbEntity
  8
0
  6
Continuous
 62
     6
100
AcDbCircle
 10
206.5023693956
 20
61.4710204005
 30
0.0
 40
4.2
  0
CIRCLE
  5
2A5
330
A
100
AcDbEntity
  8
0
  6
Continuous
 62
     3
100
AcDbCircle
 10
275.0023693951
 20
176.2861501472
 30
0.0
 40
2.0
  0
CIRCLE
  5
2A4
330
A
100
AcDbEntity
  8
0
  6
Continuous
 62
     3
100
AcDbCircle
 10
55.0023693951
 20
176.2861501472
 30
0.0
 40
2.0
  0
CIRCLE
  5
2A3
330
A
100
AcDbEntity
  8
0
  6
Continuous
 62
     3
100
AcDbCircle
 10
47.0023693951
 20
172.2861501472
 30
0.0
 40
2.0
  0
CIRCLE
  5
2A2
330
A
100
AcDbEntity
  8
0
  6
Continuous
 62
     3
100
AcDbCircle
 10
283.0023693951
 20
172.2861501472
 30
0.0
 40
2.0
  0
CIRCLE
  5
2A1
330
A
100
AcDbEntity
  8
0
  6
Continuous
 62
     3
100
AcDbCircle
 10
198.4523693981
 20
162.2861501472
 30
0.0
 40
1.55
  0
CIRCLE
  5
2A0
330
A
100
AcDbEntity
  8
0
  6
Continuous
 62
     3
100
AcDbCircle
 10
176.7523693981
 20
162.2861501472
 30
0.0
 40
1.55
  0
ARC
  5
29F
330
A
100
AcDbEntity
  8
0
  6
Continuous
 62
     6
100
AcDbCircle
 10
186.9023693956
 20
93.97102040049999
 30
0.0
 40
2.0
100
AcDbArc
 50
-90.0
 51
0.0
  0
ARC
  5
29E
330
A
100
AcDbEntity
  8
0
  6
Continuous
 62
     6
100
AcDbCircle
 10
184.9023693956
 20
93.97102040049999
 30
0.0
 40
2.0
100
AcDbArc
 50
180.0
 51
-90.0
  0
ARC
  5
29D
330
A
100
AcDbEntity
  8
0
  6
Continuous
 62
     3
100
AcDbCircle
 10
41.3023693951
 20
91.87102040049998
 30
0.0
 40
0.3
100
AcDbArc
 50
180.0
 51
-90.02553789392999
  0
ARC
  5
29C
330
A
100
AcDbEntity
  8
0
  6
Continuous
 62
     3
100
AcDbCircle
 10
387.721711826431
 20
156.0861501472
 30
0.0
 40
0.3
100
AcDbArc
 50
-179.999999989686
 51
-90.0
  0
ARC
  5
29B
330
A
100
AcDbEntity
  8
0
  6
Continuous
 62
     3
100
AcDbCircle
 10
398.1217118264309
 20
156.0861501472
 30
0.0
 40
0.3
100
AcDbArc
 50
-90.000000021962
 51
-0.000000010313
  0
ARC
  5
29A
330
A
100
AcDbEntity
  8
0
  6
Continuous
 62
     3
100
AcDbCircle
 10
387.721711826431
 20
161.0861501471999
 30
0.0
 40
0.3
100
AcDbArc
 50
-179.999999988161
 51
-90.0
  0
ARC
  5
299
330
A
100
AcDbEntity
  8
0
  6
Continuous
 62
     3
100
AcDbCircle
 10
398.1217118264309
 20
161.0861501471999
 30
0.0
 40
0.3
100
AcDbArc
 50
-90.0
 51
0.000000171508
  0
ARC
  5
298
330
A
100
AcDbEntity
  8
0
  6
Continuous
 62
     3
100
AcDbCircle
 10
398.1217118264309
 20
180.9861501472
 30
0.0
 40
0.3
100
AcDbArc
 50
-0.000000023488
 51
89.99999998815599
  0
ARC
  5
297
330
A
100
AcDbEntity
  8
0
  6
Continuous
 62
     3
100
AcDbCircle
 10
387.721711826431
 20
180.9861501472
 30
0.0
 40
0.3
100
AcDbArc
 50
90.00000001164899
 51
-179.999999976512
  0
ARC
  5
296
330
A
100
AcDbEntity
  8
0
  6
Continuous
 62
     6
100
AcDbCircle
 10
389.1217118264309
 20
144.7861501472
 30
0.0
 40
0.3
100
AcDbArc
 50
180.0
 51
-90.0
  0
ARC
  5
295
330
A
100
AcDbEntity
  8
0
  6
Continuous
 62
     6
100
AcDbCircle
 10
389.1217118264309
 20
152.1861501472
 30
0.0
 40
0.3
100
AcDbArc
 50
90.0
 51
180.0
  0
ARC
  5
294
330
A
100
AcDbEntity
  8
0
  6
Continuous
 62
     6
100
AcDbCircle
 10
399.3217118264309
 20
144.7861501472
 30
0.0
 40
0.3
100
AcDbArc
 50
180.0
 51
-90.0
  0
ARC
  5
293
330
A
100
AcDbEntity
  8
0
  6
Continuous
 62
     6
100
AcDbCircle
 10
402.5217118264309
 20
148.3861501472
 30
0.0
 40
2.0
100
AcDbArc
 50
180.0
 51
-90.0
  0
ARC
  5
292
330
A
100
AcDbEntity
  8
0
  6
Continuous
 62
     6
100
AcDbCircle
 10
400.0217118264309
 20
151.4861501472
 30
0.0
 40
1.0
100
AcDbArc
 50
90.0
 51
180.0
  0
ARC
  5
291
330
A
100
AcDbEntity
  8
0
  6
Continuous
 62
     6
100
AcDbCircle
 10
400.221711826431
 20
152.1861501472
 30
0.0
 40
0.3
100
AcDbArc
 50
0.0
 51
90.0
  0
ARC
  5
290
330
A
100
AcDbEntity
  8
0
  6
Continuous
 62
     6
100
AcDbCircle
 10
408.414605045231
 20
146.8861501472
 30
0.0
 40
0.5
100
AcDbArc
 50
-90.0
 51
-45.0
  0
ARC
  5
28F
330
A
100
AcDbEntity
  8
0
  6
Continuous
 62
     6
100
AcDbCircle
 10
409.928818607631
 20
146.9861501472
 30
0.0
 40
0.5
100
AcDbArc
 50
90.0
 51
134.999999999997
  0
ARC
  5
28E
330
A
100
AcDbEntity
  8
0
  6
Continuous
 62
     6
100
AcDbCircle
 10
420.814605045231
 20
147.9861501472
 30
0.0
 40
0.5
100
AcDbArc
 50
-90.0
 51
-45.0
  0
ARC
  5
28D
330
A
100
AcDbEntity
  8
0
  6
Continuous
 62
     6
100
AcDbCircle
 10
423.228818607631
 20
148.9861501472
 30
0.0
 40
0.5
100
AcDbArc
 50
90.0
 51
134.999999999997
  0
ARC
  5
28C
330
A
100
AcDbEntity
  8
0
  6
Continuous
 62
     6
100
AcDbCircle
 10
435.7217118264309
 20
149.1861501472
 30
0.0
 40
0.3
100
AcDbArc
 50
0.0
 51
90.0
  0
ARC
  5
28B
330
A
100
AcDbEntity
  8
0
  6
Continuous
 62
     6
100
AcDbCircle
 10
435.7217118264309
 20
144.7861501472
 30
0.0
 40
0.3
100
AcDbArc
 50
-90.0
 51
0.0
  0
ARC
  5
28A
330
A
100
AcDbEntity
  8
0
  6
Continuous
 62
     6
100
AcDbCircle
 10
389.607652997231
 20
152.1861501472
 30
0.0
 40
0.3
100
AcDbArc
 50
90.0
 51
180.0
  0
ARC
  5
289
330
A
100
AcDbEntity
  8
0
  6
Continuous
 62
     6
100
AcDbCircle
 10
389.607652997231
 20
144.7861501472
 30
0.0
 40
0.3
100
AcDbArc
 50
180.0
 51
-90.0
  0
ARC
  5
288
330
A
100
AcDbEntity
  8
0
  6
Continuous
 62
     3
100
AcDbCircle
 10
288.7023693951
 20
102.2710204005
 30
0.0
 40
0.3
100
AcDbArc
 50
-0.000000011842
 51
90.0
  0
ARC
  5
287
330
A
100
AcDbEntity
  8
0
  6
Continuous
 62
     3
100
AcDbCircle
 10
41.3023693951
 20
102.2710204005
 30
0.0
 40
0.3
100
AcDbArc
 50
89.999999828495
 51
180.0
  0
ARC
  5
286
330
A
100
AcDbEntity
  8
0
  6
Continuous
 62
     3
100
AcDbCircle
 10
288.7023693951
 20
91.87102040049998
 30
0.0
 40
0.3
100
AcDbArc
 50
-90.00000017666399
 51
0.000000011804
  0
ARC
  5
285
330
A
100
AcDbEntity
  8
0
  6
Continuous
 62
     3
100
AcDbCircle
 10
41.3023693951
 20
91.87102040049998
 30
0.0
 40
0.3
100
AcDbArc
 50
-90.02553789392999
 51
-90.0000000051
  0
ARC
  5
284
330
A
100
AcDbEntity
  8
0
  6
Continuous
 62
     3
100
AcDbCircle
 10
198.0142673306
 20
98.47114771680001
 30
0.0
 40
0.299872735593
100
AcDbArc
 50
9.573504434898
 51
90.025336342282
  0
ARC
  5
283
330
A
100
AcDbEntity
  8
0
  6
Continuous
 62
     6
100
AcDbCircle
 10
189.5023693956
 20
61.4710204005
 30
0.0
 40
2.0
100
AcDbArc
 50
-90.0
 51
90.0
  0
ARC
  5
282
330
A
100
AcDbEntity
  8
0
  6
Continuous
 62
     6
100
AcDbCircle
 10
185.5023693956
 20
61.4710204005
 30
0.0
 40
2.0
100
AcDbArc
 50
90.0
 51
-90.0
  0
ARC
  5
281
330
A
100
AcDbEntity
  8
0
  6
Continuous
 62
     6
100
AcDbCircle
 10
189.2023693956
 20
100.8710204004999
 30
0.0
 40
0.3
100
AcDbArc
 50
90.0
 51
180.0
  0
ARC
  5
280
330
A
100
AcDbEntity
  8
0
  6
Continuous
 62
     6
100
AcDbCircle
 10
211.4023693956
 20
100.3850792297
 30
0.0
 40
0.3
100
AcDbArc
 50
78.690067526058
 51
180.0
  0
ARC
  5
27F
330
A
100
AcDbEntity
  8
0
  6
Continuous
 62
     6
100
AcDbCircle
 10
204.8023693956
 20
100.8710204004999
 30
0.0
 40
0.3
100
AcDbArc
 50
0.0
 51
90.0
  0
ARC
  5
27E
330
A
100
AcDbEntity
  8
0
  6
Continuous
 62
     6
100
AcDbCircle
 10
202.7023693956
 20
100.6710204005
 30
0.0
 40
0.5
100
AcDbArc
 50
90.0
 51
180.0
  0
ARC
  5
27D
330
A
100
AcDbEntity
  8
0
  6
Continuous
 62
     6
100
AcDbCircle
 10
182.6023693956
 20
100.3850792297
 30
0.0
 40
0.3
100
AcDbArc
 50
0.0
 51
101.309932473942
  0
ARC
  5
27C
330
A
100
AcDbEntity
  8
0
  6
Continuous
 62
     6
100
AcDbCircle
 10
191.3023693956
 20
100.6710204005
 30
0.0
 40
0.5
100
AcDbArc
 50
0.0
 51
90.0
  0
ARC
  5
27B
330
A
100
AcDbEntity
  8
0
  6
Continuous
 62
     6
100
AcDbCircle
 10
183.0023693956
 20
97.71160869239999
 30
0.0
 40
3.0
100
AcDbArc
 50
101.309932474009
 51
180.0
  0
ARC
  5
27A
330
A
100
AcDbEntity
  8
0
  6
Continuous
 62
     6
100
AcDbCircle
 10
211.0023693956
 20
97.71160869239999
 30
0.0
 40
3.0
100
AcDbArc
 50
0.0
 51
78.690067525991
  0
ARC
  5
279
330
A
100
AcDbEntity
  8
0
  6
Continuous
 62
     6
100
AcDbCircle
 10
192.3023693956
 20
93.17812718170001
 30
0.0
 40
0.5
100
AcDbArc
 50
180.0
 51
-134.999999999977
  0
ARC
  5
278
330
A
100
AcDbEntity
  8
0
  6
Continuous
 62
     6
100
AcDbCircle
 10
201.7023693956
 20
93.17812718170001
 30
0.0
 40
0.5
100
AcDbArc
 50
-45.000000000023
 51
0.0
  0
ARC
  5
277
330
A
100
AcDbEntity
  8
0
  6
Continuous
 62
     6
100
AcDbCircle
 10
207.1023693956
 20
93.97102040049999
 30
0.0
 40
2.0
100
AcDbArc
 50
180.0
 51
-90.0
  0
ARC
  5
276
330
A
100
AcDbEntity
  8
0
  6
Continuous
 62
     6
100
AcDbCircle
 10
215.0023693956
 20
91.97102040049999
 30
0.0
 40
1.0
100
AcDbArc
 50
180.0
 51
-90.0
  0
ARC
  5
275
330
A
100
AcDbEntity
  8
0
  6
Continuous
 62
     6
100
AcDbCircle
 10
179.0023693956
 20
91.97102040049999
 30
0.0
 40
1.0
100
AcDbArc
 50
-90.0
 51
0.0
  0
ARC
  5
274
330
A
100
AcDbEntity
  8
0
  6
Continuous
 62
     6
100
AcDbCircle
 10
199.7881558332
 20
91.97102040049999
 30
0.0
 40
1.0
100
AcDbArc
 50
-90.0
 51
-44.999999999979
  0
ARC
  5
273
330
A
100
AcDbEntity
  8
0
  6
Continuous
 62
     6
100
AcDbCircle
 10
194.216582958
 20
91.97102040049999
 30
0.0
 40
1.0
100
AcDbArc
 50
-135.000000000016
 51
-90.0
  0
ARC
  5
272
330
A
100
AcDbEntity
  8
0
  6
Continuous
 62
     6
100
AcDbCircle
 10
209.1023693956
 20
93.97102040049999
 30
0.0
 40
2.0
100
AcDbArc
 50
-90.0
 51
0.0
  0
ARC
  5
271
330
A
100
AcDbEntity
  8
0
  6
Continuous
 62
     6
100
AcDbCircle
 10
177.5023693956
 20
89.9710204005
 30
0.0
 40
1.0
100
AcDbArc
 50
90.0
 51
180.0
  0
ARC
  5
270
330
A
100
AcDbEntity
  8
0
  6
Continuous
 62
     6
100
AcDbCircle
 10
216.5023693956
 20
89.9710204005
 30
0.0
 40
1.0
100
AcDbArc
 50
0.0
 51
90.0
  0
ARC
  5
26F
330
A
100
AcDbEntity
  8
0
  6
Continuous
 62
     6
100
AcDbCircle
 10
185.5023693956
 20
61.4710204005
 30
0.0
 40
4.2
100
AcDbArc
 50
90.0
 51
-90.0
  0
ARC
  5
26E
330
A
100
AcDbEntity
  8
0
  6
Continuous
 62
     6
100
AcDbCircle
 10
189.5023693956
 20
61.4710204005
 30
0.0
 40
4.2
100
AcDbArc
 50
-90.0
 51
90.0
  0
ARC
  5
26D
330
A
100
AcDbEntity
  8
0
  6
Continuous
 62
     6
100
AcDbCircle
 10
181.5023693956
 20
58.9710204005
 30
0.0
 40
5.0
100
AcDbArc
 50
180.0
 51
-90.0
  0
ARC
  5
26C
330
A
100
AcDbEntity
  8
0
  6
Continuous
 62
     6
100
AcDbCircle
 10
212.5023693956
 20
58.9710204005
 30
0.0
 40
5.0
100
AcDbArc
 50
-90.0
 51
0.0
  0
ARC
  5
26B
330
A
100
AcDbEntity
  8
0
  6
Continuous
 62
     6
100
AcDbCircle
 10
180.1274275354
 20
65.47102040049999
 30
0.0
 40
0.5
100
AcDbArc
 50
-36.656405243322
 51
90.0
  0
ARC
  5
26A
330
A
100
AcDbEntity
  8
0
  6
Continuous
 62
     6
100
AcDbCircle
 10
185.5023693956
 20
61.4710204005
 30
0.0
 40
6.2
100
AcDbArc
 50
143.343594756702
 51
-132.430842659199
  0
ARC
  5
269
330
A
100
AcDbEntity
  8
0
  6
Continuous
 62
     6
100
AcDbCircle
 10
180.9818807036
 20
56.5258023077
 30
0.0
 40
0.5
100
AcDbArc
 50
-102.016623503549
 51
47.56915734075899
  0
ARC
  5
268
330
A
100
AcDbEntity
  8
0
  6
Continuous
 62
     6
100
AcDbCircle
 10
181.5023693956
 20
58.9710204005
 30
0.0
 40
3.0
100
AcDbArc
 50
180.0
 51
-102.016623503603
  0
ARC
  5
267
330
A
100
AcDbEntity
  8
0
  6
Continuous
 62
     6
100
AcDbCircle
 10
179.0023693956
 20
65.47102040049999
 30
0.0
 40
0.5
100
AcDbArc
 50
90.0
 51
180.0
  0
ARC
  5
266
330
A
100
AcDbEntity
  8
0
  6
Continuous
 62
     6
100
AcDbCircle
 10
206.5023693956
 20
61.4710204005
 30
0.0
 40
6.2
100
AcDbArc
 50
143.343594756702
 51
-131.731817039802
  0
ARC
  5
265
330
A
100
AcDbEntity
  8
0
  6
Continuous
 62
     6
100
AcDbCircle
 10
202.0425487714
 20
56.4710204005
 30
0.0
 40
0.5
100
AcDbArc
 50
-90.0
 51
48.268182960159
  0
ARC
  5
264
330
A
100
AcDbEntity
  8
0
  6
Continuous
 62
     6
100
AcDbCircle
 10
193.9621900198
 20
56.4710204005
 30
0.0
 40
0.5
100
AcDbArc
 50
131.73181703984
 51
-90.0
  0
ARC
  5
263
330
A
100
AcDbEntity
  8
0
  6
Continuous
 62
     6
100
AcDbCircle
 10
189.5023693956
 20
61.4710204005
 30
0.0
 40
6.2
100
AcDbArc
 50
-48.268182960197
 51
36.65640524329801
  0
ARC
  5
262
330
A
100
AcDbEntity
  8
0
  6
Continuous
 62
     6
100
AcDbCircle
 10
194.8773112557
 20
65.47102040049999
 30
0.0
 40
0.5
100
AcDbArc
 50
90.0
 51
-143.343594756676
  0
ARC
  5
261
330
A
100
AcDbEntity
  8
0
  6
Continuous
 62
     6
100
AcDbCircle
 10
201.1274275354
 20
65.47102040049999
 30
0.0
 40
0.5
100
AcDbArc
 50
-36.656405243322
 51
90.0
  0
ARC
  5
260
330
A
100
AcDbEntity
  8
0
  6
Continuous
 62
     6
100
AcDbCircle
 10
206.5023693956
 20
61.4710204005
 30
0.0
 40
6.2
100
AcDbArc
 50
-48.268182960197
 51
36.65640524329801
  0
ARC
  5
25F
330
A
100
AcDbEntity
  8
0
  6
Continuous
 62
     6
100
AcDbCircle
 10
211.8773112557
 20
65.47102040049999
 30
0.0
 40
0.5
100
AcDbArc
 50
90.0
 51
-143.343594756676
  0
ARC
  5
25E
330
A
100
AcDbEntity
  8
0
  6
Continuous
 62
     6
100
AcDbCircle
 10
215.0023693956
 20
65.47102040049999
 30
0.0
 40
0.5
100
AcDbArc
 50
0.0
 51
90.0
  0
ARC
  5
25D
330
A
100
AcDbEntity
  8
0
  6
Continuous
 62
     6
100
AcDbCircle
 10
212.5023693956
 20
58.9710204005
 30
0.0
 40
3.0
100
AcDbArc
 50
-90.0
 51
0.0
  0
ARC
  5
25C
330
A
100
AcDbEntity
  8
0
  6
Continuous
 62
     6
100
AcDbCircle
 10
210.9621900198
 20
56.4710204005
 30
0.0
 40
0.5
100
AcDbArc
 50
131.73181703984
 51
-90.0
  0
ARC
  5
25B
330
A
100
AcDbEntity
  8
0
  6
Continuous
 62
     3
100
AcDbCircle
 10
57.3023693951
 20
167.2861501472
 30
0.0
 40
2.0
100
AcDbArc
 50
-0.000000011803
 51
180.0
  0
ARC
  5
25A
330
A
100
AcDbEntity
  8
0
  6
Continuous
 62
     3
100
AcDbCircle
 10
57.3023693951
 20
161.2861501472
 30
0.0
 40
2.0
100
AcDbArc
 50
-179.9999999949
 51
-0.000000011803
  0
ARC
  5
259
330
A
100
AcDbEntity
  8
0
  6
Continuous
 62
     3
100
AcDbCircle
 10
272.7023693951
 20
161.2861501472
 30
0.0
 40
2.0
100
AcDbArc
 50
-179.9999999949
 51
0.0
  0
ARC
  5
258
330
A
100
AcDbEntity
  8
0
  6
Continuous
 62
     3
100
AcDbCircle
 10
272.7023693951
 20
167.2861501472
 30
0.0
 40
2.0
100
AcDbArc
 50
0.0
 51
180.0
  0
ARC
  5
257
330
A
100
AcDbEntity
  8
0
  6
Continuous
 62
     3
100
AcDbCircle
 10
288.5023693951
 20
161.2861501472
 30
0.0
 40
0.5
100
AcDbArc
 50
-90.0
 51
0.0
  0
ARC
  5
256
330
A
100
AcDbEntity
  8
0
  6
Continuous
 62
     3
100
AcDbCircle
 10
41.5023693951
 20
161.2861501472
 30
0.0
 40
0.5
100
AcDbArc
 50
180.0
 51
-90.0
  0
ARC
  5
255
330
A
100
AcDbEntity
  8
0
  6
Continuous
 62
     3
100
AcDbCircle
 10
55.0023693951
 20
176.2861501472
 30
0.0
 40
3.999999999613999
100
AcDbArc
 50
0.0
 51
180.0
  0
ARC
  5
254
330
A
100
AcDbEntity
  8
0
  6
Continuous
 62
     3
100
AcDbCircle
 10
55.0023693951
 20
176.2861501472
 30
0.0
 40
3.999999999613999
100
AcDbArc
 50
180.0
 51
0.0
  0
ARC
  5
253
330
A
100
AcDbEntity
  8
0
  6
Continuous
 62
     3
100
AcDbCircle
 10
275.0023693951
 20
176.2861501472
 30
0.0
 40
3.999999999613999
100
AcDbArc
 50
0.0
 51
180.0
  0
ARC
  5
252
330
A
100
AcDbEntity
  8
0
  6
Continuous
 62
     3
100
AcDbCircle
 10
275.0023693951
 20
176.2861501472
 30
0.0
 40
3.999999999613999
100
AcDbArc
 50
180.0
 51
0.0
  0
ARC
  5
251
330
A
100
AcDbEntity
  8
0
  6
Continuous
 62
     3
100
AcDbCircle
 10
272.7023693951
 20
167.2861501472
 30
0.0
 40
3.999999999613999
100
AcDbArc
 50
0.0
 51
180.0
  0
ARC
  5
250
330
A
100
AcDbEntity
  8
0
  6
Continuous
 62
     3
100
AcDbCircle
 10
57.3023693951
 20
161.2861501472
 30
0.0
 40
4.0
100
AcDbArc
 50
180.0
 51
-0.0000000053
  0
ARC
  5
24F
330
A
100
AcDbEntity
  8
0
  6
Continuous
 62
     3
100
AcDbCircle
 10
57.3023693951
 20
167.2861501472
 30
0.0
 40
3.999999999613999
100
AcDbArc
 50
0.0
 51
180.0
  0
ARC
  5
24E
330
A
100
AcDbEntity
  8
0
  6
Continuous
 62
     3
100
AcDbCircle
 10
272.7023693951
 20
161.2861501472
 30
0.0
 40
4.0
100
AcDbArc
 50
180.0
 51
-0.0000000053
  0
ARC
  5
24D
330
A
100
AcDbEntity
  8
0
  6
Continuous
 62
     3
100
AcDbCircle
 10
283.0023693951
 20
172.2861501472
 30
0.0
 40
4.249999999613999
100
AcDbArc
 50
180.0
 51
0.0
  0
ARC
  5
24C
330
A
100
AcDbEntity
  8
0
  6
Continuous
 62
     3
100
AcDbCircle
 10
283.0023693951
 20
172.2861501472
 30
0.0
 40
4.249999999613999
100
AcDbArc
 50
0.0
 51
180.0
  0
ARC
  5
24B
330
A
100
AcDbEntity
  8
0
  6
Continuous
 62
     3
100
AcDbCircle
 10
47.0023693951
 20
172.2861501472
 30
0.0
 40
4.249999999613999
100
AcDbArc
 50
0.0
 51
180.0
  0
ARC
  5
24A
330
A
100
AcDbEntity
  8
0
  6
Continuous
 62
     3
100
AcDbCircle
 10
47.0023693951
 20
172.2861501472
 30
0.0
 40
4.249999999613999
100
AcDbArc
 50
180.0
 51
0.0
  0
ARC
  5
249
330
A
100
AcDbEntity
  8
0
  6
Continuous
 62
     3
100
AcDbCircle
 10
46.0023693951
 20
176.2861501472
 30
0.0
 40
5.0
100
AcDbArc
 50
89.999999994101
 51
180.0
  0
ARC
  5
248
330
A
100
AcDbEntity
  8
0
  6
Continuous
 62
     3
100
AcDbCircle
 10
284.0023693951
 20
176.2861501472
 30
0.0
 40
5.0
100
AcDbArc
 50
0.0
 51
90.000000011803
  0
ARC
  5
247
330
A
100
AcDbEntity
  8
0
  6
Continuous
 62
     3
100
AcDbCircle
 10
274.2023693951
 20
160.7861501472
 30
0.0
 40
5.0
100
AcDbArc
 50
-90.0
 51
-0.000000023503
  0
ARC
  5
246
330
A
100
AcDbEntity
  8
0
  6
Continuous
 62
     3
100
AcDbCircle
 10
55.8023693951
 20
160.7861501472
 30
0.0
 40
5.0
100
AcDbArc
 50
-179.999999976497
 51
-89.999999999999
  0
ARC
  5
245
330
A
100
AcDbEntity
  8
0
  6
Continuous
 62
     3
100
AcDbCircle
 10
176.4023693951
 20
162.0861501472
 30
0.0
 40
3.799999999909999
100
AcDbArc
 50
162.4026633855
 51
-111.923073005778
  0
ARC
  5
244
330
A
100
AcDbEntity
  8
0
  6
Continuous
 62
     3
100
AcDbCircle
 10
174.5658777221
 20
158.2861501472
 30
0.0
 40
0.5
100
AcDbArc
 50
-90.0
 51
33.338655157327
  0
ARC
  5
243
330
A
100
AcDbEntity
  8
0
  6
Continuous
 62
     3
100
AcDbCircle
 10
163.2023693981
 20
158.2861501472
 30
0.0
 40
0.5
100
AcDbArc
 50
180.0
 51
-90.00000001099801
  0
ARC
  5
242
330
A
100
AcDbEntity
  8
0
  6
Continuous
 62
     3
100
AcDbCircle
 10
163.2023693981
 20
163.3861501472
 30
0.0
 40
0.5
100
AcDbArc
 50
90.0
 51
-179.9999999881969
  0
ARC
  5
241
330
A
100
AcDbEntity
  8
0
  6
Continuous
 62
     3
100
AcDbCircle
 10
172.3035890891
 20
163.3861501472
 30
0.0
 40
0.5
100
AcDbArc
 50
-17.59733657265
 51
90.00000000584298
  0
ARC
  5
240
330
A
100
AcDbEntity
  8
0
  6
Continuous
 62
     3
100
AcDbCircle
 10
224.5279392351
 20
174.2861501472
 30
0.0
 40
0.5
100
AcDbArc
 50
-90.0
 51
55.000000010126
  0
ARC
  5
23F
330
A
100
AcDbEntity
  8
0
  6
Continuous
 62
     3
100
AcDbCircle
 10
215.4767995551
 20
174.2861501472
 30
0.0
 40
0.5
100
AcDbArc
 50
124.999999997947
 51
-90.0
  0
ARC
  5
23E
330
A
100
AcDbEntity
  8
0
  6
Continuous
 62
     3
100
AcDbCircle
 10
220.0023693951
 20
177.4549882642
 30
0.0
 40
0.4999999998899999
100
AcDbArc
 50
55.000000002051
 51
125.000000001572
  0
ARC
  5
23D
330
A
100
AcDbEntity
  8
0
  6
Continuous
 62
     3
100
AcDbCircle
 10
163.2023693981
 20
174.2861501472
 30
0.0
 40
0.5
100
AcDbArc
 50
180.0
 51
-90.00000001099801
  0
ARC
  5
23C
330
A
100
AcDbEntity
  8
0
  6
Continuous
 62
     3
100
AcDbCircle
 10
163.2023693981
 20
178.7861501472
 30
0.0
 40
0.5
100
AcDbArc
 50
90.0
 51
180.0
  0
ARC
  5
23B
330
A
100
AcDbEntity
  8
0
  6
Continuous
 62
     3
100
AcDbCircle
 10
179.8269066241
 20
178.7861501472
 30
0.0
 40
0.5
100
AcDbArc
 50
55.000000004945
 51
90.00000000595699
  0
ARC
  5
23A
330
A
100
AcDbEntity
  8
0
  6
Continuous
 62
     3
100
AcDbCircle
 10
186.2535726551
 20
174.2861501472
 30
0.0
 40
0.5
100
AcDbArc
 50
-90.0
 51
55.000000012922
  0
ARC
  5
239
330
A
100
AcDbEntity
  8
0
  6
Continuous
 62
     3
100
AcDbCircle
 10
63.0155121381
 20
170.3861501472
 30
0.0
 40
0.500000000073
100
AcDbArc
 50
90.0
 51
-151.515364652314
  0
ARC
  5
238
330
A
100
AcDbEntity
  8
0
  6
Continuous
 62
     3
100
AcDbCircle
 10
77.10236939810001
 20
170.3861501472
 30
0.0
 40
0.5
100
AcDbArc
 50
0.0
 51
90.0
  0
ARC
  5
237
330
A
100
AcDbEntity
  8
0
  6
Continuous
 62
     3
100
AcDbCircle
 10
77.10236939810001
 20
167.1861501471999
 30
0.0
 40
0.5
100
AcDbArc
 50
-90.0
 51
0.0
  0
ARC
  5
236
330
A
100
AcDbEntity
  8
0
  6
Continuous
 62
     3
100
AcDbCircle
 10
63.8016001191
 20
167.1861501471999
 30
0.0
 40
0.5000000001460001
100
AcDbArc
 50
179.118491639164
 51
-90.0
  0
ARC
  5
235
330
A
100
AcDbEntity
  8
0
  6
Continuous
 62
     3
100
AcDbCircle
 10
57.3023693951
 20
167.2861501472
 30
0.0
 40
6.000000000146
100
AcDbArc
 50
-0.881508302299
 51
28.484635398404
  0
ARC
  5
234
330
A
100
AcDbEntity
  8
0
  6
Continuous
 62
     3
100
AcDbCircle
 10
179.9023693981
 20
168.7861501472
 30
0.0
 40
2.9
100
AcDbArc
 50
-90.00000006099
 51
89.999999988995
  0
ARC
  5
233
330
A
100
AcDbEntity
  8
0
  6
Continuous
 62
     3
100
AcDbCircle
 10
176.7023693981
 20
162.0861501472
 30
0.0
 40
1.8
100
AcDbArc
 50
89.999999988986
 51
-89.999999994111
  0
ARC
  5
232
330
A
100
AcDbEntity
  8
0
  6
Continuous
 62
     3
100
AcDbCircle
 10
238.8325642441
 20
169.8361501472
 30
0.0
 40
4.500000000037999
100
AcDbArc
 50
-81.86989763879999
 51
-15.756263117097
  0
ARC
  5
231
330
A
100
AcDbEntity
  8
0
  6
Continuous
 62
     3
100
AcDbCircle
 10
223.9149680781
 20
174.0451078122
 30
0.0
 40
20.00000000024
100
AcDbArc
 50
-15.756263100599
 51
1.948017401998999
  0
ARC
  5
230
330
A
100
AcDbEntity
  8
0
  6
Continuous
 62
     3
100
AcDbCircle
 10
245.7023693981
 20
174.7861501472
 30
0.0
 40
1.800000000241
100
AcDbArc
 50
0.414860600509
 51
-178.051982596806
  0
ARC
  5
22F
330
A
100
AcDbEntity
  8
0
  6
Continuous
 62
     3
100
AcDbCircle
 10
219.5030561951
 20
174.5964458931999
 30
0.0
 40
28.000000000123
100
AcDbArc
 50
-14.021226084199
 51
0.4148606131000001
  0
ARC
  5
22E
330
A
100
AcDbEntity
  8
0
  6
Continuous
 62
     3
100
AcDbCircle
 10
238.9071769161
 20
169.7508190992
 30
0.0
 40
8.000000000226998
100
AcDbArc
 50
-81.86989764489998
 51
-14.021226076199
  0
ARC
  5
22D
330
A
100
AcDbEntity
  8
0
  6
Continuous
 62
     3
100
AcDbCircle
 10
227.8016805111
 20
180.2861501472
 30
0.0
 40
20.0
100
AcDbArc
 50
-90.0
 51
-81.869897639999
  0
ARC
  5
22C
330
A
100
AcDbEntity
  8
0
  6
Continuous
 62
     3
100
AcDbCircle
 10
253.7511661351
 20
174.2861501472
 30
0.0
 40
0.500000000001
100
AcDbArc
 50
124.999999994989
 51
-90.00000001099801
  0
ARC
  5
22B
330
A
100
AcDbEntity
  8
0
  6
Continuous
 62
     3
100
AcDbCircle
 10
258.2767359761
 20
177.4549882642
 30
0.0
 40
0.499999999781
100
AcDbArc
 50
55.00000000211099
 51
124.999999994995
  0
ARC
  5
22A
330
A
100
AcDbEntity
  8
0
  6
Continuous
 62
     3
100
AcDbCircle
 10
262.8023058161
 20
174.2861501472
 30
0.0
 40
0.5
100
AcDbArc
 50
-90.0
 51
55.000000002149
  0
ARC
  5
229
330
A
100
AcDbEntity
  8
0
  6
Continuous
 62
     3
100
AcDbCircle
 10
197.5359419081
 20
166.3861501472
 30
0.0
 40
0.5
100
AcDbArc
 50
-90.0
 51
55.00000001152701
  0
ARC
  5
228
330
A
100
AcDbEntity
  8
0
  6
Continuous
 62
     3
100
AcDbCircle
 10
184.7397240471
 20
166.3861501472
 30
0.0
 40
0.500000000009
100
AcDbArc
 50
153.612200179254
 51
-90.00000001100202
  0
ARC
  5
227
330
A
100
AcDbEntity
  8
0
  6
Continuous
 62
     3
100
AcDbCircle
 10
179.9023693981
 20
168.7861501472
 30
0.0
 40
4.900000000008999
100
AcDbArc
 50
-26.387799975497
 51
27.578467982098
  0
ARC
  5
226
330
A
100
AcDbEntity
  8
0
  6
Continuous
 62
     3
100
AcDbCircle
 10
184.6888085751
 20
171.2861501472
 30
0.0
 40
0.5
100
AcDbArc
 50
90.0
 51
-152.42153203395
  0
ARC
  5
225
330
A
100
AcDbEntity
  8
0
  6
Continuous
 62
     3
100
AcDbCircle
 10
190.5380166750999
 20
171.2861501472
 30
0.0
 40
0.5
100
AcDbArc
 50
55.000000003451
 51
90.00000000584602
  0
ARC
  5
224
330
A
100
AcDbEntity
  8
0
  6
Continuous
 62
     3
100
AcDbCircle
 10
191.4839130411
 20
174.2861501472
 30
0.0
 40
0.5
100
AcDbArc
 50
-124.999999997121
 51
-90.00000001100202
  0
ARC
  5
223
330
A
100
AcDbEntity
  8
0
  6
Continuous
 62
     3
100
AcDbCircle
 10
185.0572470111
 20
178.7861501472
 30
0.0
 40
0.5
100
AcDbArc
 50
90.0
 51
-124.999999997121
  0
ARC
  5
222
330
A
100
AcDbEntity
  8
0
  6
Continuous
 62
     3
100
AcDbCircle
 10
216.6731251981
 20
178.7861501472
 30
0.0
 40
0.500000000001
100
AcDbArc
 50
-55.00000000278499
 51
90.00000000584298
  0
ARC
  5
221
330
A
100
AcDbEntity
  8
0
  6
Continuous
 62
     3
100
AcDbCircle
 10
210.2464591681
 20
174.2861501472
 30
0.0
 40
0.5
100
AcDbArc
 50
-90.0
 51
-54.999999987332
  0
ARC
  5
220
330
A
100
AcDbEntity
  8
0
  6
Continuous
 62
     3
100
AcDbCircle
 10
77.02797776309999
 20
158.3605417812
 30
0.0
 40
0.5743916350000001
100
AcDbArc
 50
-90.0
 51
0.0
  0
ARC
  5
21F
330
A
100
AcDbEntity
  8
0
  6
Continuous
 62
     3
100
AcDbCircle
 10
64.10236939509999
 20
158.2861501472
 30
0.0
 40
0.5
100
AcDbArc
 50
180.0
 51
-90.0
  0
ARC
  5
21E
330
A
100
AcDbEntity
  8
0
  6
Continuous
 62
     3
100
AcDbCircle
 10
64.10236939509999
 20
163.2861501472
 30
0.0
 40
0.5
100
AcDbArc
 50
90.0
 51
180.0
  0
ARC
  5
21D
330
A
100
AcDbEntity
  8
0
  6
Continuous
 62
     3
100
AcDbCircle
 10
77.02797776309999
 20
163.2117585132
 30
0.0
 40
0.5743916350000001
100
AcDbArc
 50
0.0
 51
90.0
  0
ARC
  5
21C
330
A
100
AcDbEntity
  8
0
  6
Continuous
 62
     3
100
AcDbCircle
 10
61.50160011909999
 20
174.2861501472
 30
0.0
 40
0.500000000139
100
AcDbArc
 50
162.895364826751
 51
-90.0
  0
ARC
  5
21B
330
A
100
AcDbEntity
  8
0
  6
Continuous
 62
     3
100
AcDbCircle
 10
55.0023693951
 20
176.2861501472
 30
0.0
 40
6.300000000229999
100
AcDbArc
 50
-17.104635176099
 51
21.570578303097
  0
ARC
  5
21A
330
A
100
AcDbEntity
  8
0
  6
Continuous
 62
     3
100
AcDbCircle
 10
61.3261340971
 20
178.7861501472
 30
0.0
 40
0.5000000002300001
100
AcDbArc
 50
90.0
 51
-158.429421737619
  0
ARC
  5
219
330
A
100
AcDbEntity
  8
0
  6
Continuous
 62
     3
100
AcDbCircle
 10
160.2023693981
 20
178.7861501472
 30
0.0
 40
0.5
100
AcDbArc
 50
0.0
 51
90.00000000595699
  0
ARC
  5
218
330
A
100
AcDbEntity
  8
0
  6
Continuous
 62
     3
100
AcDbCircle
 10
160.2023693981
 20
174.2861501472
 30
0.0
 40
0.5
100
AcDbArc
 50
-90.0
 51
-0.000000005042
  0
ARC
  5
217
330
A
100
AcDbEntity
  8
0
  6
Continuous
 62
     3
100
AcDbCircle
 10
205.9620151481
 20
171.2861501472
 30
0.0
 40
0.5
100
AcDbArc
 50
-55.00000000303799
 51
90.00000000595699
  0
ARC
  5
216
330
A
100
AcDbEntity
  8
0
  6
Continuous
 62
     3
100
AcDbCircle
 10
200.8651861051
 20
167.7173120302
 30
0.0
 40
0.5000000003550001
100
AcDbArc
 50
-125.00000004658
 51
-54.99999999424
  0
ARC
  5
215
330
A
100
AcDbEntity
  8
0
  6
Continuous
 62
     3
100
AcDbCircle
 10
195.7683570621
 20
171.2861501472
 30
0.0
 40
0.5
100
AcDbArc
 50
90.0
 51
-125.000000008467
  0
ARC
  5
214
330
A
100
AcDbEntity
  8
0
  6
Continuous
 62
     3
100
AcDbCircle
 10
234.6265984941
 20
167.2149928082
 30
0.0
 40
0.5000000002920001
100
AcDbArc
 50
-81.86989759722502
 51
55.00000001194199
  0
ARC
  5
213
330
A
100
AcDbEntity
  8
0
  6
Continuous
 62
     3
100
AcDbCircle
 10
228.8246998681
 20
166.3861501472
 30
0.0
 40
0.5000000001510001
100
AcDbArc
 50
-90.0
 51
-81.869897653945
  0
ARC
  5
212
330
A
100
AcDbEntity
  8
0
  6
Continuous
 62
     3
100
AcDbCircle
 10
204.1944303011
 20
166.3861501472
 30
0.0
 40
0.5
100
AcDbArc
 50
124.999999996547
 51
-90.00000001100202
  0
ARC
  5
211
330
A
100
AcDbEntity
  8
0
  6
Continuous
 62
     3
100
AcDbCircle
 10
211.1923555341
 20
171.2861501472
 30
0.0
 40
0.5
100
AcDbArc
 50
90.0
 51
125.000000000328
  0
ARC
  5
210
330
A
100
AcDbEntity
  8
0
  6
Continuous
 62
     3
100
AcDbCircle
 10
228.8123832561
 20
171.2861501472
 30
0.0
 40
0.5
100
AcDbArc
 50
55.00000000386401
 51
90.00000000595699
  0
ARC
  5
20F
330
A
100
AcDbEntity
  8
0
  6
Continuous
 62
     3
100
AcDbCircle
 10
247.1456442951
 20
163.2410068712
 30
0.0
 40
0.5
100
AcDbArc
 50
90.0
 51
141.685171438052
  0
ARC
  5
20E
330
A
100
AcDbEntity
  8
0
  6
Continuous
 62
     3
100
AcDbCircle
 10
266.5023693951
 20
163.2410068712
 30
0.0
 40
0.5
100
AcDbArc
 50
0.0
 51
90.0
  0
ARC
  5
20D
330
A
100
AcDbEntity
  8
0
  6
Continuous
 62
     3
100
AcDbCircle
 10
266.5023693951
 20
158.2861501472
 30
0.0
 40
0.5
100
AcDbArc
 50
-90.0
 51
0.0
  0
ARC
  5
20C
330
A
100
AcDbEntity
  8
0
  6
Continuous
 62
     3
100
AcDbCircle
 10
232.9007062781
 20
158.2861501472
 30
0.0
 40
0.5000000001510001
100
AcDbArc
 50
98.13010234501303
 51
-90.00000001099801
  0
ARC
  5
20B
330
A
100
AcDbEntity
  8
0
  6
Continuous
 62
     3
100
AcDbCircle
 10
238.9071769161
 20
169.7508190992
 30
0.0
 40
10.000000000165
100
AcDbArc
 50
-81.869897646599
 51
-38.314828571296
  0
ARC
  5
20A
330
A
100
AcDbEntity
  8
0
  6
Continuous
 62
     3
100
AcDbCircle
 10
223.9149680781
 20
174.0451078122
 30
0.0
 40
18.000000000241
100
AcDbArc
 50
0.789208297399
 51
1.948017414900999
  0
ARC
  5
209
330
A
100
AcDbEntity
  8
0
  6
Continuous
 62
     3
100
AcDbCircle
 10
241.4133079591
 20
174.2861501472
 30
0.0
 40
0.500000000025
100
AcDbArc
 50
-90.0
 51
0.7892082896799999
  0
ARC
  5
208
330
A
100
AcDbEntity
  8
0
  6
Continuous
 62
     3
100
AcDbCircle
 10
229.7582796221
 20
174.2861501472
 30
0.0
 40
0.5
100
AcDbArc
 50
-124.999999997118
 51
-90.00000001099801
  0
ARC
  5
207
330
A
100
AcDbEntity
  8
0
  6
Continuous
 62
     3
100
AcDbCircle
 10
223.3316135921
 20
178.7861501472
 30
0.0
 40
0.5
100
AcDbArc
 50
90.0
 51
-125.000000006086
  0
ARC
  5
206
330
A
100
AcDbEntity
  8
0
  6
Continuous
 62
     3
100
AcDbCircle
 10
254.9474917791
 20
178.7861501472
 30
0.0
 40
0.5
100
AcDbArc
 50
-55.000000003134
 51
90.00000000584602
  0
ARC
  5
205
330
A
100
AcDbEntity
  8
0
  6
Continuous
 62
     3
100
AcDbCircle
 10
249.9713382411
 20
175.3018099291999
 30
0.0
 40
0.500000000177
100
AcDbArc
 50
-173.11246356649
 51
-54.99999998760801
  0
ARC
  5
204
330
A
100
AcDbEntity
  8
0
  6
Continuous
 62
     3
100
AcDbCircle
 10
245.7023693981
 20
174.7861501472
 30
0.0
 40
3.800000000240999
100
AcDbArc
 50
6.887536324903
 51
-178.051982658502
  0
ARC
  5
203
330
A
100
AcDbEntity
  8
0
  6
Continuous
 62
     3
100
AcDbCircle
 10
223.9149680781
 20
174.0451078122
 30
0.0
 40
18.000000000177
100
AcDbArc
 50
-15.756263097299
 51
-9.0707941227
  0
ARC
  5
202
330
A
100
AcDbEntity
  8
0
  6
Continuous
 62
     3
100
AcDbCircle
 10
238.8325642441
 20
169.8361501472
 30
0.0
 40
2.500000000038999
100
AcDbArc
 50
-86.24085958079
 51
-15.756263105792
  0
ARC
  5
201
330
A
100
AcDbEntity
  8
0
  6
Continuous
 62
     3
100
AcDbCircle
 10
238.9636888781
 20
167.8404531932
 30
0.0
 40
0.499999999781
100
AcDbArc
 50
-124.999999998362
 51
-86.24085952220999
  0
ARC
  5
200
330
A
100
AcDbEntity
  8
0
  6
Continuous
 62
     3
100
AcDbCircle
 10
234.0427236421
 20
171.2861501472
 30
0.0
 40
0.5
100
AcDbArc
 50
90.0
 51
-125.000000007227
  0
ARC
  5
1FF
330
A
100
AcDbEntity
  8
0
  6
Continuous
 62
     3
100
AcDbCircle
 10
241.1961182891
 20
171.2861501472
 30
0.0
 40
0.5
100
AcDbArc
 50
-9.070794058119
 51
90.00000000584602
  0
ARC
  5
1FE
330
A
100
AcDbEntity
  8
0
  6
Continuous
 62
     3
100
AcDbCircle
 10
268.0326462031
 20
174.2861501472
 30
0.0
 40
0.5
100
AcDbArc
 50
-124.999999995052
 51
-90.00000001100202
  0
ARC
  5
1FD
330
A
100
AcDbEntity
  8
0
  6
Continuous
 62
     3
100
AcDbCircle
 10
261.6059801721
 20
178.7861501472
 30
0.0
 40
0.5
100
AcDbArc
 50
90.0
 51
-124.999999995148
  0
ARC
  5
1FC
330
A
100
AcDbEntity
  8
0
  6
Continuous
 62
     3
100
AcDbCircle
 10
269.0023693951
 20
178.7861501472
 30
0.0
 40
0.5
100
AcDbArc
 50
-22.619864985698
 51
90.0
  0
ARC
  5
1FB
330
A
100
AcDbEntity
  8
0
  6
Continuous
 62
     3
100
AcDbCircle
 10
275.0023693951
 20
176.2861501472
 30
0.0
 40
6.0
100
AcDbArc
 50
157.380135055097
 51
-162.079786846595
  0
ARC
  5
1FA
330
A
100
AcDbEntity
  8
0
  6
Continuous
 62
     3
100
AcDbCircle
 10
268.8177109571
 20
174.2861501472
 30
0.0
 40
0.5
100
AcDbArc
 50
-90.0
 51
17.920212986415
  0
ARC
  5
1F9
330
A
100
AcDbEntity
  8
0
  6
Continuous
 62
     3
100
AcDbCircle
 10
266.5023693951
 20
166.3861501472
 30
0.0
 40
0.5
100
AcDbArc
 50
-90.0
 51
0.0
  0
ARC
  5
1F8
330
A
100
AcDbEntity
  8
0
  6
Continuous
 62
     3
100
AcDbCircle
 10
248.8534829061
 20
166.3861501472
 30
0.0
 40
0.5000000000770001
100
AcDbArc
 50
161.310181973643
 51
-90.0
  0
ARC
  5
1F7
330
A
100
AcDbEntity
  8
0
  6
Continuous
 62
     3
100
AcDbCircle
 10
238.9071769161
 20
169.7508190992
 30
0.0
 40
10.000000000226
100
AcDbArc
 50
-18.689818301002
 51
-14.021226069201
  0
ARC
  5
1F6
330
A
100
AcDbEntity
  8
0
  6
Continuous
 62
     3
100
AcDbCircle
 10
219.5030561951
 20
174.5964458931999
 30
0.0
 40
29.999999999847
100
AcDbArc
 50
-14.021226081299
 51
-6.230830517598999
  0
ARC
  5
1F5
330
A
100
AcDbEntity
  8
0
  6
Continuous
 62
     3
100
AcDbCircle
 10
249.8228837351
 20
171.2861501472
 30
0.0
 40
0.5
100
AcDbArc
 50
90.0
 51
173.769169484572
  0
ARC
  5
1F4
330
A
100
AcDbEntity
  8
0
  6
Continuous
 62
     3
100
AcDbCircle
 10
266.5023693951
 20
171.2861501472
 30
0.0
 40
0.5
100
AcDbArc
 50
0.0
 51
90.0
  0
ARC
  5
1F3
330
A
100
AcDbEntity
  8
0
  6
Continuous
 62
     3
100
AcDbCircle
 10
179.2523693981
 20
168.7861501472
 30
0.0
 40
2.35
100
AcDbArc
 50
-150.622207616602
 51
-43.173551107291
  0
ARC
  5
1F2
330
A
100
AcDbEntity
  8
0
  6
Continuous
 62
     3
100
AcDbCircle
 10
198.4523693981
 20
162.2861501472
 30
0.0
 40
3.049999999999999
100
AcDbArc
 50
148.359342611711
 51
-139.024389657405
  0
ARC
  5
1F1
330
A
100
AcDbEntity
  8
0
  6
Continuous
 62
     3
100
AcDbCircle
 10
176.9431487504
 20
167.4861501472
 30
0.0
 40
0.3
100
AcDbArc
 50
29.377792383425
 51
90.0
  0
ARC
  5
1F0
330
A
100
AcDbEntity
  8
0
  6
Continuous
 62
     3
100
AcDbCircle
 10
176.5523693981
 20
167.4861501472
 30
0.0
 40
0.3
100
AcDbArc
 50
90.0
 51
180.0
  0
ARC
  5
1EF
330
A
100
AcDbEntity
  8
0
  6
Continuous
 62
     3
100
AcDbCircle
 10
180.1023693981
 20
155.5361501472
 30
0.0
 40
0.5
100
AcDbArc
 50
149.999999999986
 51
180.0
  0
ARC
  5
1EE
330
A
100
AcDbEntity
  8
0
  6
Continuous
 62
     3
100
AcDbCircle
 10
190.6023693981
 20
155.0361501472
 30
0.0
 40
1.0
100
AcDbArc
 50
0.0
 51
48.590377890692
  0
ARC
  5
1ED
330
A
100
AcDbEntity
  8
0
  6
Continuous
 62
     3
100
AcDbCircle
 10
178.2523693981
 20
171.4549513762
 30
0.0
 40
0.5
100
AcDbArc
 50
180.0
 51
-69.45902246248801
  0
ARC
  5
1EC
330
A
100
AcDbEntity
  8
0
  6
Continuous
 62
     3
100
AcDbCircle
 10
179.2523693981
 20
168.7861501472
 30
0.0
 40
2.35
100
AcDbArc
 50
-43.173551107291
 51
110.540977537505
  0
ARC
  5
1EB
330
A
100
AcDbEntity
  8
0
  6
Continuous
 62
     3
100
AcDbCircle
 10
181.3308303672
 20
166.8361501472
 30
0.0
 40
0.5
100
AcDbArc
 50
136.826448892682
 51
-90.0
  0
ARC
  5
1EA
330
A
100
AcDbEntity
  8
0
  6
Continuous
 62
     3
100
AcDbCircle
 10
176.5655452422
 20
143.7364697383
 30
0.0
 40
0.3
100
AcDbArc
 50
-126.499999999955
 51
-36.49999999995201
  0
ARC
  5
1E9
330
A
100
AcDbEntity
  8
0
  6
Continuous
 62
     3
100
AcDbCircle
 10
179.1023693981
 20
147.5010254207
 30
0.0
 40
0.500000000001
100
AcDbArc
 50
-36.500000000003
 51
0.0
  0
ARC
  5
1E8
330
A
100
AcDbEntity
  8
0
  6
Continuous
 62
     3
100
AcDbCircle
 10
166.0023694126
 20
171.9861501472
 30
0.0
 40
0.3
100
AcDbArc
 50
90.0
 51
180.0
  0
ARC
  5
1E7
330
A
100
AcDbEntity
  8
0
  6
Continuous
 62
     3
100
AcDbCircle
 10
166.0023694126
 20
165.5861501472
 30
0.0
 40
0.3
100
AcDbArc
 50
180.0
 51
-90.0
  0
ARC
  5
1E6
330
A
100
AcDbEntity
  8
0
  6
Continuous
 62
     3
100
AcDbCircle
 10
170.6497659549
 20
171.2861501472
 30
0.0
 40
1.0
100
AcDbArc
 50
78.28345907587901
 51
90.0
  0
ARC
  5
1E5
330
A
100
AcDbEntity
  8
0
  6
Continuous
 62
     3
100
AcDbCircle
 10
170.6497659549
 20
166.2861501472
 30
0.0
 40
1.0
100
AcDbArc
 50
-90.0
 51
-78.28345907587901
  0
ARC
  5
1E4
330
A
100
AcDbEntity
  8
0
  6
Continuous
 62
     3
100
AcDbCircle
 10
174.5004222412
 20
170.4875581617
 30
0.0
 40
1.0
100
AcDbArc
 50
39.052284698198
 51
78.28345907587901
  0
ARC
  5
1E3
330
A
100
AcDbEntity
  8
0
  6
Continuous
 62
     3
100
AcDbCircle
 10
174.5004222412
 20
167.0847421327
 30
0.0
 40
1.0
100
AcDbArc
 50
-78.28345907587901
 51
-39.052284698198
  0
ARC
  5
1E2
330
A
100
AcDbEntity
  8
0
  6
Continuous
 62
     3
100
AcDbCircle
 10
179.2523693981
 20
168.7861501472
 30
0.0
 40
2.25
100
AcDbArc
 50
-151.965199512908
 51
151.965199512908
  0
ARC
  5
1E1
330
A
100
AcDbEntity
  8
0
  6
Continuous
 62
     6
100
AcDbCircle
 10
217.2023693956
 20
144.7861501472
 30
0.0
 40
0.3
100
AcDbArc
 50
-90.0
 51
0.0
  0
ARC
  5
1E0
330
A
100
AcDbEntity
  8
0
  6
Continuous
 62
     6
100
AcDbCircle
 10
216.5023693956
 20
151.4861501472
 30
0.0
 40
1.0
100
AcDbArc
 50
0.0
 51
90.0
  0
ARC
  5
1DF
330
A
100
AcDbEntity
  8
0
  6
Continuous
 62
     6
100
AcDbCircle
 10
213.7023693956
 20
144.7861501472
 30
0.0
 40
0.3
100
AcDbArc
 50
-90.0
 51
0.0
  0
ARC
  5
1DE
330
A
100
AcDbEntity
  8
0
  6
Continuous
 62
     6
100
AcDbCircle
 10
180.3023693956
 20
144.7861501472
 30
0.0
 40
0.3
100
AcDbArc
 50
180.0
 51
-90.0
  0
ARC
  5
1DD
330
A
100
AcDbEntity
  8
0
  6
Continuous
 62
     6
100
AcDbCircle
 10
213.7023693956
 20
152.1861501472
 30
0.0
 40
0.3
100
AcDbArc
 50
0.0
 51
90.0
  0
ARC
  5
1DC
330
A
100
AcDbEntity
  8
0
  6
Continuous
 62
     6
100
AcDbCircle
 10
180.3023693956
 20
152.1861501472
 30
0.0
 40
0.3
100
AcDbArc
 50
90.0
 51
180.0
  0
ARC
  5
1DB
330
A
100
AcDbEntity
  8
0
  6
Continuous
 62
     6
100
AcDbCircle
 10
211.4023693956
 20
152.1861501472
 30
0.0
 40
0.3
100
AcDbArc
 50
90.0
 51
180.0
  0
ARC
  5
1DA
330
A
100
AcDbEntity
  8
0
  6
Continuous
 62
     6
100
AcDbCircle
 10
182.6023693956
 20
144.7861501472
 30
0.0
 40
0.3
100
AcDbArc
 50
-90.0
 51
0.0
  0
ARC
  5
1D9
330
A
100
AcDbEntity
  8
0
  6
Continuous
 62
     6
100
AcDbCircle
 10
211.4023693956
 20
144.7861501472
 30
0.0
 40
0.3
100
AcDbArc
 50
180.0
 51
-90.0
  0
ARC
  5
1D8
330
A
100
AcDbEntity
  8
0
  6
Continuous
 62
     6
100
AcDbCircle
 10
182.6023693956
 20
152.1861501472
 30
0.0
 40
0.3
100
AcDbArc
 50
0.0
 51
90.0
  0
ARC
  5
1D7
330
A
100
AcDbEntity
  8
0
  6
Continuous
 62
     6
100
AcDbCircle
 10
202.5023693956
 20
152.1861501472
 30
0.0
 40
0.3
100
AcDbArc
 50
90.0
 51
180.0
  0
ARC
  5
1D6
330
A
100
AcDbEntity
  8
0
  6
Continuous
 62
     6
100
AcDbCircle
 10
191.5023693956
 20
144.7861501472
 30
0.0
 40
0.3
100
AcDbArc
 50
-90.0
 51
0.0
  0
ARC
  5
1D5
330
A
100
AcDbEntity
  8
0
  6
Continuous
 62
     6
100
AcDbCircle
 10
204.8023693956
 20
144.7861501472
 30
0.0
 40
0.3
100
AcDbArc
 50
-90.0
 51
0.0
  0
ARC
  5
1D4
330
A
100
AcDbEntity
  8
0
  6
Continuous
 62
     6
100
AcDbCircle
 10
189.2023693956
 20
152.1861501472
 30
0.0
 40
0.3
100
AcDbArc
 50
90.0
 51
180.0
  0
ARC
  5
1D3
330
A
100
AcDbEntity
  8
0
  6
Continuous
 62
     6
100
AcDbCircle
 10
202.5023693956
 20
144.7861501472
 30
0.0
 40
0.3
100
AcDbArc
 50
180.0
 51
-90.0
  0
ARC
  5
1D2
330
A
100
AcDbEntity
  8
0
  6
Continuous
 62
     6
100
AcDbCircle
 10
204.8023693956
 20
152.1861501472
 30
0.0
 40
0.3
100
AcDbArc
 50
0.0
 51
90.0
  0
ARC
  5
1D1
330
A
100
AcDbEntity
  8
0
  6
Continuous
 62
     6
100
AcDbCircle
 10
189.2023693956
 20
144.7861501472
 30
0.0
 40
0.3
100
AcDbArc
 50
180.0
 51
-90.0
  0
ARC
  5
1D0
330
A
100
AcDbEntity
  8
0
  6
Continuous
 62
     6
100
AcDbCircle
 10
191.5023693956
 20
152.1861501472
 30
0.0
 40
0.3
100
AcDbArc
 50
0.0
 51
90.0
  0
ARC
  5
1CF
330
A
100
AcDbEntity
  8
0
  6
Continuous
 62
     3
100
AcDbCircle
 10
164.7523693981
 20
167.1361501472
 30
0.0
 40
0.05
100
AcDbArc
 50
180.0
 51
-90.0
  0
ARC
  5
1CE
330
A
100
AcDbEntity
  8
0
  6
Continuous
 62
     3
100
AcDbCircle
 10
164.7523693981
 20
170.4361501472
 30
0.0
 40
0.05
100
AcDbArc
 50
90.0
 51
180.0
  0
ARC
  5
1CD
330
A
100
AcDbEntity
  8
0
  6
Continuous
 62
     3
100
AcDbCircle
 10
79.9523693981
 20
165.4861501472
 30
0.0
 40
0.3
100
AcDbArc
 50
180.0
 51
-90.0
  0
ARC
  5
1CC
330
A
100
AcDbEntity
  8
0
  6
Continuous
 62
     3
100
AcDbCircle
 10
79.9523693981
 20
172.0861501472
 30
0.0
 40
0.3
100
AcDbArc
 50
90.0
 51
180.0
  0
LINE
  5
1CB
330
A
100
AcDbEntity
  8
FORMAT
  6
PHANTOM
 62
     1
100
AcDbLine
 10
329.0023693951
 20
149.2861501472
 30
0.0
 11
329.0023693951
 21
134.2861501472
 31
0.0
  0
LINE
  5
1CA
330
A
100
AcDbEntity
  8
1
  6
DOT_CENTER
 62
     1
100
AcDbLine
 10
174.124748769655
 20
61.4710204005
 30
0.0
 11
221.7903325842299
 21
61.4710204005
 31
0.0
  0
LINE
  5
1C9
330
A
100
AcDbEntity
  8
1
  6
DOT_CENTER
 62
     1
100
AcDbLine
 10
187.5023693956
 20
69.44342000486599
 30
0.0
 11
187.5023693956
 21
51.163899998306
 31
0.0
  0
LINE
  5
1C8
330
A
100
AcDbEntity
  8
1
  6
DOT_CENTER
 62
     1
100
AcDbLine
 10
206.5023693956
 20
70.060450216058
 30
0.0
 11
206.5023693956
 21
51.318157551104
 31
0.0
  0
LINE
  5
1C7
330
A
100
AcDbEntity
  8
0
  6
Continuous
 62
     6
100
AcDbLine
 10
184.9023692297
 20
91.9710202165
 30
0.0
 11
186.9023686262
 21
91.9710202165
 31
0.0
  0
LINE
  5
1C6
330
A
100
AcDbEntity
  8
0
  6
Continuous
 62
     6
100
AcDbLine
 10
191.8023696156
 20
95.27102043139999
 30
0.0
 11
191.8023696156
 21
93.178127196
 31
0.0
  0
LINE
  5
1C5
330
A
100
AcDbEntity
  8
0
  6
Continuous
 62
     6
100
AcDbLine
 10
217.5023687991
 20
89.97102035430001
 30
0.0
 11
217.5023687991
 21
58.97101992959999
 31
0.0
  0
LINE
  5
1C4
330
A
100
AcDbEntity
  8
1
  6
DOT_CENTER
 62
     1
100
AcDbLine
 10
47.0023693951
 20
178.163640842563
 30
0.0
 11
47.0023693951
 21
165.819932389519
 31
0.0
  0
LINE
  5
1C3
330
A
100
AcDbEntity
  8
1
  6
DOT_CENTER
 62
     1
100
AcDbLine
 10
55.0023693951
 20
182.238836456247
 30
0.0
 11
55.0023693951
 21
169.599823973226
 31
0.0
  0
LINE
  5
1C2
330
A
100
AcDbEntity
  8
1
  6
DOT_CENTER
 62
     1
100
AcDbLine
 10
57.3023693951
 20
173.793141198901
 30
0.0
 11
57.3023693951
 21
154.244014414415
 31
0.0
  0
LINE
  5
1C1
330
A
100
AcDbEntity
  8
1
  6
DOT_CENTER
 62
     1
100
AcDbLine
 10
51.75751682642499
 20
161.2861501472
 30
0.0
 11
62.860948353565
 21
161.2861501472
 31
0.0
  0
LINE
  5
1C0
330
A
100
AcDbEntity
  8
1
  6
DOT_CENTER
 62
     1
100
AcDbLine
 10
51.580334408438
 20
167.2861501472
 30
0.0
 11
62.565644323588
 21
167.2861501472
 31
0.0
  0
LINE
  5
1BF
330
A
100
AcDbEntity
  8
1
  6
DOT_CENTER
 62
     1
100
AcDbLine
 10
49.276962974617
 20
176.2861501472
 30
0.0
 11
60.675698531734
 21
176.2861501472
 31
0.0
  0
LINE
  5
1BE
330
A
100
AcDbEntity
  8
1
  6
DOT_CENTER
 62
     1
100
AcDbLine
 10
39.768173209353
 20
172.2861501472
 30
0.0
 11
53.056854558324
 21
172.2861501472
 31
0.0
  0
LINE
  5
1BD
330
A
100
AcDbEntity
  8
1
  6
DOT_CENTER
 62
     1
100
AcDbLine
 10
265.869610660119
 20
161.2861501472
 30
0.0
 11
279.037854654231
 21
161.2861501472
 31
0.0
  0
LINE
  5
1BC
330
A
100
AcDbEntity
  8
1
  6
DOT_CENTER
 62
     1
100
AcDbLine
 10
266.062316669789
 20
167.2861501472
 30
0.0
 11
279.359031337014
 21
167.2861501472
 31
0.0
  0
LINE
  5
1BB
330
A
100
AcDbEntity
  8
1
  6
DOT_CENTER
 62
     1
100
AcDbLine
 10
272.7023693951
 20
173.950099878626
 30
0.0
 11
272.7023693951
 21
154.294086892294
 31
0.0
  0
LINE
  5
1BA
330
A
100
AcDbEntity
  8
1
  6
DOT_CENTER
 62
     1
100
AcDbLine
 10
277.367735903758
 20
172.2861501472
 30
0.0
 11
290.150567878529
 21
172.2861501472
 31
0.0
  0
LINE
  5
1B9
330
A
100
AcDbEntity
  8
1
  6
DOT_CENTER
 62
     1
100
AcDbLine
 10
283.0023693951
 20
178.703514783818
 30
0.0
 11
283.0023693951
 21
165.149858770367
 31
0.0
  0
LINE
  5
1B8
330
A
100
AcDbEntity
  8
1
  6
DOT_CENTER
 62
     1
100
AcDbLine
 10
267.6682000837049
 20
176.2861501472
 30
0.0
 11
280.643738068147
 21
176.2861501472
 31
0.0
  0
LINE
  5
1B7
330
A
100
AcDbEntity
  8
1
  6
DOT_CENTER
 62
     1
100
AcDbLine
 10
275.0023693951
 20
183.199988342783
 30
0.0
 11
275.0023693951
 21
169.517861656218
 31
0.0
  0
LINE
  5
1B6
330
A
100
AcDbEntity
  8
0
  6
Continuous
 62
     6
100
AcDbLine
 10
200.7073948147
 20
144.4861493306
 30
0.0
 11
195.2919011923
 21
144.4861493306
 31
0.0
  0
LINE
  5
1B5
330
A
100
AcDbEntity
  8
0
  6
Continuous
 62
     6
100
AcDbLine
 10
202.3689767333
 20
56.83698365689999
 30
0.0
 11
202.3500373574
 21
56.81575322749999
 31
0.0
  0
LINE
  5
1B4
330
A
100
AcDbEntity
  8
0
  6
Continuous
 62
     6
100
AcDbLine
 10
202.3753730567
 20
56.8441548407
 30
0.0
 11
202.3689767333
 21
56.83698365689999
 31
0.0
  0
LINE
  5
1B3
330
A
100
AcDbEntity
  8
0
  6
Continuous
 62
     3
100
AcDbLine
 10
267.7458582433
 20
173.8765742862
 30
0.0
 11
267.751371673
 21
173.884443962
 31
0.0
  0
LINE
  5
1B2
330
A
100
AcDbEntity
  8
0
  6
Continuous
 62
     3
100
AcDbLine
 10
269.293455592
 20
174.4399965041999
 30
0.0
 11
269.2843137296
 21
174.4370400207
 31
0.0
  0
LINE
  5
1B1
330
A
100
AcDbEntity
  8
0
  6
Continuous
 62
     3
100
AcDbLine
 10
149.7023703518
 20
165.149395843
 30
0.0
 11
149.7023684891
 21
165.1361505733
 31
0.0
  0
LINE
  5
1B0
330
A
100
AcDbEntity
  8
0
  6
Continuous
 62
     3
100
AcDbLine
 10
149.7023703518
 20
165.1861495571
 30
0.0
 11
149.7023703518
 21
165.149395843
 31
0.0
  0
LINE
  5
1AF
330
A
100
AcDbEntity
  8
0
  6
Continuous
 62
     3
100
AcDbLine
 10
175.612301285
 20
170.6430767895
 30
0.0
 11
175.6919428693
 21
170.5293371575
 31
0.0
  0
LINE
  5
1AE
330
A
100
AcDbEntity
  8
0
  6
Continuous
 62
     3
100
AcDbLine
 10
175.5215485566999
 20
170.7726852269
 30
0.0
 11
175.612301285
 21
170.6430767895
 31
0.0
  0
LINE
  5
1AD
330
A
100
AcDbEntity
  8
0
  6
Continuous
 62
     3
100
AcDbLine
 10
175.4228316235
 20
170.913667907
 30
0.0
 11
175.5215485566999
 21
170.7726852269
 31
0.0
  0
LINE
  5
1AC
330
A
100
AcDbEntity
  8
0
  6
Continuous
 62
     3
100
AcDbLine
 10
175.3195744926
 20
171.0611344548
 30
0.0
 11
175.4228316235
 21
170.913667907
 31
0.0
  0
LINE
  5
1AB
330
A
100
AcDbEntity
  8
0
  6
Continuous
 62
     3
100
AcDbLine
 10
175.4228316235
 20
166.6586329462
 30
0.0
 11
175.3195744926
 21
166.5111654671
 31
0.0
  0
LINE
  5
1AA
330
A
100
AcDbEntity
  8
0
  6
Continuous
 62
     3
100
AcDbLine
 10
175.5215485566999
 20
166.7996146949
 30
0.0
 11
175.4228316235
 21
166.6586329462
 31
0.0
  0
LINE
  5
1A9
330
A
100
AcDbEntity
  8
0
  6
Continuous
 62
     3
100
AcDbLine
 10
175.612301285
 20
166.9292231323
 30
0.0
 11
175.5215485566999
 21
166.7996146949
 31
0.0
  0
LINE
  5
1A8
330
A
100
AcDbEntity
  8
0
  6
Continuous
 62
     3
100
AcDbLine
 10
175.6919428693
 20
167.0429627644
 30
0.0
 11
175.612301285
 21
166.9292231323
 31
0.0
  0
LINE
  5
1A7
330
A
100
AcDbEntity
  8
0
  6
Continuous
 62
     3
100
AcDbLine
 10
175.9243618684
 20
170.1974082039
 30
0.0
 11
176.053784507
 21
170.0125732692
 31
0.0
  0
LINE
  5
1A6
330
A
100
AcDbEntity
  8
0
  6
Continuous
 62
     3
100
AcDbLine
 10
175.8033565233
 20
170.3702216269
 30
0.0
 11
175.9243618684
 21
170.1974082039
 31
0.0
  0
LINE
  5
1A5
330
A
100
AcDbEntity
  8
0
  6
Continuous
 62
     3
100
AcDbLine
 10
175.6919428693
 20
170.5293371575
 30
0.0
 11
175.8033565233
 21
170.3702216269
 31
0.0
  0
LINE
  5
1A4
330
A
100
AcDbEntity
  8
0
  6
Continuous
 62
     3
100
AcDbLine
 10
175.8033565233
 20
167.2020782949
 30
0.0
 11
175.6919428693
 21
167.0429627644
 31
0.0
  0
LINE
  5
1A3
330
A
100
AcDbEntity
  8
0
  6
Continuous
 62
     3
100
AcDbLine
 10
175.9243618684
 20
167.3748917179
 30
0.0
 11
175.8033565233
 21
167.2020782949
 31
0.0
  0
LINE
  5
1A2
330
A
100
AcDbEntity
  8
0
  6
Continuous
 62
     3
100
AcDbLine
 10
176.053784507
 20
167.5597266527
 30
0.0
 11
175.9243618684
 21
167.3748917179
 31
0.0
  0
LINE
  5
1A1
330
A
100
AcDbEntity
  8
FORMAT
  6
PHANTOM
 62
     1
100
AcDbLine
 10
387.421711826431
 20
127.9861501472
 30
0.0
 11
442.8079443200309
 21
127.9861501472
 31
0.0
  0
LINE
  5
1A0
330
A
100
AcDbEntity
  8
FORMAT
  6
PHANTOM
 62
     1
100
AcDbLine
 10
371.421711826431
 20
193.0057312573
 30
0.0
 11
371.421711826431
 21
114.1691071137
 31
0.0
  0
LINE
  5
19F
330
A
100
AcDbEntity
  8
FORMAT
  6
PHANTOM
 62
     1
100
AcDbLine
 10
387.421711826431
 20
137.9861501472
 30
0.0
 11
442.8079443200309
 21
137.9861501472
 31
0.0
  0
LINE
  5
19E
330
A
100
AcDbEntity
  8
FORMAT
  6
PHANTOM
 62
     1
100
AcDbLine
 10
387.421711826431
 20
193.0057312573
 30
0.0
 11
387.421711826431
 21
114.1691071137
 31
0.0
  0
LINE
  5
19D
330
A
100
AcDbEntity
  8
FORMAT
  6
PHANTOM
 62
     1
100
AcDbLine
 10
402.9217118264309
 20
149.4861501472
 30
0.0
 11
442.8079443200309
 21
149.4861501472
 31
0.0
  0
LINE
  5
19C
330
A
100
AcDbEntity
  8
FORMAT
  6
DOT_CENTER
 62
     1
100
AcDbLine
 10
428.4217118264309
 20
156.2863566514
 30
0.0
 11
428.4217118264309
 21
132.7351566948
 31
0.0
  0
LINE
  5
19B
330
A
100
AcDbEntity
  8
FORMAT
  6
PHANTOM
 62
     1
100
AcDbLine
 10
402.9217118264309
 20
193.0057312573
 30
0.0
 11
402.9217118264309
 21
149.4861501472
 31
0.0
  0
LINE
  5
19A
330
A
100
AcDbEntity
  8
FORMAT
  6
PHANTOM
 62
     1
100
AcDbLine
 10
401.4217118264309
 20
147.9861501472
 30
0.0
 11
418.9217118264309
 21
147.9861501472
 31
0.0
  0
LINE
  5
199
330
A
100
AcDbEntity
  8
FORMAT
  6
PHANTOM
 62
     1
100
AcDbLine
 10
401.4217118264309
 20
193.9448478106
 30
0.0
 11
401.4217118264309
 21
147.9861501472
 31
0.0
  0
LINE
  5
198
330
A
100
AcDbEntity
  8
FORMAT
  6
PHANTOM
 62
     1
100
AcDbLine
 10
418.9217118264309
 20
149.4861501472
 30
0.0
 11
418.9217118264309
 21
147.9861501472
 31
0.0
  0
LINE
  5
197
330
A
100
AcDbEntity
  8
0
  6
Continuous
 62
     3
100
AcDbLine
 10
398.421711796631
 20
176.2861502589
 30
0.0
 11
387.421711856231
 21
176.2861502589
 31
0.0
  0
LINE
  5
196
330
A
100
AcDbEntity
  8
0
  6
Continuous
 62
     3
100
AcDbLine
 10
391.7403122603309
 20
144.4861493306
 30
0.0
 11
391.739526340531
 21
144.3304210202
 31
0.0
  0
LINE
  5
195
330
A
100
AcDbEntity
  8
0
  6
Continuous
 62
     6
100
AcDbLine
 10
392.281123537831
 20
144.4861493306
 30
0.0
 11
392.281123537831
 21
152.4861506419
 31
0.0
  0
LINE
  5
194
330
A
100
AcDbEntity
  8
0
  6
Continuous
 62
     3
100
AcDbLine
 10
387.721711812331
 20
155.786150624
 30
0.0
 11
398.121711840631
 21
155.786150624
 31
0.0
  0
LINE
  5
193
330
A
100
AcDbEntity
  8
0
  6
Continuous
 62
     3
100
AcDbLine
 10
398.121711840631
 20
181.2861501472
 30
0.0
 11
387.721711812331
 21
181.2861501472
 31
0.0
  0
LINE
  5
192
330
A
100
AcDbEntity
  8
0
  6
Continuous
 62
     3
100
AcDbLine
 10
387.421711856231
 20
161.0861509339
 30
0.0
 11
387.421711856231
 21
176.2861502589
 31
0.0
  0
LINE
  5
191
330
A
100
AcDbEntity
  8
0
  6
Continuous
 62
     3
100
AcDbLine
 10
398.121711840631
 20
160.7861495809
 30
0.0
 11
387.721711812331
 21
160.7861495809
 31
0.0
  0
LINE
  5
190
330
A
100
AcDbEntity
  8
0
  6
Continuous
 62
     3
100
AcDbLine
 10
398.421711796631
 20
161.0861509339
 30
0.0
 11
398.421711796631
 21
176.2861502589
 31
0.0
  0
LINE
  5
18F
330
A
100
AcDbEntity
  8
0
  6
Continuous
 62
     3
100
AcDbLine
 10
395.921711852531
 20
144.4861493306
 30
0.0
 11
395.921711852531
 21
143.4364705579
 31
0.0
  0
LINE
  5
18E
330
A
100
AcDbEntity
  8
0
  6
Continuous
 62
     3
100
AcDbLine
 10
389.921711800431
 20
143.4364705579
 30
0.0
 11
389.921711800431
 21
144.4861493306
 31
0.0
  0
LINE
  5
18D
330
A
100
AcDbEntity
  8
0
  6
Continuous
 62
     3
100
AcDbLine
 10
389.921711800431
 20
152.4861506419
 30
0.0
 11
389.921711800431
 21
152.8361509786
 31
0.0
  0
LINE
  5
18C
330
A
100
AcDbEntity
  8
0
  6
Continuous
 62
     3
100
AcDbLine
 10
389.921711800431
 20
152.8361509786
 30
0.0
 11
391.221912154731
 21
152.8361509786
 31
0.0
  0
LINE
  5
18B
330
A
100
AcDbEntity
  8
0
  6
Continuous
 62
     3
100
AcDbLine
 10
395.921711852531
 20
152.8361509786
 30
0.0
 11
395.921711852531
 21
152.4861506419
 31
0.0
  0
LINE
  5
18A
330
A
100
AcDbEntity
  8
0
  6
Continuous
 62
     3
100
AcDbLine
 10
394.621711849031
 20
152.8361509786
 30
0.0
 11
395.921711852531
 21
152.8361509786
 31
0.0
  0
LINE
  5
189
330
A
100
AcDbEntity
  8
0
  6
Continuous
 62
     3
100
AcDbLine
 10
394.621711849031
 20
155.786150624
 30
0.0
 11
394.621711849031
 21
152.4861506419
 31
0.0
  0
LINE
  5
188
330
A
100
AcDbEntity
  8
0
  6
Continuous
 62
     3
100
AcDbLine
 10
391.221711803931
 20
143.3361484901
 30
0.0
 11
393.233999477931
 21
143.3361484901
 31
0.0
  0
LINE
  5
187
330
A
100
AcDbEntity
  8
0
  6
Continuous
 62
     3
100
AcDbLine
 10
394.621711849
 20
143.336148490147
 30
0.0
 11
393.233999477931
 21
143.3361484901
 31
0.0
  0
LINE
  5
186
330
A
100
AcDbEntity
  8
0
  6
Continuous
 62
     3
100
AcDbLine
 10
391.739526340531
 20
144.3304210202
 30
0.0
 11
391.682329397431
 21
144.4861493306
 31
0.0
  0
LINE
  5
185
330
A
100
AcDbEntity
  8
0
  6
Continuous
 62
     6
100
AcDbLine
 10
388.8217118063311
 20
144.7861506836
 30
0.0
 11
388.8217118063311
 21
152.1861492888
 31
0.0
  0
LINE
  5
184
330
A
100
AcDbEntity
  8
0
  6
Continuous
 62
     6
100
AcDbLine
 10
389.607653064431
 20
144.4861493306
 30
0.0
 11
389.121711762431
 21
144.4861493306
 31
0.0
  0
LINE
  5
183
330
A
100
AcDbEntity
  8
0
  6
Continuous
 62
     6
100
AcDbLine
 10
389.121711762431
 20
152.4861506419
 30
0.0
 11
389.607653064431
 21
152.4861506419
 31
0.0
  0
LINE
  5
182
330
A
100
AcDbEntity
  8
0
  6
Continuous
 62
     6
100
AcDbLine
 10
389.633555706331
 20
144.4861493306
 30
0.0
 11
389.607653064431
 21
144.4861493306
 31
0.0
  0
LINE
  5
181
330
A
100
AcDbEntity
  8
0
  6
Continuous
 62
     6
100
AcDbLine
 10
389.607653064431
 20
152.4861506419
 30
0.0
 11
389.633555706331
 21
152.4861506419
 31
0.0
  0
LINE
  5
180
330
A
100
AcDbEntity
  8
0
  6
Continuous
 62
     6
100
AcDbLine
 10
389.633555706331
 20
152.4861506419
 30
0.0
 11
392.281123537831
 21
152.4861506419
 31
0.0
  0
LINE
  5
17F
330
A
100
AcDbEntity
  8
0
  6
Continuous
 62
     6
100
AcDbLine
 10
392.281123537831
 20
144.4861493306
 30
0.0
 11
389.633555706331
 21
144.4861493306
 31
0.0
  0
LINE
  5
17E
330
A
100
AcDbEntity
  8
0
  6
Continuous
 62
     6
100
AcDbLine
 10
392.281123537831
 20
152.4861506419
 30
0.0
 11
398.148212624431
 21
152.4861506419
 31
0.0
  0
LINE
  5
17D
330
A
100
AcDbEntity
  8
0
  6
Continuous
 62
     6
100
AcDbLine
 10
399.321711664831
 20
144.4861493306
 30
0.0
 11
392.281123537831
 21
144.4861493306
 31
0.0
  0
LINE
  5
17C
330
A
100
AcDbEntity
  8
0
  6
Continuous
 62
     6
100
AcDbLine
 10
399.021711708731
 20
144.7861506836
 30
0.0
 11
399.021711708731
 21
151.4861504779999
 31
0.0
  0
LINE
  5
17B
330
A
100
AcDbEntity
  8
0
  6
Continuous
 62
     6
100
AcDbLine
 10
435.7217136265309
 20
144.4861493306
 30
0.0
 11
399.321711664831
 21
144.4861493306
 31
0.0
  0
LINE
  5
17A
330
A
100
AcDbEntity
  8
0
  6
Continuous
 62
     6
100
AcDbLine
 10
400.5217119546309
 20
152.1861492888
 30
0.0
 11
400.5217119546309
 21
148.3861482935
 31
0.0
  0
LINE
  5
179
330
A
100
AcDbEntity
  8
0
  6
Continuous
 62
     6
100
AcDbLine
 10
400.0217118726309
 20
152.4861506419
 30
0.0
 11
400.221711998531
 21
152.4861506419
 31
0.0
  0
LINE
  5
178
330
A
100
AcDbEntity
  8
0
  6
Continuous
 62
     6
100
AcDbLine
 10
402.521712282431
 20
146.3861516909
 30
0.0
 11
408.414604650531
 21
146.3861516909
 31
0.0
  0
LINE
  5
177
330
A
100
AcDbEntity
  8
0
  6
Continuous
 62
     6
100
AcDbLine
 10
408.7681579829309
 20
146.5325965778
 30
0.0
 11
409.5752644778309
 21
147.3397030727
 31
0.0
  0
LINE
  5
176
330
A
100
AcDbEntity
  8
0
  6
Continuous
 62
     6
100
AcDbLine
 10
409.928818741531
 20
147.486151685
 30
0.0
 11
420.814605006731
 21
147.486151685
 31
0.0
  0
LINE
  5
175
330
A
100
AcDbEntity
  8
0
  6
Continuous
 62
     6
100
AcDbLine
 10
421.168159270431
 20
147.6325965719
 30
0.0
 11
422.8752660991309
 21
149.3397034006
 31
0.0
  0
LINE
  5
174
330
A
100
AcDbEntity
  8
0
  6
Continuous
 62
     6
100
AcDbLine
 10
423.2288185001309
 20
149.4861482875
 30
0.0
 11
435.7217136265309
 21
149.4861482875
 31
0.0
  0
LINE
  5
173
330
A
100
AcDbEntity
  8
0
  6
Continuous
 62
     6
100
AcDbLine
 10
436.021711254231
 20
149.1861506598
 30
0.0
 11
436.021711254231
 21
144.7861506836
 31
0.0
  0
LINE
  5
172
330
A
100
AcDbEntity
  8
0
  6
Continuous
 62
     3
100
AcDbLine
 10
394.621711849031
 20
143.4364705579
 30
0.0
 11
395.921711852531
 21
143.4364705579
 31
0.0
  0
LINE
  5
171
330
A
100
AcDbEntity
  8
0
  6
Continuous
 62
     3
100
AcDbLine
 10
389.921711800431
 20
143.4364705579
 30
0.0
 11
391.221657088731
 21
143.4364705579
 31
0.0
  0
LINE
  5
170
330
A
100
AcDbEntity
  8
0
  6
Continuous
 62
     3
100
AcDbLine
 10
391.221798649731
 20
144.4861493306
 30
0.0
 11
391.221711803931
 21
143.3361484901
 31
0.0
  0
LINE
  5
16F
330
A
100
AcDbEntity
  8
0
  6
Continuous
 62
     6
100
AcDbLine
 10
389.307653108331
 20
152.1861492888
 30
0.0
 11
389.307653108331
 21
144.7861506836
 31
0.0
  0
LINE
  5
16E
330
A
100
AcDbEntity
  8
0
  6
Continuous
 62
     3
100
AcDbLine
 10
199.9187936994
 20
95.62102041889998
 30
0.0
 11
199.9187936994
 21
98.221020426
 31
0.0
  0
LINE
  5
16D
330
A
100
AcDbEntity
  8
0
  6
Continuous
 62
     3
100
AcDbLine
 10
199.9187936994
 20
98.221020426
 30
0.0
 11
198.4985826524
 21
98.221020426
 31
0.0
  0
LINE
  5
16C
330
A
100
AcDbEntity
  8
0
  6
Continuous
 62
     3
100
AcDbLine
 10
198.3752550544
 20
97.3047141328
 30
0.0
 11
194.9044411989
 21
95.62102041889998
 31
0.0
  0
LINE
  5
16B
330
A
100
AcDbEntity
  8
0
  6
Continuous
 62
     3
100
AcDbLine
 10
198.223779163
 20
97.61794191079999
 30
0.0
 11
198.3752550544
 21
97.3047144238
 31
0.0
  0
LINE
  5
16A
330
A
100
AcDbEntity
  8
0
  6
Continuous
 62
     3
100
AcDbLine
 10
197.9419702651
 20
98.2006818544
 30
0.0
 11
197.9838090005
 21
98.1141628021
 31
0.0
  0
LINE
  5
169
330
A
100
AcDbEntity
  8
0
  6
Continuous
 62
     3
100
AcDbLine
 10
180.1023690016999
 20
98.52102038209999
 30
0.0
 11
180.1023690016999
 21
98.47972332719999
 31
0.0
  0
LINE
  5
168
330
A
100
AcDbEntity
  8
0
  6
Continuous
 62
     3
100
AcDbLine
 10
198.222220129
 20
98.36736892110002
 30
0.0
 11
198.3132513227
 21
98.49376278219999
 31
0.0
  0
LINE
  5
167
330
A
100
AcDbEntity
  8
0
  6
Continuous
 62
     3
100
AcDbLine
 10
192.6165318104
 20
95.62102041889998
 30
0.0
 11
197.9419739904
 21
98.20066753530001
 31
0.0
  0
LINE
  5
166
330
A
100
AcDbEntity
  8
0
  6
Continuous
 62
     3
100
AcDbLine
 10
193.5017427417
 20
98.771020423
 30
0.0
 11
193.5017427417
 21
96.75873274899998
 31
0.0
  0
LINE
  5
165
330
A
100
AcDbEntity
  8
0
  6
Continuous
 62
     3
100
AcDbLine
 10
169.3023694201
 20
98.37102040399999
 30
0.0
 11
169.2023693571
 21
98.37102040399999
 31
0.0
  0
LINE
  5
164
330
A
100
AcDbEntity
  8
0
  6
Continuous
 62
     3
100
AcDbLine
 10
169.2023693571
 20
95.77102039699999
 30
0.0
 11
169.3023694201
 21
95.77102039699999
 31
0.0
  0
LINE
  5
163
330
A
100
AcDbEntity
  8
0
  6
Continuous
 62
     3
100
AcDbLine
 10
278.8927836331
 20
102.5710203707
 30
0.0
 11
288.7023670586
 21
102.5710203707
 31
0.0
  0
LINE
  5
162
330
A
100
AcDbEntity
  8
0
  6
Continuous
 62
     3
100
AcDbLine
 10
289.0023721369
 20
102.2710204147
 30
0.0
 11
289.0023721369
 21
91.87102038639999
 31
0.0
  0
LINE
  5
161
330
A
100
AcDbEntity
  8
0
  6
Continuous
 62
     3
100
AcDbLine
 10
278.8927836331
 20
91.5710204303
 30
0.0
 11
288.7023670586
 21
91.5710204303
 31
0.0
  0
LINE
  5
160
330
A
100
AcDbEntity
  8
0
  6
Continuous
 62
     3
100
AcDbLine
 10
41.00237619
 20
91.87102038639999
 30
0.0
 11
41.00237619
 21
102.2710204147
 31
0.0
  0
LINE
  5
15F
330
A
100
AcDbEntity
  8
0
  6
Continuous
 62
     3
100
AcDbLine
 10
41.30250311146699
 20
102.5710203707
 30
0.0
 11
274.2023674758
 21
102.5710203707
 31
0.0
  0
LINE
  5
15E
330
A
100
AcDbEntity
  8
0
  6
Continuous
 62
     3
100
AcDbLine
 10
50.8023707183
 20
91.87102038639999
 30
0.0
 11
50.8023707183
 21
102.2710204147
 31
0.0
  0
LINE
  5
15D
330
A
100
AcDbEntity
  8
0
  6
Continuous
 62
     3
100
AcDbLine
 10
279.202370158
 20
102.2710204147
 30
0.0
 11
279.202370158
 21
91.87102038639999
 31
0.0
  0
LINE
  5
15C
330
A
100
AcDbEntity
  8
0
  6
Continuous
 62
     3
100
AcDbLine
 10
214.0858529123
 20
91.5710204303
 30
0.0
 11
274.2023674758
 21
91.5710204303
 31
0.0
  0
LINE
  5
15B
330
A
100
AcDbEntity
  8
0
  6
Continuous
 62
     3
100
AcDbLine
 10
193.2023691000999
 20
91.5710204303
 30
0.0
 11
200.8023692282
 21
91.5710204303
 31
0.0
  0
LINE
  5
15A
330
A
100
AcDbEntity
  8
0
  6
Continuous
 62
     3
100
AcDbLine
 10
41.302235679004
 20
91.5710204303
 30
0.0
 11
179.9188844847
 21
91.5710204303
 31
0.0
  0
LINE
  5
159
330
A
100
AcDbEntity
  8
0
  6
Continuous
 62
     3
100
AcDbLine
 10
173.5896765707
 20
95.27102043139999
 30
0.0
 11
169.2023693571
 21
95.27102043139999
 31
0.0
  0
LINE
  5
158
330
A
100
AcDbEntity
  8
0
  6
Continuous
 62
     3
100
AcDbLine
 10
180.0023691716
 20
95.27102043139999
 30
0.0
 11
179.6023698511
 21
95.27102043139999
 31
0.0
  0
LINE
  5
157
330
A
100
AcDbEntity
  8
0
  6
Continuous
 62
     3
100
AcDbLine
 10
188.902368954
 20
95.27102043139999
 30
0.0
 11
182.9023698332
 21
95.27102043139999
 31
0.0
  0
LINE
  5
156
330
A
100
AcDbEntity
  8
0
  6
Continuous
 62
     3
100
AcDbLine
 10
202.2023705753
 20
95.27102043139999
 30
0.0
 11
191.8023696156
 21
95.27102043139999
 31
0.0
  0
LINE
  5
155
330
A
100
AcDbEntity
  8
0
  6
Continuous
 62
     3
100
AcDbLine
 10
211.1023684951
 20
95.27102043139999
 30
0.0
 11
205.1023712369
 21
95.27102043139999
 31
0.0
  0
LINE
  5
154
330
A
100
AcDbEntity
  8
0
  6
Continuous
 62
     3
100
AcDbLine
 10
259.1023726376
 20
95.27102043139999
 30
0.0
 11
214.0023691567
 21
95.27102043139999
 31
0.0
  0
LINE
  5
153
330
A
100
AcDbEntity
  8
0
  6
Continuous
 62
     3
100
AcDbLine
 10
169.2023693571
 20
98.8710203696
 30
0.0
 11
169.2023693571
 21
95.27102043139999
 31
0.0
  0
LINE
  5
152
330
A
100
AcDbEntity
  8
0
  6
Continuous
 62
     3
100
AcDbLine
 10
173.5896765707
 20
98.8710203696
 30
0.0
 11
169.2023693571
 21
98.8710203696
 31
0.0
  0
LINE
  5
151
330
A
100
AcDbEntity
  8
0
  6
Continuous
 62
     3
100
AcDbLine
 10
180.2354643109
 20
98.8710203696
 30
0.0
 11
179.6023698511
 21
98.8710203696
 31
0.0
  0
LINE
  5
150
330
A
100
AcDbEntity
  8
0
  6
Continuous
 62
     3
100
AcDbLine
 10
188.902368954
 20
98.8710203696
 30
0.0
 11
182.9023698332
 21
98.8710203696
 31
0.0
  0
LINE
  5
14F
330
A
100
AcDbEntity
  8
0
  6
Continuous
 62
     3
100
AcDbLine
 10
202.2023705753
 20
98.8710203696
 30
0.0
 11
191.8023696156
 21
98.8710203696
 31
0.0
  0
LINE
  5
14E
330
A
100
AcDbEntity
  8
0
  6
Continuous
 62
     3
100
AcDbLine
 10
211.1023684951
 20
98.8710203696
 30
0.0
 11
205.1023712369
 21
98.8710203696
 31
0.0
  0
LINE
  5
14D
330
A
100
AcDbEntity
  8
0
  6
Continuous
 62
     3
100
AcDbLine
 10
259.1023726376
 20
98.8710203696
 30
0.0
 11
213.7692740174
 21
98.8710203696
 31
0.0
  0
LINE
  5
14C
330
A
100
AcDbEntity
  8
0
  6
Continuous
 62
     3
100
AcDbLine
 10
259.1023726376
 20
95.27102043139999
 30
0.0
 11
259.1023726376
 21
98.8710203696
 31
0.0
  0
LINE
  5
14B
330
A
100
AcDbEntity
  8
0
  6
Continuous
 62
     3
100
AcDbLine
 10
199.9187936994
 20
95.62102041889998
 30
0.0
 11
198.4985826524
 21
95.62102041889998
 31
0.0
  0
LINE
  5
14A
330
A
100
AcDbEntity
  8
0
  6
Continuous
 62
     3
100
AcDbLine
 10
198.4985826524
 20
95.62102041889998
 30
0.0
 11
194.9044411989
 21
95.62102041889998
 31
0.0
  0
LINE
  5
149
330
A
100
AcDbEntity
  8
0
  6
Continuous
 62
     3
100
AcDbLine
 10
198.4985826524
 20
95.62102041889998
 30
0.0
 11
198.4985826524
 21
97.495290453
 31
0.0
  0
LINE
  5
148
330
A
100
AcDbEntity
  8
0
  6
Continuous
 62
     3
100
AcDbLine
 10
198.309963754
 20
98.52102038209999
 30
0.0
 11
199.3380824091
 21
98.52102038209999
 31
0.0
  0
LINE
  5
147
330
A
100
AcDbEntity
  8
0
  6
Continuous
 62
     3
100
AcDbLine
 10
198.4985826524
 20
97.495290453
 30
0.0
 11
198.4985826524
 21
98.221020426
 31
0.0
  0
LINE
  5
146
330
A
100
AcDbEntity
  8
0
  6
Continuous
 62
     3
100
AcDbLine
 10
180.1023690016999
 20
98.52102038209999
 30
0.0
 11
180.1136231037
 21
98.52102038209999
 31
0.0
  0
LINE
  5
145
330
A
100
AcDbEntity
  8
0
  6
Continuous
 62
     3
100
AcDbLine
 10
179.6023698511
 20
94.07102037440001
 30
0.0
 11
174.2166850702999
 21
94.07102037440001
 31
0.0
  0
LINE
  5
144
330
A
100
AcDbEntity
  8
0
  6
Continuous
 62
     3
100
AcDbLine
 10
174.2166850702999
 20
100.0710204266
 30
0.0
 11
179.6023698511
 21
100.0710204266
 31
0.0
  0
LINE
  5
143
330
A
100
AcDbEntity
  8
0
  6
Continuous
 62
     3
100
AcDbLine
 10
179.6023698511
 20
100.0710204266
 30
0.0
 11
179.6023698511
 21
94.07102037440001
 31
0.0
  0
LINE
  5
142
330
A
100
AcDbEntity
  8
0
  6
Continuous
 62
     3
100
AcDbLine
 10
174.2166850702999
 20
100.0710204266
 30
0.0
 11
173.4067990432
 21
98.52102038209999
 31
0.0
  0
LINE
  5
141
330
A
100
AcDbEntity
  8
0
  6
Continuous
 62
     3
100
AcDbLine
 10
169.3023694201
 20
98.52102038209999
 30
0.0
 11
173.4067990432
 21
98.52102038209999
 31
0.0
  0
LINE
  5
140
330
A
100
AcDbEntity
  8
0
  6
Continuous
 62
     3
100
AcDbLine
 10
169.3023694201
 20
95.62102041889998
 30
0.0
 11
169.3023694201
 21
98.52102038209999
 31
0.0
  0
LINE
  5
13F
330
A
100
AcDbEntity
  8
0
  6
Continuous
 62
     3
100
AcDbLine
 10
169.3023694201
 20
95.62102041889998
 30
0.0
 11
173.4067990432
 21
95.62102041889998
 31
0.0
  0
LINE
  5
13E
330
A
100
AcDbEntity
  8
0
  6
Continuous
 62
     3
100
AcDbLine
 10
173.4067990432
 20
95.62102041889998
 30
0.0
 11
174.2166850702999
 21
94.07102037440001
 31
0.0
  0
LINE
  5
13D
330
A
100
AcDbEntity
  8
0
  6
Continuous
 62
     3
100
AcDbLine
 10
198.309963754
 20
98.5210195672
 30
0.0
 11
198.3132736745
 21
98.49381190950001
 31
0.0
  0
LINE
  5
13C
330
A
100
AcDbEntity
  8
0
  6
Continuous
 62
     3
100
AcDbLine
 10
192.1628380182
 20
95.3993402677
 30
0.0
 11
192.6361678155
 21
95.62102041889998
 31
0.0
  0
LINE
  5
13B
330
A
100
AcDbEntity
  8
0
  6
Continuous
 62
     3
100
AcDbLine
 10
198.014134558617
 20
98.771020423
 30
0.0
 11
191.6023699554
 21
98.771020423
 31
0.0
  0
LINE
  5
13A
330
A
100
AcDbEntity
  8
0
  6
Continuous
 62
     3
100
AcDbLine
 10
191.6023699554
 20
98.771020423
 30
0.0
 11
191.6023699554
 21
95.371020378
 31
0.0
  0
LINE
  5
139
330
A
100
AcDbEntity
  8
0
  6
Continuous
 62
     3
100
AcDbLine
 10
191.6023699554
 20
95.371020378
 30
0.0
 11
191.9788347544
 21
95.371020378
 31
0.0
  0
LINE
  5
138
330
A
100
AcDbEntity
  8
0
  6
Continuous
 62
     3
100
AcDbLine
 10
192.1900847914
 20
95.45800497509999
 30
0.0
 11
193.5017427417
 21
96.75873274899998
 31
0.0
  0
LINE
  5
137
330
A
100
AcDbEntity
  8
0
  6
Continuous
 62
     6
100
AcDbLine
 10
189.5023697974
 20
59.47102094289999
 30
0.0
 11
185.5023691418
 21
59.47102094289999
 31
0.0
  0
LINE
  5
136
330
A
100
AcDbEntity
  8
0
  6
Continuous
 62
     6
100
AcDbLine
 10
185.5023691418
 20
63.4710215986
 30
0.0
 11
189.5023697974
 21
63.4710215986
 31
0.0
  0
LINE
  5
135
330
A
100
AcDbEntity
  8
0
  6
Continuous
 62
     6
100
AcDbLine
 10
182.4140205966999
 20
100.6533508211
 30
0.0
 11
182.5435349705
 21
100.6792534631
 31
0.0
  0
LINE
  5
134
330
A
100
AcDbEntity
  8
0
  6
Continuous
 62
     6
100
AcDbLine
 10
189.2023703071
 20
101.1710204206
 30
0.0
 11
191.3023686024
 21
101.1710204206
 31
0.0
  0
LINE
  5
133
330
A
100
AcDbEntity
  8
0
  6
Continuous
 62
     6
100
AcDbLine
 10
211.4612033578
 20
100.6792534631
 30
0.0
 11
211.5907168003
 21
100.6533508211
 31
0.0
  0
LINE
  5
132
330
A
100
AcDbEntity
  8
0
  6
Continuous
 62
     6
100
AcDbLine
 10
202.7023678633
 20
101.1710204206
 30
0.0
 11
204.8023698839
 21
101.1710204206
 31
0.0
  0
LINE
  5
131
330
A
100
AcDbEntity
  8
0
  6
Continuous
 62
     6
100
AcDbLine
 10
182.9023698332
 20
100.3850791626
 30
0.0
 11
182.9023698332
 21
93.9710203115
 31
0.0
  0
LINE
  5
130
330
A
100
AcDbEntity
  8
0
  6
Continuous
 62
     6
100
AcDbLine
 10
188.902368954
 20
93.9710203115
 30
0.0
 11
188.902368954
 21
100.8710204646
 31
0.0
  0
LINE
  5
12F
330
A
100
AcDbEntity
  8
0
  6
Continuous
 62
     6
100
AcDbLine
 10
205.1023712369
 20
100.8710204646
 30
0.0
 11
205.1023712369
 21
93.9710203115
 31
0.0
  0
LINE
  5
12E
330
A
100
AcDbEntity
  8
0
  6
Continuous
 62
     6
100
AcDbLine
 10
202.2023705753
 20
93.178127196
 30
0.0
 11
202.2023705753
 21
100.6710203387
 31
0.0
  0
LINE
  5
12D
330
A
100
AcDbEntity
  8
0
  6
Continuous
 62
     6
100
AcDbLine
 10
191.8023696156
 20
95.371020378
 30
0.0
 11
191.8023696156
 21
95.27102043139999
 31
0.0
  0
LINE
  5
12C
330
A
100
AcDbEntity
  8
0
  6
Continuous
 62
     6
100
AcDbLine
 10
191.8023696156
 20
100.6710203387
 30
0.0
 11
191.8023696156
 21
98.771020423
 31
0.0
  0
LINE
  5
12B
330
A
100
AcDbEntity
  8
0
  6
Continuous
 62
     6
100
AcDbLine
 10
211.1023684951
 20
93.9710203115
 30
0.0
 11
211.1023684951
 21
100.3850791626
 31
0.0
  0
LINE
  5
12A
330
A
100
AcDbEntity
  8
0
  6
Continuous
 62
     6
100
AcDbLine
 10
207.1023678394
 20
91.9710202165
 30
0.0
 11
209.1023681673
 21
91.9710202165
 31
0.0
  0
LINE
  5
129
330
A
100
AcDbEntity
  8
0
  6
Continuous
 62
     6
100
AcDbLine
 10
215.0023711832
 20
90.9710205182
 30
0.0
 11
216.5023704978
 21
90.9710205182
 31
0.0
  0
LINE
  5
128
330
A
100
AcDbEntity
  8
0
  6
Continuous
 62
     6
100
AcDbLine
 10
191.9488163652
 20
92.8245736308
 30
0.0
 11
193.5094764443
 21
91.26391355169999
 31
0.0
  0
LINE
  5
127
330
A
100
AcDbEntity
  8
0
  6
Continuous
 62
     6
100
AcDbLine
 10
177.5023692275
 20
90.9710205182
 30
0.0
 11
179.0023690077
 21
90.9710205182
 31
0.0
  0
LINE
  5
126
330
A
100
AcDbEntity
  8
0
  6
Continuous
 62
     6
100
AcDbLine
 10
194.2165831091
 20
90.9710205182
 30
0.0
 11
199.7881552192
 21
90.9710205182
 31
0.0
  0
LINE
  5
125
330
A
100
AcDbEntity
  8
0
  6
Continuous
 62
     6
100
AcDbLine
 10
180.0023691716
 20
91.9710202165
 30
0.0
 11
180.0023691716
 21
97.7116086892
 31
0.0
  0
LINE
  5
124
330
A
100
AcDbEntity
  8
0
  6
Continuous
 62
     6
100
AcDbLine
 10
200.4952618839
 20
91.26391355169999
 30
0.0
 11
202.0559219631
 21
92.8245736308
 31
0.0
  0
LINE
  5
123
330
A
100
AcDbEntity
  8
0
  6
Continuous
 62
     6
100
AcDbLine
 10
214.0023691567
 20
97.7116086892
 30
0.0
 11
214.0023691567
 21
91.9710202165
 31
0.0
  0
LINE
  5
122
330
A
100
AcDbEntity
  8
0
  6
Continuous
 62
     6
100
AcDbLine
 10
189.5023697974
 20
65.6710215866
 30
0.0
 11
185.5023691418
 21
65.6710215866
 31
0.0
  0
LINE
  5
121
330
A
100
AcDbEntity
  8
0
  6
Continuous
 62
     6
100
AcDbLine
 10
176.5023695292
 20
58.97101992959999
 30
0.0
 11
176.5023695292
 21
89.97102035430001
 31
0.0
  0
LINE
  5
120
330
A
100
AcDbEntity
  8
0
  6
Continuous
 62
     6
100
AcDbLine
 10
185.5023691418
 20
57.27102095479999
 30
0.0
 11
189.5023697974
 21
57.27102095479999
 31
0.0
  0
LINE
  5
11F
330
A
100
AcDbEntity
  8
0
  6
Continuous
 62
     6
100
AcDbLine
 10
212.5023698421
 20
53.9710209727
 30
0.0
 11
181.5023694175
 21
53.9710209727
 31
0.0
  0
LINE
  5
11E
330
A
100
AcDbEntity
  8
0
  6
Continuous
 62
     6
100
AcDbLine
 10
180.1274271669
 20
65.971021077
 30
0.0
 11
179.0023690077
 21
65.971021077
 31
0.0
  0
LINE
  5
11D
330
A
100
AcDbEntity
  8
0
  6
Continuous
 62
     6
100
AcDbLine
 10
178.502369857
 20
65.4710219264
 30
0.0
 11
178.502369857
 21
58.97101992959999
 31
0.0
  0
LINE
  5
11C
330
A
100
AcDbEntity
  8
0
  6
Continuous
 62
     6
100
AcDbLine
 10
193.9621904852
 20
55.9710213005
 30
0.0
 11
202.0425481709
 21
55.9710213005
 31
0.0
  0
LINE
  5
11B
330
A
100
AcDbEntity
  8
0
  6
Continuous
 62
     6
100
AcDbLine
 10
201.1274268838
 20
65.971021077
 30
0.0
 11
194.8773117723
 21
65.971021077
 31
0.0
  0
LINE
  5
11A
330
A
100
AcDbEntity
  8
0
  6
Continuous
 62
     6
100
AcDbLine
 10
215.0023711832
 20
65.971021077
 30
0.0
 11
211.8773108335
 21
65.971021077
 31
0.0
  0
LINE
  5
119
330
A
100
AcDbEntity
  8
0
  6
Continuous
 62
     6
100
AcDbLine
 10
215.5023684712
 20
58.97101992959999
 30
0.0
 11
215.5023684712
 21
65.4710219264
 31
0.0
  0
LINE
  5
118
330
A
100
AcDbEntity
  8
0
  6
Continuous
 62
     6
100
AcDbLine
 10
210.9621895464
 20
55.9710213005
 30
0.0
 11
212.5023698421
 21
55.9710213005
 31
0.0
  0
LINE
  5
117
330
A
100
AcDbEntity
  8
FORMAT
  6
PHANTOM
 62
     1
100
AcDbLine
 10
349.0023693951
 20
134.2861501472
 30
0.0
 11
329.0023693951
 21
134.2861501472
 31
0.0
  0
LINE
  5
116
330
A
100
AcDbEntity
  8
FORMAT
  6
PHANTOM
 62
     1
100
AcDbLine
 10
349.0023693951
 20
191.7275034093
 30
0.0
 11
349.0023693951
 21
134.2861501472
 31
0.0
  0
LINE
  5
115
330
A
100
AcDbEntity
  8
FORMAT
  6
PHANTOM
 62
     1
100
AcDbLine
 10
47.90264206409999
 20
149.2861501472
 30
0.0
 11
329.0023693951
 21
149.2861501472
 31
0.0
  0
LINE
  5
114
330
A
100
AcDbEntity
  8
FORMAT
  6
PHANTOM
 62
     1
100
AcDbLine
 10
329.0023693951
 20
191.7275034093
 30
0.0
 11
329.0023693951
 21
149.2861501472
 31
0.0
  0
LINE
  5
113
330
A
100
AcDbEntity
  8
0
  6
Continuous
 62
     3
100
AcDbLine
 10
80.9023661526
 20
172.4361502798
 30
0.0
 11
80.9023661526
 21
172.3861503647
 31
0.0
  0
LINE
  5
112
330
A
100
AcDbEntity
  8
0
  6
Continuous
 62
     3
100
AcDbLine
 10
80.3023708971
 20
172.4361502798
 30
0.0
 11
80.3023708971
 21
172.3861503647
 31
0.0
  0
LINE
  5
111
330
A
100
AcDbEntity
  8
0
  6
Continuous
 62
     3
100
AcDbLine
 10
160.0023696186
 20
172.3861503647
 30
0.0
 11
160.0023696186
 21
172.4361502798
 31
0.0
  0
LINE
  5
110
330
A
100
AcDbEntity
  8
0
  6
Continuous
 62
     3
100
AcDbLine
 10
79.90237157660001
 20
172.3819538252
 30
0.0
 11
79.90237157660001
 21
172.4361502798
 31
0.0
  0
LINE
  5
10F
330
A
100
AcDbEntity
  8
0
  6
Continuous
 62
     3
100
AcDbLine
 10
80.6023685249
 20
164.8361492203
 30
0.0
 11
79.6023664983
 21
164.8361492203
 31
0.0
  0
LINE
  5
10E
330
A
100
AcDbEntity
  8
0
  6
Continuous
 62
     3
100
AcDbLine
 10
162.702369223
 20
167.1861498849
 30
0.0
 11
160.7023693608
 21
167.1861498849
 31
0.0
  0
LINE
  5
10D
330
A
100
AcDbEntity
  8
0
  6
Continuous
 62
     3
100
AcDbLine
 10
160.7023693608
 20
170.3861500369
 30
0.0
 11
162.702369223
 21
170.3861500369
 31
0.0
  0
LINE
  5
10C
330
A
100
AcDbEntity
  8
0
  6
Continuous
 62
     3
100
AcDbLine
 10
175.4006675432
 20
152.8840619372
 30
0.0
 11
175.4006675432
 21
148.7368173198
 31
0.0
  0
LINE
  5
10B
330
A
100
AcDbEntity
  8
0
  6
Continuous
 62
     3
100
AcDbLine
 10
175.4001134062
 20
148.7370035844
 30
0.0
 11
174.4614697049
 21
147.4685012595
 31
0.0
  0
LINE
  5
10A
330
A
100
AcDbEntity
  8
0
  6
Continuous
 62
     3
100
AcDbLine
 10
177.5023692275
 20
144.4861493306
 30
0.0
 11
177.5023692275
 21
144.4981633918
 31
0.0
  0
LINE
  5
109
330
A
100
AcDbEntity
  8
0
  6
Continuous
 62
     3
100
AcDbLine
 10
160.6523694458
 20
170.8861501189
 30
0.0
 11
160.7023693608
 21
170.8861501189
 31
0.0
  0
LINE
  5
108
330
A
100
AcDbEntity
  8
0
  6
Continuous
 62
     3
100
AcDbLine
 10
80.6023685249
 20
172.4361502798
 30
0.0
 11
80.6023685249
 21
172.3861503647
 31
0.0
  0
LINE
  5
107
330
A
100
AcDbEntity
  8
0
  6
Continuous
 62
     3
100
AcDbLine
 10
149.7023684891
 20
172.4361502798
 30
0.0
 11
149.7023684891
 21
172.3861503647
 31
0.0
  0
LINE
  5
106
330
A
100
AcDbEntity
  8
0
  6
Continuous
 62
     3
100
AcDbLine
 10
87.60236780959999
 20
172.3861503647
 30
0.0
 11
87.60236780959999
 21
172.4361502798
 31
0.0
  0
LINE
  5
105
330
A
100
AcDbEntity
  8
0
  6
Continuous
 62
     3
100
AcDbLine
 10
160.7023693608
 20
171.620316361
 30
0.0
 11
160.6523694458
 21
171.620316361
 31
0.0
  0
LINE
  5
104
330
A
100
AcDbEntity
  8
0
  6
Continuous
 62
     3
100
AcDbLine
 10
159.7023691969
 20
172.3861503647
 30
0.0
 11
159.7023691969
 21
172.4361502798
 31
0.0
  0
LINE
  5
103
330
A
100
AcDbEntity
  8
0
  6
Continuous
 62
     3
100
AcDbLine
 10
79.6023664983
 20
170.8861501189
 30
0.0
 11
79.6523673447
 21
170.8861501189
 31
0.0
  0
LINE
  5
102
330
A
100
AcDbEntity
  8
0
  6
Continuous
 62
     3
100
AcDbLine
 10
162.702369223
 20
169.5361505495
 30
0.0
 11
162.702369223
 21
170.0861505465
 31
0.0
  0
LINE
  5
101
330
A
100
AcDbEntity
  8
0
  6
Continuous
 62
     3
100
AcDbLine
 10
162.702369223
 20
167.4861503066
 30
0.0
 11
162.702369223
 21
168.0361503036
 31
0.0
  0
LINE
  5
100
330
A
100
AcDbEntity
  8
0
  6
Continuous
 62
     3
100
AcDbLine
 10
160.7023693608
 20
168.0361503036
 30
0.0
 11
160.7023693608
 21
167.4861503066
 31
0.0
  0
LINE
  5
FF
330
A
100
AcDbEntity
  8
0
  6
Continuous
 62
     3
100
AcDbLine
 10
160.7023693608
 20
170.0861505465
 30
0.0
 11
160.7023693608
 21
169.5361505495
 31
0.0
  0
LINE
  5
FE
330
A
100
AcDbEntity
  8
0
  6
Continuous
 62
     3
100
AcDbLine
 10
151.7023688169
 20
165.1361505733
 30
0.0
 11
151.7023688169
 21
165.1861495571
 31
0.0
  0
LINE
  5
FD
330
A
100
AcDbEntity
  8
0
  6
Continuous
 62
     3
100
AcDbLine
 10
160.6523694458
 20
165.9519835608
 30
0.0
 11
160.7023693608
 21
165.9519835608
 31
0.0
  0
LINE
  5
FC
330
A
100
AcDbEntity
  8
0
  6
Continuous
 62
     3
100
AcDbLine
 10
79.6523673447
 20
166.686149803
 30
0.0
 11
79.6023664983
 21
166.686149803
 31
0.0
  0
LINE
  5
FB
330
A
100
AcDbEntity
  8
0
  6
Continuous
 62
     3
100
AcDbLine
 10
160.7023693608
 20
166.686149803
 30
0.0
 11
160.6523694458
 21
166.686149803
 31
0.0
  0
LINE
  5
FA
330
A
100
AcDbEntity
  8
0
  6
Continuous
 62
     3
100
AcDbLine
 10
79.6023664983
 20
165.9519835608
 30
0.0
 11
79.6523673447
 21
165.9519835608
 31
0.0
  0
LINE
  5
F9
330
A
100
AcDbEntity
  8
0
  6
Continuous
 62
     3
100
AcDbLine
 10
55.30237238729999
 20
167.286149715
 30
0.0
 11
55.30237238729999
 21
161.2861505942
 31
0.0
  0
LINE
  5
F8
330
A
100
AcDbEntity
  8
0
  6
Continuous
 62
     3
100
AcDbLine
 10
59.3023730429
 20
161.2861505942
 30
0.0
 11
59.3023730429
 21
167.286149715
 31
0.0
  0
LINE
  5
F7
330
A
100
AcDbEntity
  8
0
  6
Continuous
 62
     3
100
AcDbLine
 10
270.7023678335
 20
161.2861505942
 30
0.0
 11
270.7023678335
 21
167.286149715
 31
0.0
  0
LINE
  5
F6
330
A
100
AcDbEntity
  8
0
  6
Continuous
 62
     3
100
AcDbLine
 10
274.7023684891
 20
167.286149715
 30
0.0
 11
274.7023684891
 21
161.2861505942
 31
0.0
  0
LINE
  5
F5
330
A
100
AcDbEntity
  8
0
  6
Continuous
 62
     3
100
AcDbLine
 10
152.7023689809
 20
165.2361504035
 30
0.0
 11
152.7023689809
 21
165.7361504854
 31
0.0
  0
LINE
  5
F4
330
A
100
AcDbEntity
  8
0
  6
Continuous
 62
     3
100
AcDbLine
 10
159.7023691969
 20
165.2361504035
 30
0.0
 11
159.7023691969
 21
165.7361504854
 31
0.0
  0
LINE
  5
F3
330
A
100
AcDbEntity
  8
0
  6
Continuous
 62
     3
100
AcDbLine
 10
152.7023689809
 20
165.7361504854
 30
0.0
 11
159.7023691969
 21
165.7361504854
 31
0.0
  0
LINE
  5
F2
330
A
100
AcDbEntity
  8
0
  6
Continuous
 62
     3
100
AcDbLine
 10
87.60236780959999
 20
166.0361499758
 30
0.0
 11
87.60236780959999
 21
157.7861509518
 31
0.0
  0
LINE
  5
F1
330
A
100
AcDbEntity
  8
0
  6
Continuous
 62
     3
100
AcDbLine
 10
80.6023685249
 20
166.0361499758
 30
0.0
 11
87.60236780959999
 21
166.0361499758
 31
0.0
  0
LINE
  5
F0
330
A
100
AcDbEntity
  8
0
  6
Continuous
 62
     3
100
AcDbLine
 10
80.6023685249
 20
166.0361499758
 30
0.0
 11
80.6023685249
 21
164.8361492203
 31
0.0
  0
LINE
  5
EF
330
A
100
AcDbEntity
  8
0
  6
Continuous
 62
     3
100
AcDbLine
 10
149.7023684891
 20
157.7861509518
 30
0.0
 11
149.7023684891
 21
165.1361505733
 31
0.0
  0
LINE
  5
EE
330
A
100
AcDbEntity
  8
0
  6
Continuous
 62
     3
100
AcDbLine
 10
152.7023689809
 20
165.1361505733
 30
0.0
 11
149.7023684891
 21
165.1361505733
 31
0.0
  0
LINE
  5
ED
330
A
100
AcDbEntity
  8
0
  6
Continuous
 62
     3
100
AcDbLine
 10
159.7023691969
 20
165.1361505733
 30
0.0
 11
160.7023693608
 21
165.1361505733
 31
0.0
  0
LINE
  5
EC
330
A
100
AcDbEntity
  8
0
  6
Continuous
 62
     3
100
AcDbLine
 10
79.6023664983
 20
165.1361505733
 30
0.0
 11
80.6023685249
 21
165.1361505733
 31
0.0
  0
LINE
  5
EB
330
A
100
AcDbEntity
  8
0
  6
Continuous
 62
     3
100
AcDbLine
 10
162.702369223
 20
170.0861505465
 30
0.0
 11
162.702369223
 21
170.3861500369
 31
0.0
  0
LINE
  5
EA
330
A
100
AcDbEntity
  8
0
  6
Continuous
 62
     3
100
AcDbLine
 10
160.7023693608
 20
170.0861505465
 30
0.0
 11
160.7023693608
 21
170.3861500369
 31
0.0
  0
LINE
  5
E9
330
A
100
AcDbEntity
  8
0
  6
Continuous
 62
     3
100
AcDbLine
 10
160.7023693608
 20
170.0861505465
 30
0.0
 11
162.702369223
 21
170.0861505465
 31
0.0
  0
LINE
  5
E8
330
A
100
AcDbEntity
  8
0
  6
Continuous
 62
     3
100
AcDbLine
 10
162.702369223
 20
167.4861503066
 30
0.0
 11
162.702369223
 21
167.1861498849
 31
0.0
  0
LINE
  5
E7
330
A
100
AcDbEntity
  8
0
  6
Continuous
 62
     3
100
AcDbLine
 10
160.7023693608
 20
167.1861498849
 30
0.0
 11
160.7023693608
 21
167.4861503066
 31
0.0
  0
LINE
  5
E6
330
A
100
AcDbEntity
  8
0
  6
Continuous
 62
     3
100
AcDbLine
 10
162.702369223
 20
167.4861503066
 30
0.0
 11
160.7023693608
 21
167.4861503066
 31
0.0
  0
LINE
  5
E5
330
A
100
AcDbEntity
  8
0
  6
Continuous
 62
     3
100
AcDbLine
 10
288.5023711236
 20
160.7861495809
 30
0.0
 11
279.202370158
 21
160.7861495809
 31
0.0
  0
LINE
  5
E4
330
A
100
AcDbEntity
  8
0
  6
Continuous
 62
     3
100
AcDbLine
 10
53.30236833409999
 20
167.286149715
 30
0.0
 11
53.30236833409999
 21
161.2861505942
 31
0.0
  0
LINE
  5
E3
330
A
100
AcDbEntity
  8
0
  6
Continuous
 62
     3
100
AcDbLine
 10
61.30236964539999
 20
161.2861505942
 30
0.0
 11
61.30236964539999
 21
167.286149715
 31
0.0
  0
LINE
  5
E2
330
A
100
AcDbEntity
  8
0
  6
Continuous
 62
     3
100
AcDbLine
 10
276.7023725422
 20
161.2861505942
 30
0.0
 11
276.7023725422
 21
167.286149715
 31
0.0
  0
LINE
  5
E1
330
A
100
AcDbEntity
  8
0
  6
Continuous
 62
     3
100
AcDbLine
 10
268.7023712309
 20
167.286149715
 30
0.0
 11
268.7023712309
 21
161.2861505942
 31
0.0
  0
LINE
  5
E0
330
A
100
AcDbEntity
  8
0
  6
Continuous
 62
     3
100
AcDbLine
 10
41.00237619
 20
161.2861505942
 30
0.0
 11
41.00237619
 21
176.2861502589
 31
0.0
  0
LINE
  5
DF
330
A
100
AcDbEntity
  8
0
  6
Continuous
 62
     3
100
AcDbLine
 10
289.0023721369
 20
176.2861502589
 30
0.0
 11
289.0023721369
 21
161.2861505942
 31
0.0
  0
LINE
  5
DE
330
A
100
AcDbEntity
  8
0
  6
Continuous
 62
     3
100
AcDbLine
 10
284.0023694547
 20
181.2861501472
 30
0.0
 11
46.0023714217
 21
181.2861501472
 31
0.0
  0
LINE
  5
DD
330
A
100
AcDbEntity
  8
0
  6
Continuous
 62
     3
100
AcDbLine
 10
55.80236595
 20
155.786150624
 30
0.0
 11
274.2023674758
 21
155.786150624
 31
0.0
  0
LINE
  5
DC
330
A
100
AcDbEntity
  8
0
  6
Continuous
 62
     3
100
AcDbLine
 10
174.5658779504
 20
157.7861509518
 30
0.0
 11
163.202369305
 21
157.7861509518
 31
0.0
  0
LINE
  5
DB
330
A
100
AcDbEntity
  8
0
  6
Continuous
 62
     3
100
AcDbLine
 10
162.702369223
 20
158.2861501025
 30
0.0
 11
162.702369223
 21
163.3861507522
 31
0.0
  0
LINE
  5
DA
330
A
100
AcDbEntity
  8
0
  6
Continuous
 62
     3
100
AcDbLine
 10
163.202369305
 20
163.8861499028
 30
0.0
 11
172.3035890131
 21
163.8861499028
 31
0.0
  0
LINE
  5
D9
330
A
100
AcDbEntity
  8
0
  6
Continuous
 62
     3
100
AcDbLine
 10
224.5279384764
 20
173.7861503148
 30
0.0
 11
215.4767980786
 21
173.7861503148
 31
0.0
  0
LINE
  5
D8
330
A
100
AcDbEntity
  8
0
  6
Continuous
 62
     3
100
AcDbLine
 10
215.1900103303
 20
174.6957260416
 30
0.0
 11
219.7155823918
 21
177.8645643731
 31
0.0
  0
LINE
  5
D7
330
A
100
AcDbEntity
  8
0
  6
Continuous
 62
     3
100
AcDbLine
 10
220.2891578885
 20
177.8645643731
 30
0.0
 11
224.8147262248
 21
174.6957260416
 31
0.0
  0
LINE
  5
D6
330
A
100
AcDbEntity
  8
0
  6
Continuous
 62
     3
100
AcDbLine
 10
162.702369223
 20
174.2861499311
 30
0.0
 11
162.702369223
 21
178.7861502031
 31
0.0
  0
LINE
  5
D5
330
A
100
AcDbEntity
  8
0
  6
Continuous
 62
     3
100
AcDbLine
 10
163.202369305
 20
179.2861500522
 30
0.0
 11
179.8269070672
 21
179.2861500522
 31
0.0
  0
LINE
  5
D4
330
A
100
AcDbEntity
  8
0
  6
Continuous
 62
     3
100
AcDbLine
 10
180.1136948155
 20
179.1957260808
 30
0.0
 11
186.5403616788
 21
174.6957260416
 31
0.0
  0
LINE
  5
D3
330
A
100
AcDbEntity
  8
0
  6
Continuous
 62
     3
100
AcDbLine
 10
186.2535720678
 20
173.7861503148
 30
0.0
 11
163.202369305
 21
173.7861503148
 31
0.0
  0
LINE
  5
D2
330
A
100
AcDbEntity
  8
0
  6
Continuous
 62
     3
100
AcDbLine
 10
63.0155114444
 20
170.8861501189
 30
0.0
 11
77.1023688825
 21
170.8861501189
 31
0.0
  0
LINE
  5
D1
330
A
100
AcDbEntity
  8
0
  6
Continuous
 62
     3
100
AcDbLine
 10
77.6023698958
 20
170.3861500369
 30
0.0
 11
77.6023698958
 21
167.1861498849
 31
0.0
  0
LINE
  5
D0
330
A
100
AcDbEntity
  8
0
  6
Continuous
 62
     3
100
AcDbLine
 10
77.1023688825
 20
166.686149803
 30
0.0
 11
63.80159985149999
 21
166.686149803
 31
0.0
  0
LINE
  5
CF
330
A
100
AcDbEntity
  8
0
  6
Continuous
 62
     3
100
AcDbLine
 10
162.702369223
 20
164.9861498968
 30
0.0
 11
162.702369223
 21
167.1861498849
 31
0.0
  0
LINE
  5
CE
330
A
100
AcDbEntity
  8
0
  6
Continuous
 62
     3
100
AcDbLine
 10
160.7023693608
 20
167.1861498849
 30
0.0
 11
160.7023693608
 21
157.7861509518
 31
0.0
  0
LINE
  5
CD
330
A
100
AcDbEntity
  8
0
  6
Continuous
 62
     3
100
AcDbLine
 10
160.7023693608
 20
157.7861509518
 30
0.0
 11
79.6023664983
 21
157.7861509518
 31
0.0
  0
LINE
  5
CC
330
A
100
AcDbEntity
  8
0
  6
Continuous
 62
     3
100
AcDbLine
 10
79.6023664983
 20
157.7861509518
 30
0.0
 11
79.6023664983
 21
172.4361502798
 31
0.0
  0
LINE
  5
CB
330
A
100
AcDbEntity
  8
0
  6
Continuous
 62
     3
100
AcDbLine
 10
79.6023664983
 20
172.4361502798
 30
0.0
 11
160.7023693608
 21
172.4361502798
 31
0.0
  0
LINE
  5
CA
330
A
100
AcDbEntity
  8
0
  6
Continuous
 62
     3
100
AcDbLine
 10
160.7023693608
 20
172.4361502798
 30
0.0
 11
160.7023693608
 21
170.3861500369
 31
0.0
  0
LINE
  5
C9
330
A
100
AcDbEntity
  8
0
  6
Continuous
 62
     3
100
AcDbLine
 10
162.702369223
 20
170.3861500369
 30
0.0
 11
162.702369223
 21
172.586150025
 31
0.0
  0
LINE
  5
C8
330
A
100
AcDbEntity
  8
0
  6
Continuous
 62
     3
100
AcDbLine
 10
162.702369223
 20
172.586150025
 30
0.0
 11
171.7023694176
 21
172.586150025
 31
0.0
  0
LINE
  5
C7
330
A
100
AcDbEntity
  8
0
  6
Continuous
 62
     3
100
AcDbLine
 10
171.7023694176
 20
172.586150025
 30
0.0
 11
175.7023694912
 21
171.6861496912
 31
0.0
  0
LINE
  5
C6
330
A
100
AcDbEntity
  8
0
  6
Continuous
 62
     3
100
AcDbLine
 10
175.7023694912
 20
171.6861496912
 30
0.0
 11
179.9023693415
 21
171.6861496912
 31
0.0
  0
LINE
  5
C5
330
A
100
AcDbEntity
  8
0
  6
Continuous
 62
     3
100
AcDbLine
 10
179.9023693415
 20
165.8861502306
 30
0.0
 11
175.7023694912
 21
165.8861502306
 31
0.0
  0
LINE
  5
C4
330
A
100
AcDbEntity
  8
0
  6
Continuous
 62
     3
100
AcDbLine
 10
175.7023694912
 20
165.8861502306
 30
0.0
 11
171.7023694176
 21
164.9861498968
 31
0.0
  0
LINE
  5
C3
330
A
100
AcDbEntity
  8
0
  6
Continuous
 62
     3
100
AcDbLine
 10
171.7023694176
 20
164.9861498968
 30
0.0
 11
162.702369223
 21
164.9861498968
 31
0.0
  0
LINE
  5
C2
330
A
100
AcDbEntity
  8
0
  6
Continuous
 62
     3
100
AcDbLine
 10
227.8016788872
 20
160.2861504303
 30
0.0
 11
176.7023691895
 21
160.2861504303
 31
0.0
  0
LINE
  5
C1
330
A
100
AcDbEntity
  8
0
  6
Continuous
 62
     3
100
AcDbLine
 10
176.7023691895
 20
163.8861499028
 30
0.0
 11
229.0023697527
 21
163.8861499028
 31
0.0
  0
LINE
  5
C0
330
A
100
AcDbEntity
  8
0
  6
Continuous
 62
     3
100
AcDbLine
 10
229.0023697527
 20
163.8861499028
 30
0.0
 11
239.4689602765
 21
165.3813771205
 31
0.0
  0
LINE
  5
BF
330
A
100
AcDbEntity
  8
0
  6
Continuous
 62
     3
100
AcDbLine
 10
240.0385497125
 20
161.8312238948
 30
0.0
 11
230.6301092716
 21
160.4871596442
 31
0.0
  0
LINE
  5
BE
330
A
100
AcDbEntity
  8
0
  6
Continuous
 62
     3
100
AcDbLine
 10
253.4643767389
 20
174.6957260416
 30
0.0
 11
257.9899488004
 21
177.8645643731
 31
0.0
  0
LINE
  5
BD
330
A
100
AcDbEntity
  8
0
  6
Continuous
 62
     3
100
AcDbLine
 10
258.5635242971
 20
177.8645643731
 30
0.0
 11
263.0890963586
 21
174.6957260416
 31
0.0
  0
LINE
  5
BC
330
A
100
AcDbEntity
  8
0
  6
Continuous
 62
     3
100
AcDbLine
 10
262.8023086103
 20
173.7861503148
 30
0.0
 11
253.7511644872
 21
173.7861503148
 31
0.0
  0
LINE
  5
BB
330
A
100
AcDbEntity
  8
0
  6
Continuous
 62
     3
100
AcDbLine
 10
190.8248050126
 20
171.6957264812
 30
0.0
 11
197.8227293106
 21
166.7957264231
 31
0.0
  0
LINE
  5
BA
330
A
100
AcDbEntity
  8
0
  6
Continuous
 62
     3
100
AcDbLine
 10
197.5359415623
 20
165.8861502306
 30
0.0
 11
184.7397239866
 21
165.8861502306
 31
0.0
  0
LINE
  5
B9
330
A
100
AcDbEntity
  8
0
  6
Continuous
 62
     3
100
AcDbLine
 10
184.6888085814
 20
171.7861504526
 30
0.0
 11
190.5380172642
 21
171.7861504526
 31
0.0
  0
LINE
  5
B8
330
A
100
AcDbEntity
  8
0
  6
Continuous
 62
     3
100
AcDbLine
 10
191.1971254261
 20
173.8765742862
 30
0.0
 11
184.7704585629
 21
178.3765740925
 31
0.0
  0
LINE
  5
B7
330
A
100
AcDbEntity
  8
0
  6
Continuous
 62
     3
100
AcDbLine
 10
185.0572472425
 20
179.2861500522
 30
0.0
 11
216.6731266292
 21
179.2861500522
 31
0.0
  0
LINE
  5
B6
330
A
100
AcDbEntity
  8
0
  6
Continuous
 62
     3
100
AcDbLine
 10
216.9599143775
 20
178.3765740925
 30
0.0
 11
210.5332484456
 21
173.8765742862
 31
0.0
  0
LINE
  5
B5
330
A
100
AcDbEntity
  8
0
  6
Continuous
 62
     3
100
AcDbLine
 10
210.2464606973
 20
173.7861503148
 30
0.0
 11
191.4839131745
 21
173.7861503148
 31
0.0
  0
LINE
  5
B4
330
A
100
AcDbEntity
  8
0
  6
Continuous
 62
     3
100
AcDbLine
 10
77.0279748352
 20
157.7861509518
 30
0.0
 11
64.1023723396
 21
157.7861509518
 31
0.0
  0
LINE
  5
B3
330
A
100
AcDbEntity
  8
0
  6
Continuous
 62
     3
100
AcDbLine
 10
63.6023713263
 20
158.2861501025
 30
0.0
 11
63.6023713263
 21
163.286150922
 31
0.0
  0
LINE
  5
B2
330
A
100
AcDbEntity
  8
0
  6
Continuous
 62
     3
100
AcDbLine
 10
64.1023723396
 20
163.7861500727
 30
0.0
 11
77.0279748352
 21
163.7861500727
 31
0.0
  0
LINE
  5
B1
330
A
100
AcDbEntity
  8
0
  6
Continuous
 62
     3
100
AcDbLine
 10
77.6023698958
 20
163.2117587374
 30
0.0
 11
77.6023698958
 21
158.3605422871
 31
0.0
  0
LINE
  5
B0
330
A
100
AcDbEntity
  8
0
  6
Continuous
 62
     3
100
AcDbLine
 10
61.3261369976
 20
179.2861500522
 30
0.0
 11
160.2023692789
 21
179.2861500522
 31
0.0
  0
LINE
  5
AF
330
A
100
AcDbEntity
  8
0
  6
Continuous
 62
     3
100
AcDbLine
 10
160.7023693608
 20
178.7861502031
 30
0.0
 11
160.7023693608
 21
174.2861499311
 31
0.0
  0
LINE
  5
AE
330
A
100
AcDbEntity
  8
0
  6
Continuous
 62
     3
100
AcDbLine
 10
160.2023692789
 20
173.7861503148
 30
0.0
 11
61.5015981706
 21
173.7861503148
 31
0.0
  0
LINE
  5
AD
330
A
100
AcDbEntity
  8
0
  6
Continuous
 62
     3
100
AcDbLine
 10
195.7683565082
 20
171.7861504526
 30
0.0
 11
205.9620155009
 21
171.7861504526
 31
0.0
  0
LINE
  5
AC
330
A
100
AcDbEntity
  8
0
  6
Continuous
 62
     3
100
AcDbLine
 10
206.2488032492
 20
170.8765742601
 30
0.0
 11
201.1519746842
 21
167.3077359097
 31
0.0
  0
LINE
  5
AB
330
A
100
AcDbEntity
  8
0
  6
Continuous
 62
     3
100
AcDbLine
 10
200.5783973249
 20
167.3077359097
 30
0.0
 11
195.4815687599
 21
170.8765742601
 31
0.0
  0
LINE
  5
AA
330
A
100
AcDbEntity
  8
0
  6
Continuous
 62
     3
100
AcDbLine
 10
234.697310439
 20
166.7200182797
 30
0.0
 11
228.8954092177
 21
165.8911756472
 31
0.0
  0
LINE
  5
A9
330
A
100
AcDbEntity
  8
0
  6
Continuous
 62
     3
100
AcDbLine
 10
228.8246994825
 20
165.8861502306
 30
0.0
 11
204.1944285842
 21
165.8861502306
 31
0.0
  0
LINE
  5
A8
330
A
100
AcDbEntity
  8
0
  6
Continuous
 62
     3
100
AcDbLine
 10
203.9076408359
 20
166.7957264231
 30
0.0
 11
210.9055688592
 21
171.6957264812
 31
0.0
  0
LINE
  5
A7
330
A
100
AcDbEntity
  8
0
  6
Continuous
 62
     3
100
AcDbLine
 10
211.1923566075
 20
171.7861504526
 30
0.0
 11
228.8123836728
 21
171.7861504526
 31
0.0
  0
LINE
  5
A6
330
A
100
AcDbEntity
  8
0
  6
Continuous
 62
     3
100
AcDbLine
 10
229.0991714211
 20
171.6957264812
 30
0.0
 11
234.9133847269
 21
167.6245690556
 31
0.0
  0
LINE
  5
A5
330
A
100
AcDbEntity
  8
0
  6
Continuous
 62
     3
100
AcDbLine
 10
247.1456436428
 20
163.7410070048
 30
0.0
 11
266.5023712429
 21
163.7410070048
 31
0.0
  0
LINE
  5
A4
330
A
100
AcDbEntity
  8
0
  6
Continuous
 62
     3
100
AcDbLine
 10
267.0023722561
 20
163.2410059916
 30
0.0
 11
267.0023722561
 21
158.2861501025
 31
0.0
  0
LINE
  5
A3
330
A
100
AcDbEntity
  8
0
  6
Continuous
 62
     3
100
AcDbLine
 10
266.5023712429
 20
157.7861509518
 30
0.0
 11
232.9007072361
 21
157.7861509518
 31
0.0
  0
LINE
  5
A2
330
A
100
AcDbEntity
  8
0
  6
Continuous
 62
     3
100
AcDbLine
 10
232.8299937757
 20
158.7811256991
 30
0.0
 11
240.3213886531
 21
159.8513233708
 31
0.0
  0
LINE
  5
A1
330
A
100
AcDbEntity
  8
0
  6
Continuous
 62
     3
100
AcDbLine
 10
241.4133084925
 20
173.7861503148
 30
0.0
 11
229.7582795831
 21
173.7861503148
 31
0.0
  0
LINE
  5
A0
330
A
100
AcDbEntity
  8
0
  6
Continuous
 62
     3
100
AcDbLine
 10
229.4714918347
 20
173.8765742862
 30
0.0
 11
223.0448259028
 21
178.3765740925
 31
0.0
  0
LINE
  5
9F
330
A
100
AcDbEntity
  8
0
  6
Continuous
 62
     3
100
AcDbLine
 10
223.3316136511
 20
179.2861500522
 30
0.0
 11
254.9474893125
 21
179.2861500522
 31
0.0
  0
LINE
  5
9E
330
A
100
AcDbEntity
  8
0
  6
Continuous
 62
     3
100
AcDbLine
 10
255.2342770608
 20
178.3765740925
 30
0.0
 11
250.2581236871
 21
174.8922337079
 31
0.0
  0
LINE
  5
9D
330
A
100
AcDbEntity
  8
0
  6
Continuous
 62
     3
100
AcDbLine
 10
238.6769039544
 20
167.4308772431
 30
0.0
 11
233.7559370311
 21
170.8765742601
 31
0.0
  0
LINE
  5
9C
330
A
100
AcDbEntity
  8
0
  6
Continuous
 62
     3
100
AcDbLine
 10
234.0427247795
 20
171.7861504526
 30
0.0
 11
241.1961166175
 21
171.7861504526
 31
0.0
  0
LINE
  5
9B
330
A
100
AcDbEntity
  8
0
  6
Continuous
 62
     3
100
AcDbLine
 10
267.7458582433
 20
173.8765742862
 30
0.0
 11
261.3191885861
 21
178.3765740925
 31
0.0
  0
LINE
  5
9A
330
A
100
AcDbEntity
  8
0
  6
Continuous
 62
     3
100
AcDbLine
 10
261.605983785
 20
179.2861500522
 30
0.0
 11
269.0023688587
 21
179.2861500522
 31
0.0
  0
LINE
  5
99
330
A
100
AcDbEntity
  8
0
  6
Continuous
 62
     3
100
AcDbLine
 10
268.8177136692
 20
173.7861503148
 30
0.0
 11
268.0326459917
 21
173.7861503148
 31
0.0
  0
LINE
  5
98
330
A
100
AcDbEntity
  8
0
  6
Continuous
 62
     3
100
AcDbLine
 10
266.5023712429
 20
165.8861502306
 30
0.0
 11
248.8534806283
 21
165.8861502306
 31
0.0
  0
LINE
  5
97
330
A
100
AcDbEntity
  8
0
  6
Continuous
 62
     3
100
AcDbLine
 10
249.8228831204
 20
171.7861504526
 30
0.0
 11
266.5023712429
 21
171.7861504526
 31
0.0
  0
LINE
  5
96
330
A
100
AcDbEntity
  8
0
  6
Continuous
 62
     3
100
AcDbLine
 10
267.0023722561
 20
171.2861503707
 30
0.0
 11
267.0023722561
 21
166.3861503126
 31
0.0
  0
LINE
  5
95
330
A
100
AcDbEntity
  8
0
  6
Continuous
 62
     3
100
AcDbLine
 10
41.5023697527
 20
160.7861495809
 30
0.0
 11
50.8023707183
 21
160.7861495809
 31
0.0
  0
LINE
  5
94
330
A
100
AcDbEntity
  8
0
  6
Continuous
 62
     3
100
AcDbLine
 10
169.3023694201
 20
148.7377374665
 30
0.0
 11
173.4067990432
 21
145.7006163196
 31
0.0
  0
LINE
  5
93
330
A
100
AcDbEntity
  8
0
  6
Continuous
 62
     3
100
AcDbLine
 10
179.6023698511
 20
151.8361508147
 30
0.0
 11
179.6023698511
 21
155.5361501174
 31
0.0
  0
LINE
  5
92
330
A
100
AcDbEntity
  8
0
  6
Continuous
 62
     3
100
AcDbLine
 10
199.5936447742
 20
163.3349540876
 30
0.0
 11
199.0871096016999
 21
163.8861499028
 31
0.0
  0
LINE
  5
91
330
A
100
AcDbEntity
  8
0
  6
Continuous
 62
     3
100
AcDbLine
 10
179.6023698511
 20
160.2861504303
 30
0.0
 11
179.6023698511
 21
163.8861499028
 31
0.0
  0
LINE
  5
90
330
A
100
AcDbEntity
  8
0
  6
Continuous
 62
     3
100
AcDbLine
 10
176.9431486713
 20
167.786149797
 30
0.0
 11
176.5523694443
 21
167.786149797
 31
0.0
  0
LINE
  5
8F
330
A
100
AcDbEntity
  8
0
  6
Continuous
 62
     3
100
AcDbLine
 10
176.2523694882
 20
167.4861503066
 30
0.0
 11
176.2523694882
 21
165.9361501457
 31
0.0
  0
LINE
  5
8E
330
A
100
AcDbEntity
  8
0
  6
Continuous
 62
     3
100
AcDbLine
 10
176.2523694882
 20
165.9361501457
 30
0.0
 11
176.251118722
 21
165.8861502306
 31
0.0
  0
LINE
  5
8D
330
A
100
AcDbEntity
  8
0
  6
Continuous
 62
     3
100
AcDbLine
 10
169.3023694201
 20
155.786150624
 30
0.0
 11
169.3023694201
 21
148.7377374665
 31
0.0
  0
LINE
  5
8C
330
A
100
AcDbEntity
  8
0
  6
Continuous
 62
     3
100
AcDbLine
 10
170.8023693749
 20
150.115800579
 30
0.0
 11
174.5964448886
 21
147.3083324032
 31
0.0
  0
LINE
  5
8B
330
A
100
AcDbEntity
  8
0
  6
Continuous
 62
     3
100
AcDbLine
 10
170.8023693749
 20
150.115800579
 30
0.0
 11
170.8023693749
 21
155.786150624
 31
0.0
  0
LINE
  5
8A
330
A
100
AcDbEntity
  8
0
  6
Continuous
 62
     3
100
AcDbLine
 10
178.1023696052
 20
155.786150624
 30
0.0
 11
178.1023696052
 21
152.8361509787
 31
0.0
  0
LINE
  5
89
330
A
100
AcDbEntity
  8
0
  6
Continuous
 62
     3
100
AcDbLine
 10
199.9187936994
 20
161.7840579943
 30
0.0
 11
199.4059218081
 21
160.2861504303
 31
0.0
  0
LINE
  5
88
330
A
100
AcDbEntity
  8
0
  6
Continuous
 62
     3
100
AcDbLine
 10
191.6023699554
 20
144.5033080177
 30
0.0
 11
191.6023699554
 21
143.3361484902
 31
0.0
  0
LINE
  5
87
330
A
100
AcDbEntity
  8
0
  6
Continuous
 62
     3
100
AcDbLine
 10
191.6023699554
 20
155.786150624
 30
0.0
 11
191.6023699554
 21
152.4689919548
 31
0.0
  0
LINE
  5
86
330
A
100
AcDbEntity
  8
0
  6
Continuous
 62
     3
100
AcDbLine
 10
193.5017427417
 20
143.3361484902
 30
0.0
 11
191.6023699554
 21
143.3361484902
 31
0.0
  0
LINE
  5
85
330
A
100
AcDbEntity
  8
0
  6
Continuous
 62
     3
100
AcDbLine
 10
177.7523692684
 20
171.454951656
 30
0.0
 11
177.7523692684
 21
171.6861496912
 31
0.0
  0
LINE
  5
84
330
A
100
AcDbEntity
  8
0
  6
Continuous
 62
     3
100
AcDbLine
 10
181.4539816218
 20
166.3361503975
 30
0.0
 11
181.3308300438
 21
166.3361503975
 31
0.0
  0
LINE
  5
83
330
A
100
AcDbEntity
  8
0
  6
Continuous
 62
     3
100
AcDbLine
 10
176.6023693593
 20
152.8361509787
 30
0.0
 11
175.505595001
 21
152.8361509787
 31
0.0
  0
LINE
  5
82
330
A
100
AcDbEntity
  8
0
  6
Continuous
 62
     3
100
AcDbLine
 10
174.2166850702999
 20
145.1013325946
 30
0.0
 11
173.4067990432
 21
145.7006163196
 31
0.0
  0
LINE
  5
81
330
A
100
AcDbEntity
  8
0
  6
Continuous
 62
     3
100
AcDbLine
 10
175.4001134062
 20
148.7370035844
 30
0.0
 11
175.4006675432
 21
148.7368173198
 31
0.0
  0
LINE
  5
80
330
A
100
AcDbEntity
  8
0
  6
Continuous
 62
     3
100
AcDbLine
 10
173.4067990432
 20
145.7006163196
 30
0.0
 11
174.5964448886
 21
147.3083324032
 31
0.0
  0
LINE
  5
7F
330
A
100
AcDbEntity
  8
0
  6
Continuous
 62
     3
100
AcDbLine
 10
175.4006675432
 20
148.7368173198
 30
0.0
 11
176.6023693593
 21
148.3253999846
 31
0.0
  0
LINE
  5
7E
330
A
100
AcDbEntity
  8
0
  6
Continuous
 62
     3
100
AcDbLine
 10
176.3870983372
 20
143.4953115182
 30
0.0
 11
174.2166850702999
 21
145.1013325946
 31
0.0
  0
LINE
  5
7D
330
A
100
AcDbEntity
  8
0
  6
Continuous
 62
     3
100
AcDbLine
 10
179.6023698511
 20
151.8361508147
 30
0.0
 11
179.6023698511
 21
147.5010267691
 31
0.0
  0
LINE
  5
7C
330
A
100
AcDbEntity
  8
0
  6
Continuous
 62
     3
100
AcDbLine
 10
179.6023698511
 20
151.8361508147
 30
0.0
 11
178.6023696872
 21
152.8361509787
 31
0.0
  0
LINE
  5
7B
330
A
100
AcDbEntity
  8
0
  6
Continuous
 62
     3
100
AcDbLine
 10
178.6023696872
 20
152.8361509787
 30
0.0
 11
176.6023693593
 21
152.8361509787
 31
0.0
  0
LINE
  5
7A
330
A
100
AcDbEntity
  8
0
  6
Continuous
 62
     3
100
AcDbLine
 10
176.6023693593
 20
152.8361509787
 30
0.0
 11
176.6023693593
 21
148.3253999846
 31
0.0
  0
LINE
  5
79
330
A
100
AcDbEntity
  8
0
  6
Continuous
 62
     3
100
AcDbLine
 10
174.2166850702999
 20
145.1013325946
 30
0.0
 11
176.6023693593
 21
148.3253999846
 31
0.0
  0
LINE
  5
78
330
A
100
AcDbEntity
  8
0
  6
Continuous
 62
     3
100
AcDbLine
 10
179.5042978587
 20
147.2036144929
 30
0.0
 11
176.8067024635
 21
143.558023055
 31
0.0
  0
LINE
  5
77
330
A
100
AcDbEntity
  8
0
  6
Continuous
 62
     3
100
AcDbLine
 10
164.7023695508
 20
170.436149952
 30
0.0
 11
164.7023695508
 21
167.1361499698
 31
0.0
  0
LINE
  5
76
330
A
100
AcDbEntity
  8
0
  6
Continuous
 62
     3
100
AcDbLine
 10
79.6523673447
 20
172.0861499429999
 30
0.0
 11
79.6523673447
 21
165.4861509101
 31
0.0
  0
LINE
  5
75
330
A
100
AcDbEntity
  8
0
  6
Continuous
 62
     3
100
AcDbLine
 10
160.6523694458
 20
172.3861503647
 30
0.0
 11
160.6523694458
 21
165.1861495571
 31
0.0
  0
LINE
  5
74
330
A
100
AcDbEntity
  8
0
  6
Continuous
 62
     3
100
AcDbLine
 10
165.7023692491
 20
170.3572641359
 30
0.0
 11
165.7023692491
 21
171.9861501129
 31
0.0
  0
LINE
  5
73
330
A
100
AcDbEntity
  8
0
  6
Continuous
 62
     3
100
AcDbLine
 10
166.0023692051
 20
172.2861505346
 30
0.0
 11
170.6497659428
 21
172.2861505346
 31
0.0
  0
LINE
  5
72
330
A
100
AcDbEntity
  8
0
  6
Continuous
 62
     3
100
AcDbLine
 10
165.7023692491
 20
165.5861507402
 30
0.0
 11
165.7023692491
 21
167.2150357859
 31
0.0
  0
LINE
  5
71
330
A
100
AcDbEntity
  8
0
  6
Continuous
 62
     3
100
AcDbLine
 10
170.6497659428
 20
165.2861493872
 30
0.0
 11
166.0023692051
 21
165.2861493872
 31
0.0
  0
LINE
  5
70
330
A
100
AcDbEntity
  8
0
  6
Continuous
 62
     3
100
AcDbLine
 10
170.8528359408
 20
172.2653140546
 30
0.0
 11
174.7034920366999
 21
171.466722642
 31
0.0
  0
LINE
  5
6F
330
A
100
AcDbEntity
  8
0
  6
Continuous
 62
     3
100
AcDbLine
 10
174.7034920366999
 20
166.1055782111
 30
0.0
 11
170.8528359408
 21
165.3069867985
 31
0.0
  0
LINE
  5
6E
330
A
100
AcDbEntity
  8
0
  6
Continuous
 62
     3
100
AcDbLine
 10
175.2769934932
 20
171.1175875039
 30
0.0
 11
175.3195744926
 21
171.0611344548
 31
0.0
  0
LINE
  5
6D
330
A
100
AcDbEntity
  8
0
  6
Continuous
 62
     3
100
AcDbLine
 10
175.3195744926
 20
166.5111654671
 30
0.0
 11
175.2769934932
 21
166.4547124179
 31
0.0
  0
LINE
  5
6C
330
A
100
AcDbEntity
  8
0
  6
Continuous
 62
     3
100
AcDbLine
 10
177.266379072
 20
167.7286322461
 30
0.0
 11
177.2224779228
 21
167.8155618952
 31
0.0
  0
LINE
  5
6B
330
A
100
AcDbEntity
  8
0
  6
Continuous
 62
     3
100
AcDbLine
 10
177.2224779228
 20
169.7567380266
 30
0.0
 11
177.266379072
 21
169.8436676757
 31
0.0
  0
LINE
  5
6A
330
A
100
AcDbEntity
  8
0
  6
Continuous
 62
     3
100
AcDbLine
 10
176.8729362624
 20
169.5861504646
 30
0.0
 11
176.9518258037
 21
169.5861504646
 31
0.0
  0
LINE
  5
69
330
A
100
AcDbEntity
  8
0
  6
Continuous
 62
     3
100
AcDbLine
 10
176.9518258037
 20
167.9861503886
 30
0.0
 11
176.8729362624
 21
167.9861503886
 31
0.0
  0
LINE
  5
68
330
A
100
AcDbEntity
  8
0
  6
Continuous
 62
     3
100
AcDbLine
 10
165.7023692491
 20
167.2150357859
 30
0.0
 11
165.7023692491
 21
170.3572641359
 31
0.0
  0
LINE
  5
67
330
A
100
AcDbEntity
  8
0
  6
Continuous
 62
     6
100
AcDbLine
 10
197.1024090411
 20
152.4861506419
 30
0.0
 11
200.126633233
 21
152.4861506419
 31
0.0
  0
LINE
  5
66
330
A
100
AcDbEntity
  8
0
  6
Continuous
 62
     6
100
AcDbLine
 10
217.2023711713
 20
144.4861493306
 30
0.0
 11
213.7023678037
 21
144.4861493306
 31
0.0
  0
LINE
  5
65
330
A
100
AcDbEntity
  8
0
  6
Continuous
 62
     6
100
AcDbLine
 10
180.3023695933
 20
144.4861493306
 30
0.0
 11
177.5023692275
 21
144.4861493306
 31
0.0
  0
LINE
  5
64
330
A
100
AcDbEntity
  8
0
  6
Continuous
 62
     6
100
AcDbLine
 10
217.5023687991
 20
151.4861504779999
 30
0.0
 11
217.5023687991
 21
144.7861506836
 31
0.0
  0
LINE
  5
63
330
A
100
AcDbEntity
  8
0
  6
Continuous
 62
     6
100
AcDbLine
 10
215.0023711832
 20
152.4861506419
 30
0.0
 11
216.5023704978
 21
152.4861506419
 31
0.0
  0
LINE
  5
62
330
A
100
AcDbEntity
  8
0
  6
Continuous
 62
     6
100
AcDbLine
 10
182.6023694115
 20
152.4861506419
 30
0.0
 11
191.5023701253
 21
152.4861506419
 31
0.0
  0
LINE
  5
61
330
A
100
AcDbEntity
  8
0
  6
Continuous
 62
     6
100
AcDbLine
 10
211.4023698481
 20
144.4861493306
 30
0.0
 11
202.502368203
 21
144.4861493306
 31
0.0
  0
LINE
  5
60
330
A
100
AcDbEntity
  8
0
  6
Continuous
 62
     6
100
AcDbLine
 10
191.5023701253
 20
144.4861493306
 30
0.0
 11
182.6023694115
 21
144.4861493306
 31
0.0
  0
LINE
  5
5F
330
A
100
AcDbEntity
  8
0
  6
Continuous
 62
     6
100
AcDbLine
 10
202.502368203
 20
152.4861506419
 30
0.0
 11
211.4023698481
 21
152.4861506419
 31
0.0
  0
LINE
  5
5E
330
A
100
AcDbEntity
  8
0
  6
Continuous
 62
     6
100
AcDbLine
 10
200.126633233
 20
152.4861506419
 30
0.0
 11
202.2680548938
 21
152.4861506419
 31
0.0
  0
LINE
  5
5D
330
A
100
AcDbEntity
  8
0
  6
Continuous
 62
     6
100
AcDbLine
 10
202.2680548938
 20
144.4861493306
 30
0.0
 11
200.7073948147
 21
144.4861493306
 31
0.0
  0
LINE
  5
5C
330
A
100
AcDbEntity
  8
0
  6
Continuous
 62
     6
100
AcDbLine
 10
191.5023701253
 20
152.4861506419
 30
0.0
 11
191.6023699554
 21
152.4861506419
 31
0.0
  0
LINE
  5
5B
330
A
100
AcDbEntity
  8
0
  6
Continuous
 62
     6
100
AcDbLine
 10
191.6023699554
 20
144.4861493306
 30
0.0
 11
191.5023701253
 21
144.4861493306
 31
0.0
  0
LINE
  5
5A
330
A
100
AcDbEntity
  8
0
  6
Continuous
 62
     6
100
AcDbLine
 10
202.502368203
 20
144.4861493306
 30
0.0
 11
202.2680548938
 21
144.4861493306
 31
0.0
  0
LINE
  5
59
330
A
100
AcDbEntity
  8
0
  6
Continuous
 62
     6
100
AcDbLine
 10
202.2680548938
 20
152.4861506419
 30
0.0
 11
202.502368203
 21
152.4861506419
 31
0.0
  0
LINE
  5
58
330
A
100
AcDbEntity
  8
0
  6
Continuous
 62
     6
100
AcDbLine
 10
213.7023678037
 20
144.4861493306
 30
0.0
 11
211.5318832906
 21
144.4861493306
 31
0.0
  0
LINE
  5
57
330
A
100
AcDbEntity
  8
0
  6
Continuous
 62
     6
100
AcDbLine
 10
182.472855969
 20
144.4861493306
 30
0.0
 11
180.3023695933
 21
144.4861493306
 31
0.0
  0
LINE
  5
56
330
A
100
AcDbEntity
  8
0
  6
Continuous
 62
     6
100
AcDbLine
 10
211.5318832906
 20
152.4861506419
 30
0.0
 11
213.7023678037
 21
152.4861506419
 31
0.0
  0
LINE
  5
55
330
A
100
AcDbEntity
  8
0
  6
Continuous
 62
     6
100
AcDbLine
 10
214.0023691567
 20
152.1861492889
 30
0.0
 11
214.0023691567
 21
144.7861506836
 31
0.0
  0
LINE
  5
54
330
A
100
AcDbEntity
  8
0
  6
Continuous
 62
     6
100
AcDbLine
 10
180.3023695933
 20
152.4861506419
 30
0.0
 11
182.472855969
 21
152.4861506419
 31
0.0
  0
LINE
  5
53
330
A
100
AcDbEntity
  8
0
  6
Continuous
 62
     6
100
AcDbLine
 10
180.0023691716
 20
144.7861506836
 30
0.0
 11
180.0023691716
 21
152.1861492889
 31
0.0
  0
LINE
  5
52
330
A
100
AcDbEntity
  8
0
  6
Continuous
 62
     6
100
AcDbLine
 10
182.6023694115
 20
144.4861493306
 30
0.0
 11
182.472855969
 21
144.4861493306
 31
0.0
  0
LINE
  5
51
330
A
100
AcDbEntity
  8
0
  6
Continuous
 62
     6
100
AcDbLine
 10
211.5318832906
 20
144.4861493306
 30
0.0
 11
211.4023698481
 21
144.4861493306
 31
0.0
  0
LINE
  5
50
330
A
100
AcDbEntity
  8
0
  6
Continuous
 62
     6
100
AcDbLine
 10
182.472855969
 20
152.4861506419
 30
0.0
 11
182.6023694115
 21
152.4861506419
 31
0.0
  0
LINE
  5
4F
330
A
100
AcDbEntity
  8
0
  6
Continuous
 62
     6
100
AcDbLine
 10
211.4023698481
 20
152.4861506419
 30
0.0
 11
211.5318832906
 21
152.4861506419
 31
0.0
  0
LINE
  5
4E
330
A
100
AcDbEntity
  8
0
  6
Continuous
 62
     6
100
AcDbLine
 10
182.9023698332
 20
152.1861492889
 30
0.0
 11
182.9023698332
 21
144.7861506836
 31
0.0
  0
LINE
  5
4D
330
A
100
AcDbEntity
  8
0
  6
Continuous
 62
     6
100
AcDbLine
 10
211.1023684951
 20
144.7861506836
 30
0.0
 11
211.1023684951
 21
152.1861492889
 31
0.0
  0
LINE
  5
4C
330
A
100
AcDbEntity
  8
0
  6
Continuous
 62
     6
100
AcDbLine
 10
191.8023696156
 20
152.1861492889
 30
0.0
 11
191.8023696156
 21
144.7861506836
 31
0.0
  0
LINE
  5
4B
330
A
100
AcDbEntity
  8
0
  6
Continuous
 62
     6
100
AcDbLine
 10
188.902368954
 20
144.7861506836
 30
0.0
 11
188.902368954
 21
152.1861492889
 31
0.0
  0
LINE
  5
4A
330
A
100
AcDbEntity
  8
0
  6
Continuous
 62
     6
100
AcDbLine
 10
205.1023712369
 20
152.1861492889
 30
0.0
 11
205.1023712369
 21
144.7861506836
 31
0.0
  0
LINE
  5
49
330
A
100
AcDbEntity
  8
0
  6
Continuous
 62
     6
100
AcDbLine
 10
202.2023705753
 20
144.7861506836
 30
0.0
 11
202.2023705753
 21
152.1861492889
 31
0.0
  0
LINE
  5
48
330
A
100
AcDbEntity
  8
0
  6
Continuous
 62
     3
100
AcDbLine
 10
195.2748319120999
 20
144.4107271032
 30
0.0
 11
197.8492440643
 21
155.786150624
 31
0.0
  0
LINE
  5
47
330
A
100
AcDbEntity
  8
0
  6
Continuous
 62
     3
100
AcDbLine
 10
160.6523694458
 20
168.0361503036
 30
0.0
 11
164.7023695508
 21
168.0361503036
 31
0.0
  0
LINE
  5
46
330
A
100
AcDbEntity
  8
0
  6
Continuous
 62
     3
100
AcDbLine
 10
164.7023695508
 20
169.5361505495
 30
0.0
 11
160.6523694458
 21
169.5361505495
 31
0.0
  0
LINE
  5
45
330
A
100
AcDbEntity
  8
0
  6
Continuous
 62
     3
100
AcDbLine
 10
164.7523694659
 20
167.0861500548
 30
0.0
 11
165.7023692491
 21
167.0861500548
 31
0.0
  0
LINE
  5
44
330
A
100
AcDbEntity
  8
0
  6
Continuous
 62
     3
100
AcDbLine
 10
165.7023692491
 20
170.486149867
 30
0.0
 11
164.7523694659
 21
170.486149867
 31
0.0
  0
LINE
  5
43
330
A
100
AcDbEntity
  8
0
  6
Continuous
 62
     3
100
AcDbLine
 10
159.7023691969
 20
165.1861495571
 30
0.0
 11
160.6523694458
 21
165.1861495571
 31
0.0
  0
LINE
  5
42
330
A
100
AcDbEntity
  8
0
  6
Continuous
 62
     3
100
AcDbLine
 10
87.60236780959999
 20
165.1861495571
 30
0.0
 11
152.7023689809
 21
165.1861495571
 31
0.0
  0
LINE
  5
41
330
A
100
AcDbEntity
  8
0
  6
Continuous
 62
     3
100
AcDbLine
 10
79.95237242299999
 20
165.1861495571
 30
0.0
 11
80.6023685249
 21
165.1861495571
 31
0.0
  0
LINE
  5
40
330
A
100
AcDbEntity
  8
0
  6
Continuous
 62
     3
100
AcDbLine
 10
160.6523694458
 20
172.3861503647
 30
0.0
 11
79.95237242299999
 21
172.3861503647
 31
0.0
  0
POINT
  5
3F
330
A
100
AcDbEntity
  8
0
 62
     3
100
AcDbPoint
 10
387.921711826431
 20
155.7861501472
 30
0.0
  0
POINT
  5
3E
330
A
100
AcDbEntity
  8
0
 62
     3
100
AcDbPoint
 10
387.921711826431
 20
181.2861501472
 30
0.0
  0
POINT
  5
3D
330
A
100
AcDbEntity
  8
0
 62
     3
100
AcDbPoint
 10
387.921711826431
 20
155.7861501472
 30
0.0
  0
POINT
  5
3C
330
A
100
AcDbEntity
  8
0
 62
     1
100
AcDbPoint
 10
428.4217118264309
 20
132.7351566948
 30
0.0
  0
POINT
  5
3B
330
A
100
AcDbEntity
  8
0
 62
     1
100
AcDbPoint
 10
402.9217118264309
 20
149.4861501472
 30
0.0
  0
POINT
  5
3A
330
A
100
AcDbEntity
  8
0
 62
     1
100
AcDbPoint
 10
428.4217118264309
 20
132.7351566948
 30
0.0
  0
POINT
  5
39
330
A
100
AcDbEntity
  8
0
 62
     1
100
AcDbPoint
 10
387.421711826431
 20
114.1691071137
 30
0.0
  0
POINT
  5
38
330
A
100
AcDbEntity
  8
0
 62
     1
100
AcDbPoint
 10
402.9217118264309
 20
193.0057312573
 30
0.0
  0
POINT
  5
37
330
A
100
AcDbEntity
  8
0
 62
     1
100
AcDbPoint
 10
387.421711826431
 20
193.0057312573
 30
0.0
  0
POINT
  5
36
330
A
100
AcDbEntity
  8
0
 62
     1
100
AcDbPoint
 10
402.9217118264309
 20
193.0057312573
 30
0.0
  0
POINT
  5
35
330
A
100
AcDbEntity
  8
0
 62
     1
100
AcDbPoint
 10
401.4217118264309
 20
193.9448478106
 30
0.0
  0
POINT
  5
34
330
A
100
AcDbEntity
  8
0
 62
     3
100
AcDbPoint
 10
274.5023693951
 20
102.5710204005
 30
0.0
  0
POINT
  5
33
330
A
100
AcDbEntity
  8
0
 62
     6
100
AcDbPoint
 10
176.5023693951
 20
58.9710204005
 30
0.0
  0
POINT
  5
32
330
A
100
AcDbEntity
  8
0
 62
     6
100
AcDbPoint
 10
189.5023693956
 20
59.4710204005
 30
0.0
  0
POINT
  5
31
330
A
100
AcDbEntity
  8
0
 62
     6
100
AcDbPoint
 10
185.5023693956
 20
59.4710204005
 30
0.0
  0
POINT
  5
30
330
A
100
AcDbEntity
  8
0
 62
     6
100
AcDbPoint
 10
187.5023693956
 20
57.2710204005
 30
0.0
  0
POINT
  5
2F
330
A
100
AcDbEntity
  8
0
 62
     3
100
AcDbPoint
 10
289.0023693951
 20
176.2861501472
 30
0.0
  0
POINT
  5
2E
330
A
100
AcDbEntity
  8
0
 62
     3
100
AcDbPoint
 10
41.0023693951
 20
176.2861501472
 30
0.0
  0
POINT
  5
2D
330
A
100
AcDbEntity
  8
0
 62
     3
100
AcDbPoint
 10
289.0023693951
 20
161.2861501472
 30
0.0
  0
POINT
  5
2C
330
A
100
AcDbEntity
  8
0
 62
     6
100
AcDbPoint
 10
217.5023693956
 20
144.7861501472
 30
0.0
  0
POINT
  5
2B
330
A
100
AcDbEntity
  8
0
 62
     3
100
AcDbPoint
 10
274.7023693951
 20
164.2861501472
 30
0.0
  0
POINT
  5
2A
330
A
100
AcDbEntity
  8
0
 62
     1
100
AcDbPoint
 10
329.0023693951
 20
134.2861501472
 30
0.0
  0
POINT
  5
29
330
A
100
AcDbEntity
  8
0
 62
     3
100
AcDbPoint
 10
289.0023693951
 20
161.2861501472
 30
0.0
  0
ENDSEC
  0
SECTION
  2
OBJECTS
  0
DICTIONARY
  5
19
330
0
100
AcDbDictionary
281
     1
  3
ACAD_COLOR
350
2E1
  3
ACAD_GROUP
350
1A
  3
ACAD_LAYOUT
350
2E4
  3
ACAD_MATERIAL
350
2E0
  3
ACAD_MLINESTYLE
350
1B
  3
ACAD_PLOTSETTINGS
350
2E5
  3
ACAD_PLOTSTYLENAME
350
2DE
  3
ACAD_TABLESTYLE
350
2E2
  3
ACDBHEADERROUNDTRIPXREC
350
419
  3
AcDbVariableDictionary
350
412
  3
AcmDictionary
350
3AB
  3
AMG
350
2EA
  3
AMGSNAPSETTINGS
350
401
  3
ASE_INDEX_DICTIONARY
350
409
  3
DWGPROPS
350
418
  3
MAPISURF_MODULE
350
377
  0
DICTIONARY
  5
40C
330
A
100
AcDbDictionary
280
     1
281
     1
  3
ACAD_INDEX
360
40D
  0
DICTIONARY
  5
2E1
102
{ACAD_REACTORS
330
19
102
}
330
19
100
AcDbDictionary
281
     1
  0
DICTIONARY
  5
1A
102
{ACAD_REACTORS
330
19
102
}
330
19
100
AcDbDictionary
281
     1
  0
DICTIONARY
  5
2E4
102
{ACAD_REACTORS
330
19
102
}
330
19
100
AcDbDictionary
281
     1
  3
Model
350
2E6
  3
レイアウト1
350
2E7
  0
DICTIONARY
  5
2E0
102
{ACAD_REACTORS
330
19
102
}
330
19
100
AcDbDictionary
281
     1
  0
DICTIONARY
  5
1B
102
{ACAD_REACTORS
330
19
102
}
330
19
100
AcDbDictionary
281
     1
  3
STANDARD
350
1C
  0
DICTIONARY
  5
2E5
102
{ACAD_REACTORS
330
19
102
}
330
19
100
AcDbDictionary
281
     1
  0
ACDBDICTIONARYWDFLT
  5
2DE
102
{ACAD_REACTORS
330
19
102
}
330
19
100
AcDbDictionary
281
     1
  3
Normal
350
2DF
100
AcDbDictionaryWithDefault
340
2DF
  0
DICTIONARY
  5
2E2
102
{ACAD_REACTORS
330
19
102
}
330
19
100
AcDbDictionary
281
     1
  3
Standard
350
2E3
  0
DICTIONARY
  5
419
102
{ACAD_REACTORS
330
19
102
}
330
19
100
AcDbDictionary
281
     1
  0
DICTIONARY
  5
412
102
{ACAD_REACTORS
330
19
102
}
330
19
100
AcDbDictionary
281
     1
  3
CTABLESTYLE
350
413
  3
DIMASSOC
350
415
  3
INDEXCTL
350
414
  3
PROJECTNAME
350
416
  0
DICTIONARY
  5
3AB
102
{ACAD_REACTORS
330
19
102
}
330
19
100
AcDbDictionary
281
     1
  3
AcmStdDictionary
350
3B7
  3
AMDTSECTSYM_ARROWCOLOR
350
3D6
  0
DICTIONARY
  5
2EA
102
{ACAD_REACTORS
330
19
102
}
330
19
100
AcDbDictionary
281
     1
  3
AcMgSettings
350
2EB
  0
DICTIONARY
  5
401
102
{ACAD_REACTORS
330
19
102
}
330
19
100
AcDbDictionary
281
     1
  3
DIMENSION
350
406
  3
FEA
350
405
  3
HATCH (1)
350
402
  3
HATCH (2)
350
403
  3
SIMPLE WELD
350
407
  3
SYMBOLS
350
404
  0
DICTIONARY
  5
409
102
{ACAD_REACTORS
330
19
102
}
330
19
100
AcDbDictionary
281
     1
  3
ASEBlockHierarchyIndexRecord
350
40B
1001
DCO15
1040
1934878525.355
  0
XRECORD
  5
418
102
{ACAD_REACTORS
330
19
102
}
330
19
100
AcDbXrecord
280
     1
  1
DWGPROPS COOKIE
  2

  3

  4

  6

  7

  8

  9

300
AmdtFileType=84
301
=
302
=
303
=
304
=
305
=
306
=
307
=
308
=
309
=
 40
0.0003725347222222
 41
2305814.417176053
 42
2458197.639228646
  1

 90
        1
  0
DICTIONARY
  5
40D
102
{ACAD_REACTORS
330
40C
102
}
330
40C
100
AcDbDictionary
281
     1
  3
*A1
350
40E
  0
LAYOUT
  5
2E6
102
{ACAD_XDICTIONARY
360
41A
102
}
102
{ACAD_REACTORS
330
2E4
102
}
330
2E4
100
AcDbPlotSettings
  1

  2
Adobe PDF#:3
  4

  6

 40
0.0
 41
0.0
 42
0.0
 43
0.0
 44
0.0
 45
0.0
 46
0.0
 47
0.0
 48
0.0
 49
0.0
140
0.0
141
0.0
142
1.0
143
1.0
 70
  1712
 72
     0
 73
     0
 74
     0
  7

 75
     0
147
1.0
148
0.0
149
0.0
100
AcDbLayout
  1
Model
 70
     1
 71
     0
 10
0.0
 20
0.0
 11
12.0
 21
9.0
 12
0.0
 22
0.0
 32
0.0
 14
0.0
 24
0.0
 34
0.0
 15
0.0
 25
0.0
 35
0.0
146
0.0
 13
0.0
 23
0.0
 33
0.0
 16
1.0
 26
0.0
 36
0.0
 17
0.0
 27
1.0
 37
0.0
 76
     0
330
A
  0
LAYOUT
  5
2E7
102
{ACAD_XDICTIONARY
360
41C
102
}
102
{ACAD_REACTORS
330
2E4
102
}
330
2E4
100
AcDbPlotSettings
  1

  2
Adobe PDF#:3
  4

  6

 40
0.0
 41
0.0
 42
0.0
 43
0.0
 44
0.0
 45
0.0
 46
0.0
 47
0.0
 48
0.0
 49
0.0
140
0.0
141
0.0
142
1.0
143
1.0
 70
   688
 72
     0
 73
     0
 74
     5
  7

 75
    16
147
1.0
148
0.0
149
0.0
100
AcDbLayout
  1
レイアウト1
 70
     0
 71
     1
 10
0.0
 20
0.0
 11
12.0
 21
9.0
 12
0.0
 22
0.0
 32
0.0
 14
1.000000000000000E+20
 24
1.000000000000000E+20
 34
1.000000000000000E+20
 15
-1.000000000000000E+20
 25
-1.000000000000000E+20
 35
-1.000000000000000E+20
146
0.0
 13
0.0
 23
0.0
 33
0.0
 16
1.0
 26
0.0
 36
0.0
 17
0.0
 27
1.0
 37
0.0
 76
     0
330
B
  0
MLINESTYLE
  5
1C
102
{ACAD_REACTORS
330
1B
102
}
330
1B
100
AcDbMlineStyle
  2
STANDARD
 70
     0
  3

 62
     0
 51
90.0
 52
90.0
 71
     2
 49
0.5
 62
   256
  6
BYLAYER
 49
-0.5
 62
   256
  6
BYLAYER
  0
ACDBPLACEHOLDER
  5
2DF
102
{ACAD_REACTORS
330
2DE
102
}
330
2DE
  0
TABLESTYLE
  5
2E3
102
{ACAD_REACTORS
330
2E2
102
}
330
2E2
100
AcDbTableStyle
  3
Standard
 70
     0
 71
     0
 40
1.5
 41
1.5
280
     0
281
     0
  7
STANDARD
140
4.5
170
     2
 62
     0
 63
     7
283
     0
274
    -2
284
     1
 64
     0
275
    -2
285
     1
 65
     0
276
    -2
286
     1
 66
     0
277
    -2
287
     1
 67
     0
278
    -2
288
     1
 68
     0
279
    -2
289
     1
 69
     0
  7
STANDARD
140
6.0
170
     5
 62
     0
 63
     7
283
     0
274
    -2
284
     1
 64
     0
275
    -2
285
     1
 65
     0
276
    -2
286
     1
 66
     0
277
    -2
287
     1
 67
     0
278
    -2
288
     1
 68
     0
279
    -2
289
     1
 69
     0
  7
STANDARD
140
4.5
170
     5
 62
     0
 63
     7
283
     0
274
    -2
284
     1
 64
     0
275
    -2
285
     1
 65
     0
276
    -2
286
     1
 66
     0
277
    -2
287
     1
 67
     0
278
    -2
288
     1
 68
     0
279
    -2
289
     1
 69
     0
  0
DICTIONARYVAR
  5
413
102
{ACAD_REACTORS
330
412
102
}
330
412
100
DictionaryVariables
280
     0
  1
STANDARD
  0
DICTIONARYVAR
  5
415
102
{ACAD_REACTORS
330
412
102
}
330
412
100
DictionaryVariables
280
     0
  1
1
  0
DICTIONARYVAR
  5
414
102
{ACAD_REACTORS
330
412
102
}
330
412
100
DictionaryVariables
280
     0
  1
1
  0
DICTIONARYVAR
  5
416
102
{ACAD_REACTORS
330
412
102
}
330
412
100
DictionaryVariables
280
     0
  1

  0
DICTIONARY
  5
3B7
102
{ACAD_REACTORS
330
3AB
102
}
330
3AB
100
AcDbDictionary
281
     1
  0
XRECORD
  5
3D6
102
{ACAD_REACTORS
330
3AB
102
}
330
3AB
100
AcDbXrecord
280
     1
 90
-1023410169
  0
DICTIONARY
  5
2EB
102
{ACAD_REACTORS
330
2EA
102
}
330
2EA
100
AcDbDictionary
281
     1
  3
DWGSETTINGS
350
2EC
  3
TRANSSETTINGS
350
2F0
  0
ACAMGFILTERDAT
  5
406
102
{ACAD_REACTORS
330
401
102
}
330
401
100
AcAmgFilterDat
 70
    15
  1
DIMENSION,AMDT_*_DIM
  2
*
  3
*
  4
*
  5
*
290
     1
  0
ACAMGFILTERDAT
  5
405
102
{ACAD_REACTORS
330
401
102
}
330
401
100
AcAmgFilterDat
 70
    15
  1
*
  2
AM_FEA-AM_*
  3
*
  4
*
  5
*
290
     1
  0
ACAMGFILTERDAT
  5
402
102
{ACAD_REACTORS
330
401
102
}
330
401
100
AcAmgFilterDat
 70
    15
  1
HATCH
  2
*
  3
*
  4
*
  5
*
290
     1
  0
ACAMGFILTERDAT
  5
403
102
{ACAD_REACTORS
330
401
102
}
330
401
100
AcAmgFilterDat
 70
    15
  1
LINE
  2
8,8N,*-8,*-8N,AM_8,AM_8N,*-AM_8,*-AM_8N
  3
*
  4
*
  5
INSERT,STDPART2D
290
     1
  0
ACAMGFILTERDAT
  5
407
102
{ACAD_REACTORS
330
401
102
}
330
401
100
AcAmgFilterDat
 70
    15
  1
ARC
  2
AM_5
  3
*
  4
2
  5
INSERT
290
     0
  0
ACAMGFILTERDAT
  5
404
102
{ACAD_REACTORS
330
401
102
}
330
401
100
AcAmgFilterDat
 70
    15
  1
ACMFCFRAME,ACMDATUMTARGET,ACMDATUMID,ACMWELDSYM,ACMSURFSYM,ACMFEATID,ACMPARTREF,ACMBALLOON,AMDTEDGESYM,AMGSCREWCALCTABLE
  2
*
  3
*
  4
*
  5
*
290
     1
  0
XRECORD
  5
40B
102
{ACAD_REACTORS
330
409
102
}
330
409
100
AcDbXrecord
280
     1
  0
LAYER_INDEX
  5
40E
102
{ACAD_REACTORS
330
40D
102
}
330
40D
100
AcDbIndex
 40
2458197.639228646
100
AcDbLayerIndex
  8
0
360
40F
 90
      656
  8
FORMAT
360
410
 90
       15
  8
1
360
411
 90
       18
  0
DICTIONARY
  5
41A
330
2E6
100
AcDbDictionary
280
     1
281
     1
  3
ACAD_XREC_ROUNDTRIP
360
41B
  0
DICTIONARY
  5
41C
330
2E7
100
AcDbDictionary
280
     1
281
     1
  3
ACAD_XREC_ROUNDTRIP
360
41D
  0
IDBUFFER
  5
40F
330
0
100
AcDbIdBuffer
330
C8
330
C7
330
C6
330
C5
330
C4
330
C3
330
C2
330
C1
330
C0
330
BF
330
BE
330
BD
330
BC
330
BB
330
BA
330
B9
330
B8
330
B7
330
B6
330
B5
330
B4
330
B3
330
B2
330
B1
330
B0
330
AF
330
AE
330
AD
330
AC
330
AB
330
AA
330
A9
330
A8
330
A7
330
A6
330
A5
330
A4
330
A3
330
A2
330
A1
330
A0
330
9F
330
9E
330
9D
330
9C
330
9B
330
9A
330
99
330
98
330
97
330
96
330
95
330
94
330
93
330
92
330
91
330
90
330
8F
330
8E
330
8D
330
8C
330
8B
330
8A
330
89
330
88
330
87
330
86
330
85
330
84
330
83
330
82
330
81
330
80
330
7F
330
7E
330
7D
330
7C
330
7B
330
7A
330
79
330
78
330
77
330
76
330
75
330
74
330
73
330
72
330
71
330
70
330
6F
330
6E
330
6D
330
6C
330
6B
330
6A
330
69
330
68
330
67
330
66
330
65
330
64
330
63
330
62
330
61
330
60
330
5F
330
5E
330
5D
330
5C
330
5B
330
5A
330
59
330
58
330
57
330
56
330
55
330
54
330
53
330
52
330
51
330
50
330
4F
330
4E
330
4D
330
4C
330
4B
330
4A
330
49
330
48
330
47
330
46
330
45
330
44
330
43
330
42
330
41
330
40
330
3F
330
3E
330
3D
330
3C
330
3B
330
3A
330
39
330
38
330
37
330
36
330
35
330
34
330
33
330
32
330
31
330
30
330
2F
330
2E
330
2D
330
2C
330
2B
330
2A
330
29
330
2D8
330
2D7
330
2D6
330
2D5
330
2D4
330
2D3
330
2D2
330
2D1
330
2D0
330
2CF
330
2CE
330
2CD
330
2CC
330
2CB
330
2CA
330
2C9
330
2C8
330
2C7
330
2C6
330
2C5
330
2C4
330
2C3
330
2C2
330
2C1
330
2C0
330
2BF
330
2BE
330
2BD
330
2BC
330
2BB
330
2BA
330
2B9
330
2B8
330
2B7
330
2B6
330
2B5
330
2B4
330
2B3
330
2B2
330
2B1
330
2B0
330
2AF
330
2AE
330
2AD
330
2AC
330
2AB
330
2AA
330
2A9
330
2A8
330
2A7
330
2A6
330
2A5
330
2A4
330
2A3
330
2A2
330
2A1
330
2A0
330
29F
330
29E
330
29D
330
29C
330
29B
330
29A
330
299
330
298
330
297
330
296
330
295
330
294
330
293
330
292
330
291
330
290
330
28F
330
28E
330
28D
330
28C
330
28B
330
28A
330
289
330
288
330
287
330
286
330
285
330
284
330
283
330
282
330
281
330
280
330
27F
330
27E
330
27D
330
27C
330
27B
330
27A
330
279
330
278
330
277
330
276
330
275
330
274
330
273
330
272
330
271
330
270
330
26F
330
26E
330
26D
330
26C
330
26B
330
26A
330
269
330
268
330
267
330
266
330
265
330
264
330
263
330
262
330
261
330
260
330
25F
330
25E
330
25D
330
25C
330
25B
330
25A
330
259
330
258
330
257
330
256
330
255
330
254
330
253
330
252
330
251
330
250
330
24F
330
24E
330
24D
330
24C
330
24B
330
24A
330
249
330
248
330
247
330
246
330
245
330
244
330
243
330
242
330
241
330
240
330
23F
330
23E
330
23D
330
23C
330
23B
330
23A
330
239
330
238
330
237
330
236
330
235
330
234
330
233
330
232
330
231
330
230
330
22F
330
22E
330
22D
330
22C
330
22B
330
22A
330
229
330
228
330
227
330
226
330
225
330
224
330
223
330
222
330
221
330
220
330
21F
330
21E
330
21D
330
21C
330
21B
330
21A
330
219
330
218
330
217
330
216
330
215
330
214
330
213
330
212
330
211
330
210
330
20F
330
20E
330
20D
330
20C
330
20B
330
20A
330
209
330
208
330
207
330
206
330
205
330
204
330
203
330
202
330
201
330
200
330
1FF
330
1FE
330
1FD
330
1FC
330
1FB
330
1FA
330
1F9
330
1F8
330
1F7
330
1F6
330
1F5
330
1F4
330
1F3
330
1F2
330
1F1
330
1F0
330
1EF
330
1EE
330
1ED
330
1EC
330
1EB
330
1EA
330
1E9
330
1E8
330
1E7
330
1E6
330
1E5
330
1E4
330
1E3
330
1E2
330
1E1
330
1E0
330
1DF
330
1DE
330
1DD
330
1DC
330
1DB
330
1DA
330
1D9
330
1D8
330
1D7
330
1D6
330
1D5
330
1D4
330
1D3
330
1D2
330
1D1
330
1D0
330
1CF
330
1CE
330
1CD
330
1CC
330
1C7
330
1C6
330
1C5
330
1B6
330
1B5
330
1B4
330
1B3
330
1B2
330
1B1
330
1B0
330
1AF
330
1AE
330
1AD
330
1AC
330
1AB
330
1AA
330
1A9
330
1A8
330
1A7
330
1A6
330
1A5
330
1A4
330
1A3
330
1A2
330
197
330
196
330
195
330
194
330
193
330
192
330
191
330
190
330
18F
330
18E
330
18D
330
18C
330
18B
330
18A
330
189
330
188
330
187
330
186
330
185
330
184
330
183
330
182
330
181
330
180
330
17F
330
17E
330
17D
330
17C
330
17B
330
17A
330
179
330
178
330
177
330
176
330
175
330
174
330
173
330
172
330
171
330
170
330
16F
330
16E
330
16D
330
16C
330
16B
330
16A
330
169
330
168
330
167
330
166
330
165
330
164
330
163
330
162
330
161
330
160
330
15F
330
15E
330
15D
330
15C
330
15B
330
15A
330
159
330
158
330
157
330
156
330
155
330
154
330
153
330
152
330
151
330
150
330
14F
330
14E
330
14D
330
14C
330
14B
330
14A
330
149
330
148
330
147
330
146
330
145
330
144
330
143
330
142
330
141
330
140
330
13F
330
13E
330
13D
330
13C
330
13B
330
13A
330
139
330
138
330
137
330
136
330
135
330
134
330
133
330
132
330
131
330
130
330
12F
330
12E
330
12D
330
12C
330
12B
330
12A
330
129
330
128
330
127
330
126
330
125
330
124
330
123
330
122
330
121
330
120
330
11F
330
11E
330
11D
330
11C
330
11B
330
11A
330
119
330
118
330
113
330
112
330
111
330
110
330
10F
330
10E
330
10D
330
10C
330
10B
330
10A
330
109
330
108
330
107
330
106
330
105
330
104
330
103
330
102
330
101
330
100
330
FF
330
FE
330
FD
330
FC
330
FB
330
FA
330
F9
330
F8
330
F7
330
F6
330
F5
330
F4
330
F3
330
F2
330
F1
330
F0
330
EF
330
EE
330
ED
330
EC
330
EB
330
EA
330
E9
330
E8
330
E7
330
E6
330
E5
330
E4
330
E3
330
E2
330
E1
330
E0
330
DF
330
DE
330
DD
330
DC
330
DB
330
DA
330
D9
330
D8
330
D7
330
D6
330
D5
330
D4
330
D3
330
D2
330
D1
330
D0
330
CF
330
CE
330
CD
330
CC
330
CB
330
CA
330
C9
  0
IDBUFFER
  5
410
330
0
100
AcDbIdBuffer
330
1CB
330
1A1
330
1A0
330
19F
330
19E
330
19D
330
19C
330
19B
330
19A
330
199
330
198
330
117
330
116
330
115
330
114
  0
IDBUFFER
  5
411
330
0
100
AcDbIdBuffer
330
1B8
330
1B7
330
2DA
330
1CA
330
1C9
330
1C8
330
1C4
330
1C3
330
1C2
330
1C1
330
1C0
330
1BF
330
1BE
330
1BD
330
1BC
330
1BB
330
1BA
330
1B9
  0
XRECORD
  5
41B
102
{ACAD_REACTORS
330
41A
102
}
330
41A
100
AcDbXrecord
280
     1
102
SHADEPLOT
 70
     0
102
SHADEPLOTRESLEVEL
 70
     2
102
SHADEPLOTCUSTOMDPI
 70
   300
  0
XRECORD
  5
41D
102
{ACAD_REACTORS
330
41C
102
}
330
41C
100
AcDbXrecord
280
     1
102
SHADEPLOT
 70
     0
102
SHADEPLOTRESLEVEL
 70
     2
102
SHADEPLOTCUSTOMDPI
 70
   300
  0
ENDSEC
  0
EOF
