  0
SECTION
  2
HEADER
  9
$ACADVER
  1
AC1015
  9
$ACADMAINTVER
 70
    20
  9
$DWGCODEPAGE
  3
ANSI_932
  9
$INSBASE
 10
0.0
 20
0.0
 30
0.0
  9
$EXTMIN
 10
-13.828190558616
 20
4004.048469960826
 30
0.0
  9
$EXTMAX
 10
170.991822436834
 20
4152.156648015261
 30
0.0
  9
$LIMMIN
 10
0.0
 20
0.0
  9
$LIMMAX
 10
0.0
 20
0.0
  9
$ORTHOMODE
 70
     0
  9
$REGENMODE
 70
     1
  9
$FILLMODE
 70
     1
  9
$QTEXTMODE
 70
     0
  9
$MIRRTEXT
 70
     1
  9
$LTSCALE
 40
1.0
  9
$ATTMODE
 70
     1
  9
$TEXTSIZE
 40
0.0
  9
$TRACEWID
 40
0.05
  9
$TEXTSTYLE
  7
STANDARD
  9
$CLAYER
  8
0
  9
$CELTYPE
  6
CONTINUOUS
  9
$CECOLOR
 62
   256
  9
$CELTSCALE
 40
1.0
  9
$DISPSILH
 70
     0
  9
$DIMSCALE
 40
1.0
  9
$DIMASZ
 40
0.18
  9
$DIMEXO
 40
0.0625
  9
$DIMDLI
 40
0.38
  9
$DIMRND
 40
0.0
  9
$DIMDLE
 40
0.0
  9
$DIMEXE
 40
0.18
  9
$DIMTP
 40
0.0
  9
$DIMTM
 40
0.0
  9
$DIMTXT
 40
0.18
  9
$DIMCEN
 40
0.09
  9
$DIMTSZ
 40
0.0
  9
$DIMTOL
 70
     0
  9
$DIMLIM
 70
     0
  9
$DIMTIH
 70
     1
  9
$DIMTOH
 70
     1
  9
$DIMSE1
 70
     0
  9
$DIMSE2
 70
     0
  9
$DIMTAD
 70
     0
  9
$DIMZIN
 70
     0
  9
$DIMBLK
  1

  9
$DIMASO
 70
     1
  9
$DIMSHO
 70
     1
  9
$DIMPOST
  1

  9
$DIMAPOST
  1

  9
$DIMALT
 70
     0
  9
$DIMALTD
 70
     2
  9
$DIMALTF
 40
25.4
  9
$DIMLFAC
 40
1.0
  9
$DIMTOFL
 70
     0
  9
$DIMTVP
 40
0.0
  9
$DIMTIX
 70
     0
  9
$DIMSOXD
 70
     0
  9
$DIMSAH
 70
     0
  9
$DIMBLK1
  1

  9
$DIMBLK2
  1

  9
$DIMSTYLE
  2
STANDARD
  9
$DIMCLRD
 70
     0
  9
$DIMCLRE
 70
     0
  9
$DIMCLRT
 70
     0
  9
$DIMTFAC
 40
1.0
  9
$DIMGAP
 40
0.09
  9
$DIMJUST
 70
     0
  9
$DIMSD1
 70
     0
  9
$DIMSD2
 70
     0
  9
$DIMTOLJ
 70
     1
  9
$DIMTZIN
 70
     0
  9
$DIMALTZ
 70
     0
  9
$DIMALTTZ
 70
     0
  9
$DIMUPT
 70
     0
  9
$DIMDEC
 70
     4
  9
$DIMTDEC
 70
     4
  9
$DIMALTU
 70
     2
  9
$DIMALTTD
 70
     2
  9
$DIMTXSTY
  7
STANDARD
  9
$DIMAUNIT
 70
     0
  9
$DIMADEC
 70
     0
  9
$DIMALTRND
 40
0.0
  9
$DIMAZIN
 70
     0
  9
$DIMDSEP
 70
    46
  9
$DIMATFIT
 70
     3
  9
$DIMFRAC
 70
     0
  9
$DIMLDRBLK
  1

  9
$DIMLUNIT
 70
     2
  9
$DIMLWD
 70
    -2
  9
$DIMLWE
 70
    -2
  9
$DIMTMOVE
 70
     0
  9
$LUNITS
 70
     2
  9
$LUPREC
 70
     2
  9
$SKETCHINC
 40
0.1
  9
$FILLETRAD
 40
0.0
  9
$AUNITS
 70
     0
  9
$AUPREC
 70
     0
  9
$MENU
  1
acad
  9
$ELEVATION
 40
0.0
  9
$PELEVATION
 40
0.0
  9
$THICKNESS
 40
0.0
  9
$LIMCHECK
 70
     0
  9
$CHAMFERA
 40
0.0
  9
$CHAMFERB
 40
0.0
  9
$CHAMFERC
 40
0.0
  9
$CHAMFERD
 40
0.0
  9
$SKPOLY
 70
     0
  9
$TDCREATE
 40
2305814.417176053
  9
$TDUCREATE
 40
6.0000000000
  9
$TDUPDATE
 40
2458232.409334606
  9
$TDUUPDATE
 40
2458232.034334606
  9
$TDINDWG
 40
0.0003063542
  9
$TDUSRTIMER
 40
0.0003061806
  9
$USRTIMER
 70
     1
  9
$ANGBASE
 50
0.0
  9
$ANGDIR
 70
     0
  9
$PDMODE
 70
     0
  9
$PDSIZE
 40
0.0
  9
$PLINEWID
 40
0.0
  9
$SPLFRAME
 70
     0
  9
$SPLINETYPE
 70
     6
  9
$SPLINESEGS
 70
     8
  9
$HANDSEED
  5
3DD
  9
$SURFTAB1
 70
     6
  9
$SURFTAB2
 70
     6
  9
$SURFTYPE
 70
     6
  9
$SURFU
 70
     6
  9
$SURFV
 70
     6
  9
$UCSBASE
  2

  9
$UCSNAME
  2

  9
$UCSORG
 10
0.0
 20
0.0
 30
0.0
  9
$UCSXDIR
 10
1.0
 20
0.0
 30
0.0
  9
$UCSYDIR
 10
0.0
 20
1.0
 30
0.0
  9
$UCSORTHOREF
  2

  9
$UCSORTHOVIEW
 70
     0
  9
$UCSORGTOP
 10
0.0
 20
0.0
 30
0.0
  9
$UCSORGBOTTOM
 10
0.0
 20
0.0
 30
0.0
  9
$UCSORGLEFT
 10
0.0
 20
0.0
 30
0.0
  9
$UCSORGRIGHT
 10
0.0
 20
0.0
 30
0.0
  9
$UCSORGFRONT
 10
0.0
 20
0.0
 30
0.0
  9
$UCSORGBACK
 10
0.0
 20
0.0
 30
0.0
  9
$PUCSBASE
  2

  9
$PUCSNAME
  2

  9
$PUCSORG
 10
0.0
 20
0.0
 30
0.0
  9
$PUCSXDIR
 10
1.0
 20
0.0
 30
0.0
  9
$PUCSYDIR
 10
0.0
 20
1.0
 30
0.0
  9
$PUCSORTHOREF
  2

  9
$PUCSORTHOVIEW
 70
     0
  9
$PUCSORGTOP
 10
0.0
 20
0.0
 30
0.0
  9
$PUCSORGBOTTOM
 10
0.0
 20
0.0
 30
0.0
  9
$PUCSORGLEFT
 10
0.0
 20
0.0
 30
0.0
  9
$PUCSORGRIGHT
 10
0.0
 20
0.0
 30
0.0
  9
$PUCSORGFRONT
 10
0.0
 20
0.0
 30
0.0
  9
$PUCSORGBACK
 10
0.0
 20
0.0
 30
0.0
  9
$USERI1
 70
     0
  9
$USERI2
 70
     0
  9
$USERI3
 70
     0
  9
$USERI4
 70
     0
  9
$USERI5
 70
     0
  9
$USERR1
 40
0.0
  9
$USERR2
 40
0.0
  9
$USERR3
 40
0.0
  9
$USERR4
 40
0.0
  9
$USERR5
 40
0.0
  9
$WORLDVIEW
 70
     1
  9
$SHADEDGE
 70
     3
  9
$SHADEDIF
 70
    70
  9
$TILEMODE
 70
     1
  9
$MAXACTVP
 70
    16
  9
$PINSBASE
 10
0.0
 20
0.0
 30
0.0
  9
$PLIMCHECK
 70
     0
  9
$PEXTMIN
 10
1.000000000000000E+20
 20
1.000000000000000E+20
 30
1.000000000000000E+20
  9
$PEXTMAX
 10
-1.000000000000000E+20
 20
-1.000000000000000E+20
 30
-1.000000000000000E+20
  9
$PLIMMIN
 10
0.0
 20
0.0
  9
$PLIMMAX
 10
12.0
 20
9.0
  9
$UNITMODE
 70
     0
  9
$VISRETAIN
 70
     0
  9
$PLINEGEN
 70
     1
  9
$PSLTSCALE
 70
     0
  9
$TREEDEPTH
 70
  3020
  9
$CMLSTYLE
  2
STANDARD
  9
$CMLJUST
 70
     0
  9
$CMLSCALE
 40
1.0
  9
$PROXYGRAPHICS
 70
     0
  9
$MEASUREMENT
 70
     1
  9
$CELWEIGHT
370
    -1
  9
$ENDCAPS
280
     0
  9
$JOINSTYLE
280
     0
  9
$LWDISPLAY
290
     0
  9
$INSUNITS
 70
     0
  9
$HYPERLINKBASE
  1

  9
$STYLESHEET
  1

  9
$XEDIT
290
     1
  9
$CEPSNTYPE
380
     0
  9
$PSTYLEMODE
290
     1
  9
$FINGERPRINTGUID
  2
{472DF6E0-3CBA-46DB-9EC5-A270A797DDD2}
  9
$VERSIONGUID
  2
{BF0113E4-1B38-405A-A8B4-B623EA3A2629}
  9
$EXTNAMES
290
     1
  9
$PSVPSCALE
 40
0.0
  9
$OLESTARTUP
290
     0
  0
ENDSEC
  0
SECTION
  2
CLASSES
  0
CLASS
  1
IMAGE
  2
AcDbRasterImage
  3
ISM
 90
    32895
280
     0
281
     1
  0
CLASS
  1
DICTIONARYVAR
  2
AcDbDictionaryVar
  3
ObjectDBX Classes
 90
        0
280
     0
281
     0
  0
CLASS
  1
RASTERVARIABLES
  2
AcDbRasterVariables
  3
ISM
 90
    32768
280
     0
281
     0
  0
CLASS
  1
IMAGEDEF
  2
AcDbRasterImageDef
  3
ISM
 90
    32768
280
     0
281
     0
  0
CLASS
  1
IMAGEDEF_REACTOR
  2
AcDbRasterImageDefReactor
  3
ISM
 90
    32769
280
     0
281
     0
  0
CLASS
  1
IDBUFFER
  2
AcDbIdBuffer
  3
ObjectDBX Classes
 90
        0
280
     0
281
     0
  0
CLASS
  1
SPATIAL_FILTER
  2
AcDbSpatialFilter
  3
ObjectDBX Classes
 90
    32768
280
     0
281
     0
  0
CLASS
  1
SORTENTSTABLE
  2
AcDbSortentsTable
  3
ObjectDBX Classes
 90
    32768
280
     0
281
     0
  0
CLASS
  1
LAYER_INDEX
  2
AcDbLayerIndex
  3
ObjectDBX Classes
 90
        0
280
     0
281
     0
  0
CLASS
  1
SPATIAL_INDEX
  2
AcDbSpatialIndex
  3
ObjectDBX Classes
 90
    32768
280
     0
281
     0
  0
CLASS
  1
OBJECT_PTR
  2
CAseDLPNTableRecord
  3
ASE-LPNTableRecord
 90
    32769
280
     0
281
     0
  0
CLASS
  1
LAYOUT
  2
AcDbLayout
  3
ObjectDBX Classes
 90
        0
280
     0
281
     0
  0
CLASS
  1
PLOTSETTINGS
  2
AcDbPlotSettings
  3
ObjectDBX Classes
 90
    32768
280
     0
281
     0
  0
CLASS
  1
ACDBDICTIONARYWDFLT
  2
AcDbDictionaryWithDefault
  3
ObjectDBX Classes
 90
        0
280
     0
281
     0
  0
CLASS
  1
ACDBPLACEHOLDER
  2
AcDbPlaceHolder
  3
ObjectDBX Classes
 90
        0
280
     0
281
     0
  0
CLASS
  1
VBA_PROJECT
  2
AcDbVbaProject
  3
acad
 90
    32768
280
     0
281
     0
  0
CLASS
  1
WIPEOUT
  2
AcDbWipeout
  3
"WipeOut|Product Desc: Object Enabler for WipeOut entity^I^I^I^I^I^I|Company: Autodesk, Inc.^I^I^I^I^I^I|WEB Address: www.autodesk.com"
 90
    32895
280
     0
281
     1
  0
CLASS
  1
WIPEOUTVARIABLES
  2
AcDbWipeoutVariables
  3
"WipeOut|Product Desc:     WipeOut Dbx Application|Company:          Autodesk, Inc.|WEB Address:      www.autodesk.com"
 90
    32768
280
     0
281
     0
  0
CLASS
  1
RTEXT
  2
RText
  3
RText|AutoCAD Express Tool|expresstools@autodesk.com
 90
    32768
280
     0
281
     1
  0
CLASS
  1
ARCALIGNEDTEXT
  2
AcDbArcAlignedText
  3
ATEXT|AutoCAD Express Tool|expresstools@autodesk.com
 90
    32768
280
     0
281
     1
  0
CLASS
  1
TABLESTYLE
  2
AcDbTableStyle
  3
ObjectDBX Classes
 90
     2047
280
     0
281
     0
  0
CLASS
  1
ACME_DOCUMENT
  2
AcMeDbDoc
  3
AcMeServices
 90
        0
280
     0
281
     0
  0
CLASS
  1
ACMESCOPE
  2
AcMeScope
  3
AcMeServices
 90
        0
280
     0
281
     0
  0
CLASS
  1
ACMECOMMANDHISTORY
  2
AcMeCommandHistory
  3
AcMeServices
 90
        0
280
     0
281
     0
  0
CLASS
  1
ACIMSYSVARMAN
  2
AcImSysVarManager
  3
AcMeServices
 90
        0
280
     0
281
     0
  0
CLASS
  1
ACIMREALSYSVAR
  2
AcImRealSysVar
  3
AcMeServices
 90
        0
280
     0
281
     0
  0
CLASS
  1
ACIMINTSYSVAR
  2
AcImIntSysVar
  3
AcMeServices
 90
        0
280
     0
281
     0
  0
CLASS
  1
ACMEDRAWINGMAN
  2
AcMeDrawingMan
  3
AcMeServices
 90
        0
280
     0
281
     0
  0
CLASS
  1
ACMEVIEW
  2
AcMeView
  3
AcMeServices
 90
        0
280
     0
281
     0
  0
CLASS
  1
ACDBENTITYCACHE
  2
AcMeEntityCache
  3
AcMeServices
 90
        0
280
     0
281
     0
  0
CLASS
  1
GSMANAGER
  2
AcMeGSManager
  3
AcMeServices
 90
        0
280
     0
281
     0
  0
CLASS
  1
AMDTINTERNALREACTOR
  2
AmdtInternalReactor
  3
AcMeServices
 90
        0
280
     0
281
     0
  0
CLASS
  1
ACMESTATEMGR
  2
AcMeStateMgr
  3
AcMeServices
 90
        0
280
     0
281
     0
  0
CLASS
  1
ACGREFMASTER
  2
AcGrefMaster
  3
AcAttribServices
 90
        0
280
     0
281
     0
  0
CLASS
  1
AM_DRAWING_MGR
  2
AcDmDwgMgr
  3
AcMechDwgViewMgmt
 90
        0
280
     0
281
     0
  0
CLASS
  1
AM_DWG_DOCUMENT
  2
AcDmDwgDocument
  3
AcMechDwgViewMgmt
 90
        0
280
     0
281
     0
  0
CLASS
  1
AM_DWG_SHEET
  2
AcDmSheet
  3
AcMechDwgViewMgmt
 90
        0
280
     0
281
     0
  0
CLASS
  1
AM_VIEWDIMPARMAP
  2
AcDmViewDimParMap
  3
AcMechDwgViewMgmt
 90
        0
280
     0
281
     0
  0
CLASS
  1
AM_DWGMGR_NAME
  2
AcDmDwgMgrName
  3
AcMechDwgViewMgmt
 90
        0
280
     0
281
     0
  0
CLASS
  1
ACME_DATABASE
  2
AcMeDbDatabase
  3
AcMeServices
 90
        0
280
     0
281
     0
  0
CLASS
  1
ACRFINSADJUSTERMGR
  2
AcRfInsAdjusterMgr
  3
AcMeServices
 90
        0
280
     0
281
     0
  0
CLASS
  1
ACGREFACADMASTER
  2
AcGrefacadMaster
  3
AcGrefServices
 90
        0
280
     0
281
     0
  0
CLASS
  1
AMDTMENUSTATEMGR
  2
AmdtMenuStateMgr
  3
McadcomServices
 90
        0
280
     0
281
     0
  0
CLASS
  1
AMDTMCOMMENUSTATE
  2
AmdtMcomMenuState
  3
McadcomServices
 90
        0
280
     0
281
     0
  0
CLASS
  1
AMIMASTER
  2
AmiMaster
  3
AmiServices
 90
        0
280
     0
281
     0
  0
CLASS
  1
AMGSETTINGSOBJ
  2
AmgSettingsObj
  3
"AcadM|Product Description: AutoCAD Mechanical 2000|Company: Autodesk"
 90
        0
280
     0
281
     0
  0
CLASS
  1
ASAPP
  2
AcAsAppObject
  3
AutoSurfServices
 90
        0
280
     0
281
     0
  0
CLASS
  1
IM_STATIC_MAN
  2
AcImStaticVarManager
  3
AcMeServices
 90
        0
280
     0
281
     0
  0
CLASS
  1
ACIMSTRSYSVAR
  2
AcImStrSysVar
  3
AcMeServices
 90
        0
280
     0
281
     0
  0
CLASS
  1
ACIMDBLSTATICVAR
  2
AcImDblStaticVar
  3
AcMeServices
 90
        0
280
     0
281
     0
  0
CLASS
  1
ACIMSTRSTATICVAR
  2
AcImStrStaticVar
  3
AcMeServices
 90
        0
280
     0
281
     0
  0
CLASS
  1
ACIMINTSTATICVAR
  2
AcImIntStaticVar
  3
AcMeServices
 90
        0
280
     0
281
     0
  0
CLASS
  1
ACASGREFMASTER
  2
AcAsGrefMaster
  3
AutoSurfResolverServices
 90
        0
280
     0
281
     0
  0
CLASS
  1
ACADGREFMODULE
  2
AcAdGrefModule
  3
AdGrefServices
 90
        0
280
     0
281
     0
  0
CLASS
  1
AMDTMAPISURFMOUDULE
  2
AmdtMApiSurfModule
  3
MApiSurfServices
 90
        0
280
     0
281
     0
  0
CLASS
  1
MAPIAMMOUDLE
  2
MApiAmModule
  3
MApiAmServices
 90
        0
280
     0
281
     0
  0
CLASS
  1
AMDTADMENUSTATE
  2
AmdtAdMenuState
  3
DesignerServices
 90
        0
280
     0
281
     0
  0
CLASS
  1
ADAPPL
  2
AcAdAppl
  3
DesignerServices
 90
        0
280
     0
281
     0
  0
CLASS
  1
DEPMGR
  2
AcAdDepMgr
  3
DesignerServices
 90
        0
280
     0
281
     0
  0
CLASS
  1
PARAMMGR
  2
AcAdParamMgr
  3
DesignerServices
 90
        0
280
     0
281
     0
  0
CLASS
  1
PARAMSCOPE
  2
AcAdParamScope
  3
DesignerServices
 90
        0
280
     0
281
     0
  0
CLASS
  1
NAMEDAPPL
  2
AcAdNamedAppl
  3
DesignerServices
 90
        0
280
     0
281
     0
  0
CLASS
  1
AMDTDMMENUSTATE
  2
AmdtDmMenuState
  3
AcMechDwgViewMgmt
 90
        0
280
     0
281
     0
  0
CLASS
  1
MAPIADMODULE
  2
MApiAdModule
  3
MApiAdServices
 90
        0
280
     0
281
     0
  0
CLASS
  1
AMDTAMMENUSTATE
  2
AmdtAmMenuState
  3
DesignerAssemblies
 90
        0
280
     0
281
     0
  0
CLASS
  1
ACAMPROJECT
  2
AcAmProject
  3
DesignerAssemblies
 90
        0
280
     0
281
     0
  0
CLASS
  1
ACAMGRCOMPDEF
  2
AcAmGrCompDef
  3
DesignerAssemblies
 90
        0
280
     0
281
     0
  0
CLASS
  1
ACCMCONTEXT
  2
AcCmContext
  3
DesignerAssemblies
 90
        0
280
     0
281
     0
  0
CLASS
  1
ACAMCOMPDEF
  2
AcAmCompDef
  3
DesignerAssemblies
 90
        0
280
     0
281
     0
  0
CLASS
  1
ACAMCOMPDEFMGR
  2
AcAmCompDefMgr
  3
DesignerAssemblies
 90
        0
280
     0
281
     0
  0
CLASS
  1
AMCONTEXTMGR
  2
AcAmContextMgr
  3
DesignerAssemblies
 90
        0
280
     0
281
     0
  0
CLASS
  1
ACAMCONTEXTMODELER
  2
AcAmContextModeler
  3
DesignerAssemblies
 90
        0
280
     0
281
     0
  0
CLASS
  1
ACMDATADICTIONARY
  2
AcmDataDictionary
  3
"AcmSymBB|Product Description: AutoCAD Mechanical 2004 DX|Company: Autodesk"
 90
        0
280
     0
281
     0
  0
CLASS
  1
ACMDATAENTRYBLOCK
  2
AcmDataEntryBlock
  3
"AcmSymBB|Product Description: AutoCAD Mechanical 2004 DX|Company: Autodesk"
 90
        0
280
     0
281
     0
  0
CLASS
  1
CATALOGSTATE
  2
AcAmCatalogState
  3
DesignerAssemblies
 90
        0
280
     0
281
     0
  0
CLASS
  1
ACAMGRCOMPDEFSET
  2
AcAmGrCompDefSet
  3
DesignerAssemblies
 90
        0
280
     0
281
     0
  0
CLASS
  1
AMDTBROWSERDBTAB
  2
AmdtBrowserDbTab
  3
McadcomServices
 90
        0
280
     0
281
     0
  0
CLASS
  1
CBROWSERAPPOBJECT
  2
CBrowserAppObject
  3
McadcomServices
 90
        0
280
     0
281
     0
  0
CLASS
  1
DM_PLACEHOLDER
  2
AcDmSelsetPlaceholder
  3
AcMechDwgViewMgmt
 90
        0
280
     0
281
     0
  0
CLASS
  1
ACMSTANDARDISO
  2
AcmStandardISO
  3
"Amdt_StdImp|Product Description: AutoCAD Mechanical 2004 DX|Company: Autodesk"
 90
        0
280
     0
281
     0
  0
CLASS
  1
AMGOBJPROPCFG
  2
AmgObjPropCfg
  3
"AmgLay|Product Description: AutoCAD Mechanical 2000|Company: Autodesk"
 90
        1
280
     0
281
     0
  0
CLASS
  1
AMDTEDGESTANDARDISO13715
  2
AmdtEdgeStdISO13715
  3
"Amdt_StdImp|Product Description: AutoCAD Mechanical 2004 DX|Company: Autodesk"
 90
        0
280
     0
281
     0
  0
CLASS
  1
ACMSURFSTANDARDISO
  2
AcmSurfTextStdISO
  3
"Amdt_StdImp|Product Description: AutoCAD Mechanical 2004 DX|Company: Autodesk"
 90
        0
280
     0
281
     0
  0
CLASS
  1
ACMFCFSTANDARDISO
  2
AcmFCFStdISO
  3
"Amdt_StdImp|Product Description: AutoCAD Mechanical 2004 DX|Company: Autodesk"
 90
        0
280
     0
281
     0
  0
CLASS
  1
ACMWELDSTANDARDISO
  2
AcmWeldingStdISO
  3
"Amdt_StdImp|Product Description: AutoCAD Mechanical 2004 DX|Company: Autodesk"
 90
        0
280
     0
281
     0
  0
CLASS
  1
ACMIDSTANDARDISO
  2
AcmIdStdISO
  3
"Amdt_StdImp|Product Description: AutoCAD Mechanical 2004 DX|Company: Autodesk"
 90
        0
280
     0
281
     0
  0
CLASS
  1
ACMDATUMSTANDARDISO
  2
AcmDatumStdISO
  3
"Amdt_StdImp|Product Description: AutoCAD Mechanical 2004 DX|Company: Autodesk"
 90
        0
280
     0
281
     0
  0
CLASS
  1
ACMBOMSTANDARDISO
  2
AcmBOMStdISO
  3
"Amdt_StdImp|Product Description: AutoCAD Mechanical 2004 DX|Company: Autodesk"
 90
        0
280
     0
281
     0
  0
CLASS
  1
ACMDETAILSTANDARDISO
  2
AmdtDetailSymStdISO
  3
"Amdt_StdImp|Product Description: AutoCAD Mechanical 2004 DX|Company: Autodesk"
 90
        0
280
     0
281
     0
  0
CLASS
  1
ACMSECTIONSTANDARDISO
  2
AmdtSectionSymStdISO
  3
"Amdt_StdImp|Product Description: AutoCAD Mechanical 2004 DX|Company: Autodesk"
 90
        0
280
     0
281
     0
  0
CLASS
  1
ACMCENTERLINESTANDARDISO
  2
AmdtCenterLineStdISO
  3
"Amdt_StdImp|Product Description: AutoCAD Mechanical 2004 DX|Company: Autodesk"
 90
        0
280
     0
281
     0
  0
CLASS
  1
ACMTHREADLINESTANDARDISO
  2
AmdtThreadLineStdISO
  3
"Amdt_StdImp|Product Description: AutoCAD Mechanical 2004 DX|Company: Autodesk"
 90
        0
280
     0
281
     0
  0
CLASS
  1
ACMNOTESTANDARDISO
  2
AmdtNoteStdISO
  3
"Amdt_StdImp|Product Description: AutoCAD Mechanical 2004 DX|Company: Autodesk"
 90
        0
280
     0
281
     0
  0
CLASS
  1
AMDTNOTETEMPLATEDB
  2
AmdtNoteTemplateDB
  3
AMDT_STDIMP_MODULE_NAME
 90
        0
280
     0
281
     0
  0
CLASS
  1
ACAMGLAYSTD
  2
AcAmgLayStd
  3
"AcAmgLayStd|Product Description: AutoCAD Mechanical 2000|Company: Autodesk"
 90
        0
280
     0
281
     0
  0
CLASS
  1
ACAMGDIMSTD
  2
AcAmgDimStd
  3
"AcAmgDimStd|Product Description: AutoCAD Mechanical 2000|Company: Autodesk"
 90
        0
280
     0
281
     0
  0
CLASS
  1
ACAMGHOLECHARTSTDISO
  2
AcAmgHoleChartStdISO
  3
ACMSYMBB_MODULE_NAME
 90
        0
280
     0
281
     0
  0
CLASS
  1
ACAMGTITLESTD
  2
AcAmgTitleStd
  3
"TITLEAPP"
 90
        0
280
     0
281
     0
  0
CLASS
  1
ACAMGFILTERDAT
  2
AcAmgFilterDat
  3
"AcadM|Product Description: AutoCAD Mechanical 2000|Company: Autodesk"
 90
        0
280
     0
281
     0
  0
ENDSEC
  0
SECTION
  2
TABLES
  0
TABLE
  2
VPORT
  5
7
330
0
100
AcDbSymbolTable
 70
     3
  0
VPORT
  5
3D6
330
7
100
AcDbSymbolTableRecord
100
AcDbViewportTableRecord
  2
*Active
 70
     0
 10
0.0
 20
0.0
 11
1.0
 21
1.0
 12
68.33833585121041
 22
4073.523374988043
 13
0.0
 23
0.0
 14
1.0
 24
1.0
 15
0.0
 25
0.0
 16
0.0
 26
0.0
 36
1.0
 17
10.24348008789857
 27
4.579183999999999
 37
0.0
 40
167.0753807468688
 41
1.113389626055488
 42
50.0
 43
0.0
 44
0.0
 50
0.0
 51
0.0
 71
     0
 72
   100
 73
     1
 74
     1
 75
     0
 76
     0
 77
     0
 78
     0
281
     0
 65
     0
110
0.0
120
0.0
130
0.0
111
1.0
121
0.0
131
0.0
112
0.0
122
1.0
132
0.0
 79
     0
146
0.0
  0
ENDTAB
  0
TABLE
  2
LTYPE
  5
4
330
0
100
AcDbSymbolTable
 70
    23
  0
LTYPE
  5
11
330
4
100
AcDbSymbolTableRecord
100
AcDbLinetypeTableRecord
  2
BYBLOCK
 70
     0
  3

 72
    65
 73
     0
 40
0.0
  0
LTYPE
  5
12
330
4
100
AcDbSymbolTableRecord
100
AcDbLinetypeTableRecord
  2
BYLAYER
 70
     0
  3

 72
    65
 73
     0
 40
0.0
  0
LTYPE
  5
13
330
4
100
AcDbSymbolTableRecord
100
AcDbLinetypeTableRecord
  2
CONTINUOUS
 70
     0
  3
Solid line
 72
    65
 73
     0
 40
0.0
  0
LTYPE
  5
1D
330
4
100
AcDbSymbolTableRecord
100
AcDbLinetypeTableRecord
  2
DASHED
 70
     0
  3
Dashed
 72
    65
 73
     2
 40
15.0
 49
12.0
 74
     0
 49
-3.0
 74
     0
  0
LTYPE
  5
1E
330
4
100
AcDbSymbolTableRecord
100
AcDbLinetypeTableRecord
  2
DOTTED
 70
     0
  3
Dotted
 72
    65
 73
     2
 40
3.5
 49
0.5
 74
     0
 49
-3.0
 74
     0
  0
LTYPE
  5
1F
330
4
100
AcDbSymbolTableRecord
100
AcDbLinetypeTableRecord
  2
DOT_CENTER
 70
     0
  3
Dot_Center
 72
    65
 73
     4
 40
2.0
 49
1.25
 74
     0
 49
-0.25
 74
     0
 49
0.25
 74
     0
 49
-0.25
 74
     0
  0
LTYPE
  5
20
330
4
100
AcDbSymbolTableRecord
100
AcDbLinetypeTableRecord
  2
LONG_DASHED
 70
     0
  3
Long_Dashed
 72
    65
 73
     2
 40
2.0
 49
1.5
 74
     0
 49
-0.5
 74
     0
  0
LTYPE
  5
21
330
4
100
AcDbSymbolTableRecord
100
AcDbLinetypeTableRecord
  2
DASH_CENTER
 70
     0
  3
Dash_Center
 72
    65
 73
     4
 40
36.0
 49
24.0
 74
     0
 49
-3.0
 74
     0
 49
6.0
 74
     0
 49
-3.0
 74
     0
  0
LTYPE
  5
22
330
4
100
AcDbSymbolTableRecord
100
AcDbLinetypeTableRecord
  2
PHANTOM
 70
     0
  3
Phantom
 72
    65
 73
     6
 40
2.5
 49
1.25
 74
     0
 49
-0.25
 74
     0
 49
0.25
 74
     0
 49
-0.25
 74
     0
 49
0.25
 74
     0
 49
-0.25
 74
     0
  0
LTYPE
  5
23
330
4
100
AcDbSymbolTableRecord
100
AcDbLinetypeTableRecord
  2
CENTER_DASH_DASH
 70
     0
  3
Center_Dash_Dash
 72
    65
 73
     6
 40
22.0
 49
12.0
 74
     0
 49
-3.0
 74
     0
 49
0.5
 74
     0
 49
-3.0
 74
     0
 49
0.5
 74
     0
 49
-3.0
 74
     0
  0
LTYPE
  5
2DA
330
4
100
AcDbSymbolTableRecord
100
AcDbLinetypeTableRecord
  2
HIDDEN
 70
     0
  3
Hidden __ __ __ __ __ __ __ __ __ __ __ __ __ _
 72
    65
 73
     2
 40
9.524999999999998
 49
6.349999999999999
 74
     0
 49
-3.174999999999999
 74
     0
  0
LTYPE
  5
2DB
330
4
100
AcDbSymbolTableRecord
100
AcDbLinetypeTableRecord
  2
PHANTOM2
 70
     0
  3
Phantom (.5x) ___ _ _ ___ _ _ ___ _ _ ___ _ _
 72
    65
 73
     6
 40
31.75
 49
15.875
 74
     0
 49
-3.174999999999999
 74
     0
 49
3.174999999999999
 74
     0
 49
-3.174999999999999
 74
     0
 49
3.174999999999999
 74
     0
 49
-3.174999999999999
 74
     0
  0
LTYPE
  5
2DC
330
4
100
AcDbSymbolTableRecord
100
AcDbLinetypeTableRecord
  2
CENTER
 70
     0
  3
Center ____ _ ____ _ ____ _ ____ _ ____ _ ____
 72
    65
 73
     4
 40
50.8
 49
31.75
 74
     0
 49
-6.349999999999999
 74
     0
 49
6.349999999999999
 74
     0
 49
-6.349999999999999
 74
     0
  0
LTYPE
  5
332
330
4
100
AcDbSymbolTableRecord
100
AcDbLinetypeTableRecord
  2
ASULTYPE
 70
     0
  3
実線
 72
    65
 73
     2
 40
3.0
 49
2.5
 74
     0
 49
0.5
 74
     0
  0
LTYPE
  5
333
330
4
100
AcDbSymbolTableRecord
100
AcDbLinetypeTableRecord
  2
ASVLTYPE
 70
     0
  3
__ __ __ __ __ __ __ __ __ __ __ __ __ __ __ __ __ __ __ __ __
 72
    65
 73
     2
 40
0.75
 49
0.5
 74
     0
 49
-0.25
 74
     0
  0
LTYPE
  5
37A
330
4
100
AcDbSymbolTableRecord
100
AcDbLinetypeTableRecord
  2
AM_ISO02W050
 70
     0
  3
__ __ __ __ __ __ __ __ __ __ __ __ __ __ __
 72
    65
 73
     2
 40
7.5
 49
6.0
 74
     0
 49
-1.5
 74
     0
  0
LTYPE
  5
37B
330
4
100
AcDbSymbolTableRecord
100
AcDbLinetypeTableRecord
  2
AM_ISO08W050
 70
     0
  3
____ . ____ . ____ . ____ . ____ . ____ . ____
 72
    65
 73
     4
 40
18.0
 49
12.0
 74
     0
 49
-1.5
 74
     0
 49
3.0
 74
     0
 49
-1.5
 74
     0
  0
LTYPE
  5
37C
330
4
100
AcDbSymbolTableRecord
100
AcDbLinetypeTableRecord
  2
AM_ISO09W050
 70
     0
  3
_____ . . _____ . . _____ . . ____ .. ____
 72
    65
 73
     6
 40
22.5
 49
12.0
 74
     0
 49
-1.5
 74
     0
 49
3.0
 74
     0
 49
-1.5
 74
     0
 49
3.0
 74
     0
 49
-1.5
 74
     0
  0
LTYPE
  5
37D
330
4
100
AcDbSymbolTableRecord
100
AcDbLinetypeTableRecord
  2
Amconstr
 70
     0
  3
_______________________
 72
    65
 73
     2
 40
9999.0
 49
9999.0
 74
     0
 49
0.0
 74
     0
  0
LTYPE
  5
37E
330
4
100
AcDbSymbolTableRecord
100
AcDbLinetypeTableRecord
  2
AM_ISO08W050x2
 70
     0
  3
__ . __ . __ . __ . __ . __
 72
    65
 73
     4
 40
9.0
 49
6.0
 74
     0
 49
-0.75
 74
     0
 49
1.5
 74
     0
 49
-0.75
 74
     0
  0
LTYPE
  5
37F
330
4
100
AcDbSymbolTableRecord
100
AcDbLinetypeTableRecord
  2
AM_ISO02W050x2
 70
     0
  3
 _ _ _ _ _ _ _ _ _ _ _ _
 72
    65
 73
     2
 40
3.75
 49
3.0
 74
     0
 49
-0.75
 74
     0
  0
LTYPE
  5
382
330
4
100
AcDbSymbolTableRecord
100
AcDbLinetypeTableRecord
  2
Amzigzag
 70
     0
  3
/\/-/\/-/\/-/\/-/\/-/\/
 72
    65
 73
     2
 40
11.0001
 49
0.0001
 74
     4
 75
   136
340
381
 46
0.04
 50
0.0
 44
0.0
 45
0.0
 49
-11.0
 74
     0
  0
LTYPE
  5
391
330
4
100
AcDbSymbolTableRecord
100
AcDbLinetypeTableRecord
  2
ACISOWELD
 70
     0
  3
_ _ _ _ _
 72
    65
 73
     2
 40
2.0
 49
2.0
 74
     0
 49
-1.0
 74
     0
  0
LTYPE
  5
392
330
4
100
AcDbSymbolTableRecord
100
AcDbLinetypeTableRecord
  2
ACISOTGB
 70
     0
  3
__ . . __ . .
 72
    65
 73
     6
 40
9.0
 49
4.0
 74
     0
 49
-1.0
 74
     0
 49
1.0
 74
     0
 49
-1.0
 74
     0
 49
1.0
 74
     0
 49
-1.0
 74
     0
  0
LTYPE
  5
393
330
4
100
AcDbSymbolTableRecord
100
AcDbLinetypeTableRecord
  2
ACISOTGL
 70
     0
  3
_ _ _ _ _
 72
    65
 73
     2
 40
3.0
 49
2.0
 74
     0
 49
-1.0
 74
     0
  0
ENDTAB
  0
TABLE
  2
LAYER
  5
2
330
0
100
AcDbSymbolTable
 70
     2
  0
LAYER
  5
14
330
2
100
AcDbSymbolTableRecord
100
AcDbLayerTableRecord
  2
0
 70
     0
 62
     7
  6
CONTINUOUS
370
    -3
390
29F
  0
LAYER
  5
24
330
2
100
AcDbSymbolTableRecord
100
AcDbLayerTableRecord
  2
1
 70
     0
 62
     7
  6
CONTINUOUS
370
    -3
390
29F
  0
ENDTAB
  0
TABLE
  2
STYLE
  5
3
330
0
100
AcDbSymbolTable
 70
     5
  0
STYLE
  5
17
330
3
100
AcDbSymbolTableRecord
100
AcDbTextStyleTableRecord
  2
STANDARD
 70
     0
 40
0.0
 41
1.0
 50
0.0
 71
     0
 42
0.0
  3
txt
  4

  0
STYLE
  5
297
330
3
100
AcDbSymbolTableRecord
100
AcDbTextStyleTableRecord
  2
CONVERTER_1
 70
     0
 40
0.0
 41
0.8
 50
0.0
 71
     0
 42
0.0
  3
MS Gothic
  4

1001
ACAD
1000
MS Gothic
1071
    32785
  0
STYLE
  5
381
330
3
100
AcDbSymbolTableRecord
100
AcDbTextStyleTableRecord
  2

 70
     1
 40
0.0
 41
1.0
 50
0.0
 71
     0
 42
0.2
  3
genltshp.shx
  4

  0
STYLE
  5
383
330
3
100
AcDbSymbolTableRecord
100
AcDbTextStyleTableRecord
  2
ACISOTS
 70
     0
 40
1.0
 41
1.0
 50
0.0
 71
     0
 42
0.2
  3
isocp.shx
  4
extfont.shx
  0
STYLE
  5
390
330
3
100
AcDbSymbolTableRecord
100
AcDbTextStyleTableRecord
  2
ACISOGDT
 70
     0
 40
0.0
 41
1.0
 50
0.0
 71
     0
 42
0.2
  3
AMGDT
  4

  0
ENDTAB
  0
TABLE
  2
VIEW
  5
5
330
0
100
AcDbSymbolTable
 70
     0
  0
ENDTAB
  0
TABLE
  2
UCS
  5
6
330
0
100
AcDbSymbolTable
 70
     0
  0
ENDTAB
  0
TABLE
  2
APPID
  5
8
330
0
100
AcDbSymbolTable
 70
    16
  0
APPID
  5
16
330
8
100
AcDbSymbolTableRecord
100
AcDbRegAppTableRecord
  2
ACAD
 70
     0
  0
APPID
  5
2AB
330
8
100
AcDbSymbolTableRecord
100
AcDbRegAppTableRecord
  2
MCAD_NO_VIS
 70
     0
  0
APPID
  5
2AC
330
8
100
AcDbSymbolTableRecord
100
AcDbRegAppTableRecord
  2
ACAD_TEMP_GRAPHIC
 70
     0
  0
APPID
  5
2DE
330
8
100
AcDbSymbolTableRecord
100
AcDbRegAppTableRecord
  2
AD_DRAW
 70
     0
  0
APPID
  5
2E1
330
8
100
AcDbSymbolTableRecord
100
AcDbRegAppTableRecord
  2
ACATTRIBSERVICES
 70
     0
  0
APPID
  5
2E9
330
8
100
AcDbSymbolTableRecord
100
AcDbRegAppTableRecord
  2
GENIUS_GENDIM_13
 70
     0
  0
APPID
  5
2EA
330
8
100
AcDbSymbolTableRecord
100
AcDbRegAppTableRecord
  2
GENIUS_GENDTOL_13
 70
     0
  0
APPID
  5
2EB
330
8
100
AcDbSymbolTableRecord
100
AcDbRegAppTableRecord
  2
GENIUS_GE3DTOL_13
 70
     0
  0
APPID
  5
334
330
8
100
AcDbSymbolTableRecord
100
AcDbRegAppTableRecord
  2
ASURF_PCURVE_APPNAME
 70
     0
  0
APPID
  5
339
330
8
100
AcDbSymbolTableRecord
100
AcDbRegAppTableRecord
  2
AMG_3D2D_5.0
 70
     0
  0
APPID
  5
36A
330
8
100
AcDbSymbolTableRecord
100
AcDbRegAppTableRecord
  2
DESIGNERASSEMBLIES
 70
     0
  0
APPID
  5
371
330
8
100
AcDbSymbolTableRecord
100
AcDbRegAppTableRecord
  2
ACADM_DIM_EDIT
 70
     0
  0
APPID
  5
372
330
8
100
AcDbSymbolTableRecord
100
AcDbRegAppTableRecord
  2
AMDT_DM_ADJ
 70
     0
  0
APPID
  5
3A0
330
8
100
AcDbSymbolTableRecord
100
AcDbRegAppTableRecord
  2
ACAD_DSTYLE_DIMARC_LENGTH_SYMBOL
 70
     0
  0
APPID
  5
3A1
330
8
100
AcDbSymbolTableRecord
100
AcDbRegAppTableRecord
  2
ACAD_DSTYLE_DIMJOGGED_JOGANGLE_SYMBOL
 70
     0
  0
APPID
  5
3CA
330
8
100
AcDbSymbolTableRecord
100
AcDbRegAppTableRecord
  2
DCO15
 70
     0
  0
ENDTAB
  0
TABLE
  2
DIMSTYLE
  5
9
330
0
100
AcDbSymbolTable
 70
     8
100
AcDbDimStyleTable
 71
     0
  0
DIMSTYLE
105
18
330
9
100
AcDbSymbolTableRecord
100
AcDbDimStyleTableRecord
  2
STANDARD
 70
     0
340
17
  0
DIMSTYLE
105
39F
330
9
100
AcDbSymbolTableRecord
100
AcDbDimStyleTableRecord
  2
AM_ISO
 70
     0
  4
"
 41
2.5
 42
1.0
 43
10.0
 44
1.0
 47
0.1
 48
0.1
 73
     0
 74
     0
 77
     1
 78
     8
 79
     2
140
3.5
141
0.0
143
0.0393701
146
0.71
147
1.5
172
     1
176
   256
177
   256
178
     2
271
     2
272
     3
274
     4
283
     0
284
     8
340
17
371
    -1
372
    -1
1001
ACAD_DSTYLE_DIMARC_LENGTH_SYMBOL
1070
   379
1070
     1
1001
ACAD_DSTYLE_DIMJOGGED_JOGANGLE_SYMBOL
1070
   384
1040
0.7853981633974483
  0
DIMSTYLE
105
3A8
330
9
100
AcDbSymbolTableRecord
100
AcDbDimStyleTableRecord
  2
AM_ISO$3
 70
     0
  4
"
 41
2.5
 42
1.0
 43
10.0
 44
1.0
 47
0.1
 48
0.1
 73
     0
 77
     1
 78
     8
 79
     2
140
3.5
141
0.0
143
0.0393701
146
0.71
147
1.5
176
   256
177
   256
178
     2
271
     2
272
     3
274
     4
283
     0
284
     8
288
     1
289
     0
340
17
371
    -1
372
    -1
1001
ACAD_DSTYLE_DIMARC_LENGTH_SYMBOL
1070
   379
1070
     1
1001
ACAD_DSTYLE_DIMJOGGED_JOGANGLE_SYMBOL
1070
   384
1040
0.7853981633974483
  0
DIMSTYLE
105
3AB
330
9
100
AcDbSymbolTableRecord
100
AcDbDimStyleTableRecord
  2
AM_ISO$4
 70
     0
  4
"
 41
2.5
 42
1.0
 43
10.0
 44
1.0
 47
0.1
 48
0.1
 73
     0
 77
     1
 78
     8
 79
     2
140
3.5
141
0.0
143
0.0393701
146
0.71
147
1.5
176
   256
177
   256
178
     2
271
     2
272
     3
274
     4
283
     0
284
     8
288
     1
289
     0
340
17
371
    -1
372
    -1
1001
ACAD_DSTYLE_DIMARC_LENGTH_SYMBOL
1070
   379
1070
     1
1001
ACAD_DSTYLE_DIMJOGGED_JOGANGLE_SYMBOL
1070
   384
1040
0.7853981633974483
  0
DIMSTYLE
105
3AE
330
9
100
AcDbSymbolTableRecord
100
AcDbDimStyleTableRecord
  2
AM_ISO$6
 70
     0
  4
"
 41
2.5
 42
1.0
 43
10.0
 44
1.0
 47
0.1
 48
0.1
 73
     0
 74
     0
 78
     8
 79
     2
140
3.5
141
0.0
143
0.0393701
146
0.71
147
1.5
172
     1
176
   256
177
   256
178
     2
271
     2
272
     3
274
     4
283
     0
284
     8
340
17
371
    -1
372
    -1
1001
ACAD_DSTYLE_DIMARC_LENGTH_SYMBOL
1070
   379
1070
     1
1001
ACAD_DSTYLE_DIMJOGGED_JOGANGLE_SYMBOL
1070
   384
1040
0.7853981633974483
  0
DIMSTYLE
105
3B1
330
9
100
AcDbSymbolTableRecord
100
AcDbDimStyleTableRecord
  2
AM_ISO$7
 70
     0
  4
"
 41
2.5
 42
1.0
 43
10.0
 44
1.0
 47
0.1
 48
0.1
 73
     0
 74
     0
 77
     1
 78
     8
 79
     2
140
5.0
141
0.0
143
0.0393701
146
0.71
147
1.5
172
     1
176
   256
177
   256
178
     2
271
     2
272
     3
274
     4
283
     0
284
     8
340
17
371
    -1
372
    -1
1001
ACAD_DSTYLE_DIMARC_LENGTH_SYMBOL
1070
   379
1070
     1
1001
ACAD_DSTYLE_DIMJOGGED_JOGANGLE_SYMBOL
1070
   384
1040
0.7853981633974483
  0
DIMSTYLE
105
3B4
330
9
100
AcDbSymbolTableRecord
100
AcDbDimStyleTableRecord
  2
AM_ISO$SF
 70
     0
  4
"
 41
2.5
 42
1.0
 43
10.0
 44
1.0
 47
0.1
 48
0.1
 73
     0
 74
     0
 75
     1
 76
     1
 77
     1
 78
     8
 79
     2
140
3.5
141
0.0
143
0.0393701
146
0.71
147
1.5
172
     1
176
   256
177
   256
178
     2
271
     2
272
     3
274
     4
283
     0
284
     8
340
17
371
    -1
372
    -1
1001
ACAD_DSTYLE_DIMARC_LENGTH_SYMBOL
1070
   379
1070
     1
1001
ACAD_DSTYLE_DIMJOGGED_JOGANGLE_SYMBOL
1070
   384
1040
0.7853981633974483
  0
DIMSTYLE
105
3BB
330
9
100
AcDbSymbolTableRecord
100
AcDbDimStyleTableRecord
  2
AM_ISO$SH
 70
     0
  4
"
 41
2.5
 42
1.0
 43
10.0
 44
1.0
 47
0.1
 48
0.1
 73
     0
 74
     0
 75
     1
 76
     1
 77
     1
 78
     8
 79
     2
140
3.5
141
0.0
143
0.0393701
144
2.0
146
0.71
147
1.5
172
     1
173
     1
176
   256
177
   256
178
     2
271
     2
272
     3
274
     4
283
     0
284
     8
340
17
343
3B5
371
    -1
372
    -1
1001
ACAD_DSTYLE_DIMARC_LENGTH_SYMBOL
1070
   379
1070
     1
1001
ACAD_DSTYLE_DIMJOGGED_JOGANGLE_SYMBOL
1070
   384
1040
0.7853981633974483
  0
ENDTAB
  0
TABLE
  2
BLOCK_RECORD
  5
1
330
0
100
AcDbSymbolTable
 70
     2
  0
BLOCK_RECORD
  5
A
102
{ACAD_XDICTIONARY
360
3CC
102
}
330
1
100
AcDbSymbolTableRecord
100
AcDbBlockTableRecord
  2
*MODEL_SPACE
340
2A6
  0
BLOCK_RECORD
  5
B
330
1
100
AcDbSymbolTableRecord
100
AcDbBlockTableRecord
  2
*PAPER_SPACE
340
2A7
  0
BLOCK_RECORD
  5
3B5
330
1
100
AcDbSymbolTableRecord
100
AcDbBlockTableRecord
  2
GENAXEH
340
0
  0
ENDTAB
  0
ENDSEC
  0
SECTION
  2
BLOCKS
  0
BLOCK
  5
D
330
A
100
AcDbEntity
  8
0
100
AcDbBlockBegin
  2
*MODEL_SPACE
 70
     0
 10
0.0
 20
0.0
 30
0.0
  3
*MODEL_SPACE
  1

  0
ENDBLK
  5
E
330
A
100
AcDbEntity
  8
0
100
AcDbBlockEnd
  0
BLOCK
  5
F
330
B
100
AcDbEntity
 67
     1
  8
0
100
AcDbBlockBegin
  2
*PAPER_SPACE
 70
     0
 10
0.0
 20
0.0
 30
0.0
  3
*PAPER_SPACE
  1

  0
ENDBLK
  5
10
330
B
100
AcDbEntity
 67
     1
  8
0
100
AcDbBlockEnd
  0
BLOCK
  5
3B7
330
3B5
100
AcDbEntity
  8
0
100
AcDbBlockBegin
  2
GENAXEH
 70
     0
 10
0.0
 20
0.0
 30
0.0
  3
GENAXEH
  1

  0
LINE
  5
3B6
330
3B5
100
AcDbEntity
  8
0
100
AcDbLine
 10
-1.0
 20
0.0
 30
0.0
 11
1.0
 21
0.0
 31
0.0
  0
ENDBLK
  5
3B8
330
3B5
100
AcDbEntity
  8
0
100
AcDbBlockEnd
  0
ENDSEC
  0
SECTION
  2
ENTITIES
  0
TEXT
  5
299
330
A
100
AcDbEntity
  8
1
 62
     1
100
AcDbText
 10
-6.822982346403
 20
4136.01905055508
 30
0.0
 40
3.0
  1
ＨＤＵシリーズ
 41
0.8
  7
CONVERTER_1
100
AcDbText
  0
TEXT
  5
298
330
A
100
AcDbEntity
  8
1
 62
     1
100
AcDbText
 10
-1.535683280023
 20
4130.516976891388
 30
0.0
 40
3.0
  1
吊　車
 41
0.8
  7
CONVERTER_1
100
AcDbText
  0
ARC
  5
296
330
A
100
AcDbEntity
  8
1
  6
Continuous
 62
     3
100
AcDbCircle
 10
103.80029239766
 20
4044.24
 30
0.0
 40
2.0
100
AcDbArc
 50
180.0
 51
-90.0
  0
ARC
  5
295
330
A
100
AcDbEntity
  8
1
  6
Continuous
 62
     3
100
AcDbCircle
 10
130.80029239766
 20
4055.439999999999
 30
0.0
 40
1.0
100
AcDbArc
 50
90.0
 51
180.0
  0
ARC
  5
294
330
A
100
AcDbEntity
  8
1
  6
Continuous
 62
     3
100
AcDbCircle
 10
128.80029239766
 20
4043.44
 30
0.0
 40
1.0
100
AcDbArc
 50
-90.0
 51
0.0
  0
ARC
  5
293
330
A
100
AcDbEntity
  8
1
  6
Continuous
 62
     3
100
AcDbCircle
 10
130.80029239766
 20
4061.44
 30
0.0
 40
1.0
100
AcDbArc
 50
180.0
 51
-90.0
  0
ARC
  5
292
330
A
100
AcDbEntity
  8
1
  6
Continuous
 62
     3
100
AcDbCircle
 10
141.80029239766
 20
4059.44
 30
0.0
 40
1.0
100
AcDbArc
 50
0.0
 51
90.0
  0
ARC
  5
291
330
A
100
AcDbEntity
  8
1
  6
Continuous
 62
     3
100
AcDbCircle
 10
141.80029239766
 20
4044.139999999998
 30
0.0
 40
1.0
100
AcDbArc
 50
-90.0
 51
0.0
  0
ARC
  5
290
330
A
100
AcDbEntity
  8
1
  6
Continuous
 62
     3
100
AcDbCircle
 10
126.80029239766
 20
4043.44
 30
0.0
 40
1.0
100
AcDbArc
 50
180.0
 51
-90.0
  0
ARC
  5
28F
330
A
100
AcDbEntity
  8
1
  6
Continuous
 62
     3
100
AcDbCircle
 10
128.80029239766
 20
4069.239999999999
 30
0.0
 40
1.0
100
AcDbArc
 50
0.0
 51
90.0
  0
ARC
  5
28E
330
A
100
AcDbEntity
  8
1
  6
Continuous
 62
     3
100
AcDbCircle
 10
126.80029239766
 20
4069.239999999999
 30
0.0
 40
1.0
100
AcDbArc
 50
90.0
 51
180.0
  0
ARC
  5
28D
330
A
100
AcDbEntity
  8
1
  6
Continuous
 62
     3
100
AcDbCircle
 10
106.30029239766
 20
4055.74
 30
0.0
 40
0.5
100
AcDbArc
 50
180.0
 51
-90.0
  0
ARC
  5
28C
330
A
100
AcDbEntity
  8
1
  6
Continuous
 62
     3
100
AcDbCircle
 10
121.30029239766
 20
4055.74
 30
0.0
 40
0.5
100
AcDbArc
 50
-90.0
 51
0.0
  0
ARC
  5
28B
330
A
100
AcDbEntity
  8
1
  6
Continuous
 62
     3
100
AcDbCircle
 10
121.30029239766
 20
4068.74
 30
0.0
 40
0.5
100
AcDbArc
 50
0.0
 51
90.0
  0
ARC
  5
28A
330
A
100
AcDbEntity
  8
1
  6
Continuous
 62
     3
100
AcDbCircle
 10
106.30029239766
 20
4068.74
 30
0.0
 40
0.5
100
AcDbArc
 50
90.0
 51
180.0
  0
ARC
  5
289
330
A
100
AcDbEntity
  8
1
  6
Continuous
 62
     3
100
AcDbCircle
 10
143.80029239766
 20
4067.239999999999
 30
0.0
 40
1.0
100
AcDbArc
 50
0.0
 51
90.0
  0
ARC
  5
288
330
A
100
AcDbEntity
  8
1
  6
Continuous
 62
     3
100
AcDbCircle
 10
140.30029239766
 20
4069.239999999999
 30
0.0
 40
1.0
100
AcDbArc
 50
180.0
 51
-90.0
  0
ARC
  5
287
330
A
100
AcDbEntity
  8
1
  6
Continuous
 62
     3
100
AcDbCircle
 10
142.80029239766
 20
4143.694385964911
 30
0.0
 40
3.0
100
AcDbArc
 50
-126.869897645848
 51
-90.0
  0
ARC
  5
286
330
A
100
AcDbEntity
  8
1
  6
Continuous
 62
     3
100
AcDbCircle
 10
142.80029239766
 20
4127.69438596491
 30
0.0
 40
3.0
100
AcDbArc
 50
90.0
 51
126.869897645827
  0
ARC
  5
285
330
A
100
AcDbEntity
  8
1
  6
Continuous
 62
     3
100
AcDbCircle
 10
158.30029239766
 20
4139.694385964911
 30
0.0
 40
1.0
100
AcDbArc
 50
0.0
 51
90.0
  0
ARC
  5
284
330
A
100
AcDbEntity
  8
1
  6
Continuous
 62
     3
100
AcDbCircle
 10
158.30029239766
 20
4131.694385964911
 30
0.0
 40
1.0
100
AcDbArc
 50
-90.0
 51
0.0
  0
ARC
  5
283
330
A
100
AcDbEntity
  8
1
  6
Continuous
 62
     3
100
AcDbCircle
 10
156.80029239766
 20
4138.69438596491
 30
0.0
 40
0.5
100
AcDbArc
 50
0.0
 51
90.0
  0
ARC
  5
282
330
A
100
AcDbEntity
  8
1
  6
Continuous
 62
     3
100
AcDbCircle
 10
158.80029239766
 20
4138.194385964911
 30
0.0
 40
0.5
100
AcDbArc
 50
-90.0
 51
0.0
  0
ARC
  5
281
330
A
100
AcDbEntity
  8
1
  6
Continuous
 62
     3
100
AcDbCircle
 10
157.80029239766
 20
4138.194385964911
 30
0.0
 40
0.5
100
AcDbArc
 50
180.0
 51
-90.0
  0
ARC
  5
280
330
A
100
AcDbEntity
  8
1
  6
Continuous
 62
     3
100
AcDbCircle
 10
158.80029239766
 20
4133.194385964911
 30
0.0
 40
0.5
100
AcDbArc
 50
0.0
 51
90.0
  0
ARC
  5
27F
330
A
100
AcDbEntity
  8
1
  6
Continuous
 62
     3
100
AcDbCircle
 10
157.80029239766
 20
4133.194385964911
 30
0.0
 40
0.5
100
AcDbArc
 50
90.0
 51
180.0
  0
ARC
  5
27E
330
A
100
AcDbEntity
  8
1
  6
Continuous
 62
     3
100
AcDbCircle
 10
156.80029239766
 20
4132.694385964911
 30
0.0
 40
0.5
100
AcDbArc
 50
-90.0
 51
0.0
  0
ARC
  5
27D
330
A
100
AcDbEntity
  8
1
  6
Continuous
 62
     3
100
AcDbCircle
 10
154.80029239766
 20
4132.694385964911
 30
0.0
 40
0.5
100
AcDbArc
 50
180.0
 51
-90.0
  0
ARC
  5
27C
330
A
100
AcDbEntity
  8
1
  6
Continuous
 62
     3
100
AcDbCircle
 10
154.80029239766
 20
4138.69438596491
 30
0.0
 40
0.5
100
AcDbArc
 50
90.0
 51
180.0
  0
ARC
  5
27B
330
A
100
AcDbEntity
  8
1
  6
Continuous
 62
     3
100
AcDbCircle
 10
118.80029239766
 20
4138.69438596491
 30
0.0
 40
0.5
100
AcDbArc
 50
0.0
 51
90.0
  0
ARC
  5
27A
330
A
100
AcDbEntity
  8
1
  6
Continuous
 62
     3
100
AcDbCircle
 10
118.80029239766
 20
4132.694385964911
 30
0.0
 40
0.5
100
AcDbArc
 50
-90.0
 51
0.0
  0
ARC
  5
279
330
A
100
AcDbEntity
  8
1
  6
Continuous
 62
     3
100
AcDbCircle
 10
116.80029239766
 20
4132.694385964911
 30
0.0
 40
0.5
100
AcDbArc
 50
180.0
 51
-90.0
  0
ARC
  5
278
330
A
100
AcDbEntity
  8
1
  6
Continuous
 62
     3
100
AcDbCircle
 10
115.80029239766
 20
4133.194385964911
 30
0.0
 40
0.5
100
AcDbArc
 50
0.0
 51
90.0
  0
ARC
  5
277
330
A
100
AcDbEntity
  8
1
  6
Continuous
 62
     3
100
AcDbCircle
 10
114.80029239766
 20
4133.194385964911
 30
0.0
 40
0.5
100
AcDbArc
 50
90.0
 51
180.0
  0
ARC
  5
276
330
A
100
AcDbEntity
  8
1
  6
Continuous
 62
     3
100
AcDbCircle
 10
115.80029239766
 20
4138.194385964911
 30
0.0
 40
0.5
100
AcDbArc
 50
-90.0
 51
0.0
  0
ARC
  5
275
330
A
100
AcDbEntity
  8
1
  6
Continuous
 62
     3
100
AcDbCircle
 10
114.80029239766
 20
4138.194385964911
 30
0.0
 40
0.5
100
AcDbArc
 50
180.0
 51
-90.0
  0
ARC
  5
274
330
A
100
AcDbEntity
  8
1
  6
Continuous
 62
     3
100
AcDbCircle
 10
116.80029239766
 20
4138.69438596491
 30
0.0
 40
0.5
100
AcDbArc
 50
90.0
 51
180.0
  0
ARC
  5
273
330
A
100
AcDbEntity
  8
1
  6
Continuous
 62
     3
100
AcDbCircle
 10
115.30029239766
 20
4131.694385964911
 30
0.0
 40
1.0
100
AcDbArc
 50
-120.00000000001
 51
-90.0
  0
ARC
  5
272
330
A
100
AcDbEntity
  8
1
  6
Continuous
 62
     3
100
AcDbCircle
 10
115.30029239766
 20
4139.694385964911
 30
0.0
 40
1.0
100
AcDbArc
 50
120.00000000001
 51
180.0
  0
ARC
  5
271
330
A
100
AcDbEntity
  8
1
  6
Continuous
 62
     3
100
AcDbCircle
 10
130.80029239766
 20
4127.69438596491
 30
0.0
 40
3.000000000001
100
AcDbArc
 50
53.130102354172
 51
90.0
  0
ARC
  5
270
330
A
100
AcDbEntity
  8
1
  6
Continuous
 62
     3
100
AcDbCircle
 10
130.80029239766
 20
4143.694385964911
 30
0.0
 40
3.0
100
AcDbArc
 50
-90.0
 51
-53.130102354152
  0
ARC
  5
26F
330
A
100
AcDbEntity
  8
1
  6
Continuous
 62
     3
100
AcDbCircle
 10
59.304931887873
 20
4097.739999999999
 30
0.0
 40
1.0
100
AcDbArc
 50
90.0
 51
180.0
  0
ARC
  5
26E
330
A
100
AcDbEntity
  8
1
  6
Continuous
 62
     3
100
AcDbCircle
 10
53.30493188787301
 20
4097.739999999999
 30
0.0
 40
1.0
100
AcDbArc
 50
0.0
 51
90.0
  0
ARC
  5
26D
330
A
100
AcDbEntity
  8
1
  6
Continuous
 62
     3
100
AcDbCircle
 10
141.55029239766
 20
4077.239999999999
 30
0.0
 40
1.0
100
AcDbArc
 50
-90.0
 51
0.0
  0
ARC
  5
26C
330
A
100
AcDbEntity
  8
1
  6
Continuous
 62
     3
100
AcDbCircle
 10
158.30029239766
 20
4087.74
 30
0.0
 40
1.0
100
AcDbArc
 50
-90.0
 51
0.0
  0
ARC
  5
26B
330
A
100
AcDbEntity
  8
1
  6
Continuous
 62
     3
100
AcDbCircle
 10
158.30029239766
 20
4097.739999999999
 30
0.0
 40
1.0
100
AcDbArc
 50
0.0
 51
90.0
  0
ARC
  5
26A
330
A
100
AcDbEntity
  8
1
  6
Continuous
 62
     3
100
AcDbCircle
 10
143.55029239766
 20
4082.03979246179
 30
0.0
 40
1.0
100
AcDbArc
 50
110.0
 51
180.0
  0
ARC
  5
269
330
A
100
AcDbEntity
  8
1
  6
Continuous
 62
     3
100
AcDbCircle
 10
130.05029239766
 20
4082.03979246179
 30
0.0
 40
1.0
100
AcDbArc
 50
0.0
 51
70.0
  0
ARC
  5
268
330
A
100
AcDbEntity
  8
1
  6
Continuous
 62
     3
100
AcDbCircle
 10
115.30029239766
 20
4097.739999999999
 30
0.0
 40
1.0
100
AcDbArc
 50
90.0
 51
180.0
  0
ARC
  5
267
330
A
100
AcDbEntity
  8
1
  6
Continuous
 62
     3
100
AcDbCircle
 10
115.30029239766
 20
4087.74
 30
0.0
 40
1.0
100
AcDbArc
 50
180.0
 51
-90.0
  0
ARC
  5
266
330
A
100
AcDbEntity
  8
1
  6
Continuous
 62
     3
100
AcDbCircle
 10
132.05029239766
 20
4077.239999999999
 30
0.0
 40
1.0
100
AcDbArc
 50
180.0
 51
-90.0
  0
ARC
  5
265
330
A
100
AcDbEntity
  8
1
  6
Continuous
 62
     3
100
AcDbCircle
 10
59.304931887873
 20
4085.74
 30
0.0
 40
1.0
100
AcDbArc
 50
90.0
 51
180.0
  0
ARC
  5
264
330
A
100
AcDbEntity
  8
1
  6
Continuous
 62
     3
100
AcDbCircle
 10
53.30493188787301
 20
4085.74
 30
0.0
 40
1.0
100
AcDbArc
 50
0.0
 51
90.0
  0
ARC
  5
263
330
A
100
AcDbEntity
  8
1
  6
Continuous
 62
     3
100
AcDbCircle
 10
60.304931887873
 20
4097.739999999999
 30
0.0
 40
1.0
100
AcDbArc
 50
0.0
 51
90.0
  0
ARC
  5
262
330
A
100
AcDbEntity
  8
1
  6
Continuous
 62
     3
100
AcDbCircle
 10
52.304931887873
 20
4097.739999999999
 30
0.0
 40
1.0
100
AcDbArc
 50
90.0
 51
180.0
  0
ARC
  5
261
330
A
100
AcDbEntity
  8
1
  6
Continuous
 62
     3
100
AcDbCircle
 10
60.304931887873
 20
4087.74
 30
0.0
 40
1.0
100
AcDbArc
 50
-90.0
 51
0.0
  0
ARC
  5
260
330
A
100
AcDbEntity
  8
1
  6
Continuous
 62
     3
100
AcDbCircle
 10
52.304931887873
 20
4087.74
 30
0.0
 40
1.0
100
AcDbArc
 50
180.0
 51
-90.0
  0
ARC
  5
25F
330
A
100
AcDbEntity
  8
1
  6
Continuous
 62
     3
100
AcDbCircle
 10
61.054931887873
 20
4077.239999999999
 30
0.0
 40
1.0
100
AcDbArc
 50
-90.0
 51
0.0
  0
ARC
  5
25E
330
A
100
AcDbEntity
  8
1
  6
Continuous
 62
     3
100
AcDbCircle
 10
51.554931887873
 20
4077.239999999999
 30
0.0
 40
1.0
100
AcDbArc
 50
180.0
 51
-90.0
  0
ARC
  5
25D
330
A
100
AcDbEntity
  8
1
  6
Continuous
 62
     3
100
AcDbCircle
 10
115.30029239766
 20
4139.694385964911
 30
0.0
 40
1.0
100
AcDbArc
 50
90.0
 51
120.00000000001
  0
ARC
  5
25C
330
A
100
AcDbEntity
  8
1
  6
Continuous
 62
     3
100
AcDbCircle
 10
115.30029239766
 20
4131.694385964911
 30
0.0
 40
1.0
100
AcDbArc
 50
180.0
 51
-120.00000000001
  0
ARC
  5
25B
330
A
100
AcDbEntity
  8
1
  6
Continuous
 62
     3
100
AcDbCircle
 10
-1.579571036103
 20
4077.239999999999
 30
0.0
 40
1.0
100
AcDbArc
 50
180.0
 51
-90.0
  0
ARC
  5
25A
330
A
100
AcDbEntity
  8
1
  6
Continuous
 62
     3
100
AcDbCircle
 10
7.920428963897
 20
4077.239999999999
 30
0.0
 40
1.0
100
AcDbArc
 50
-90.0
 51
0.0
  0
ARC
  5
259
330
A
100
AcDbEntity
  8
1
  6
Continuous
 62
     3
100
AcDbCircle
 10
7.170428963897
 20
4087.74
 30
0.0
 40
1.0
100
AcDbArc
 50
-90.0
 51
0.0
  0
ARC
  5
258
330
A
100
AcDbEntity
  8
1
  6
Continuous
 62
     3
100
AcDbCircle
 10
7.170428963897
 20
4097.739999999999
 30
0.0
 40
1.0
100
AcDbArc
 50
0.0
 51
90.0
  0
ARC
  5
257
330
A
100
AcDbEntity
  8
1
  6
Continuous
 62
     3
100
AcDbCircle
 10
6.170428963897
 20
4085.74
 30
0.0
 40
1.0
100
AcDbArc
 50
90.0
 51
180.0
  0
ARC
  5
256
330
A
100
AcDbEntity
  8
1
  6
Continuous
 62
     3
100
AcDbCircle
 10
6.170428963897
 20
4097.739999999999
 30
0.0
 40
1.0
100
AcDbArc
 50
90.0
 51
180.0
  0
ARC
  5
255
330
A
100
AcDbEntity
  8
1
  6
Continuous
 62
     4
100
AcDbCircle
 10
9.920428963897
 20
4101.740000000002
 30
0.0
 40
1.0
100
AcDbArc
 50
90.0
 51
180.0
  0
ARC
  5
254
330
A
100
AcDbEntity
  8
1
  6
Continuous
 62
     4
100
AcDbCircle
 10
6.920428963897
 20
4102.240000000001
 30
0.0
 40
0.5
100
AcDbArc
 50
0.0
 51
90.0
  0
ARC
  5
253
330
A
100
AcDbEntity
  8
1
  6
Continuous
 62
     4
100
AcDbCircle
 10
7.920428963897
 20
4100.740000000001
 30
0.0
 40
0.5
100
AcDbArc
 50
180.0
 51
-90.0
  0
ARC
  5
252
330
A
100
AcDbEntity
  8
1
  6
Continuous
 62
     4
100
AcDbCircle
 10
8.420428963897
 20
4100.740000000001
 30
0.0
 40
0.5
100
AcDbArc
 50
-90.0
 51
0.0
  0
ARC
  5
251
330
A
100
AcDbEntity
  8
1
  6
Continuous
 62
     4
100
AcDbCircle
 10
9.670428963897
 20
4082.285643942683
 30
0.0
 40
0.5
100
AcDbArc
 50
180.0
 51
-114.624318352182
  0
ARC
  5
250
330
A
100
AcDbEntity
  8
1
  6
Continuous
 62
     4
100
AcDbCircle
 10
16.670428963897
 20
4103.240000000002
 30
0.0
 40
1.0
100
AcDbArc
 50
0.0
 51
90.0
  0
ARC
  5
24F
330
A
100
AcDbEntity
  8
1
  6
Continuous
 62
     4
100
AcDbCircle
 10
-10.329571036103
 20
4103.240000000002
 30
0.0
 40
1.0
100
AcDbArc
 50
90.0
 51
180.0
  0
ARC
  5
24E
330
A
100
AcDbEntity
  8
1
  6
Continuous
 62
     4
100
AcDbCircle
 10
-3.329571036103
 20
4082.285643942683
 30
0.0
 40
0.5
100
AcDbArc
 50
-65.375681647818
 51
0.0
  0
ARC
  5
24D
330
A
100
AcDbEntity
  8
1
  6
Continuous
 62
     4
100
AcDbCircle
 10
-2.079571036103
 20
4100.740000000001
 30
0.0
 40
0.5
100
AcDbArc
 50
180.0
 51
-90.0
  0
ARC
  5
24C
330
A
100
AcDbEntity
  8
1
  6
Continuous
 62
     4
100
AcDbCircle
 10
-1.579571036103
 20
4100.740000000001
 30
0.0
 40
0.5
100
AcDbArc
 50
-90.0
 51
0.0
  0
ARC
  5
24B
330
A
100
AcDbEntity
  8
1
  6
Continuous
 62
     4
100
AcDbCircle
 10
-0.5795710361030001
 20
4102.240000000001
 30
0.0
 40
0.5
100
AcDbArc
 50
90.0
 51
180.0
  0
ARC
  5
24A
330
A
100
AcDbEntity
  8
1
  6
Continuous
 62
     4
100
AcDbCircle
 10
-3.579571036103
 20
4101.740000000002
 30
0.0
 40
1.0
100
AcDbArc
 50
0.0
 51
90.0
  0
ARC
  5
249
330
A
100
AcDbEntity
  8
1
  6
Continuous
 62
     3
100
AcDbCircle
 10
0.170428963897
 20
4097.739999999999
 30
0.0
 40
1.0
100
AcDbArc
 50
0.0
 51
90.0
  0
ARC
  5
248
330
A
100
AcDbEntity
  8
1
  6
Continuous
 62
     3
100
AcDbCircle
 10
0.170428963897
 20
4085.74
 30
0.0
 40
1.0
100
AcDbArc
 50
0.0
 51
90.0
  0
ARC
  5
247
330
A
100
AcDbEntity
  8
1
  6
Continuous
 62
     3
100
AcDbCircle
 10
-0.829571036103
 20
4097.739999999999
 30
0.0
 40
1.0
100
AcDbArc
 50
90.0
 51
180.0
  0
ARC
  5
246
330
A
100
AcDbEntity
  8
1
  6
Continuous
 62
     3
100
AcDbCircle
 10
-0.829571036103
 20
4087.74
 30
0.0
 40
1.0
100
AcDbArc
 50
180.0
 51
-90.0
  0
ARC
  5
245
330
A
100
AcDbEntity
  8
1
  6
Continuous
 62
     4
100
AcDbCircle
 10
-3.079571036103
 20
4083.867016653793
 30
0.0
 40
0.25
100
AcDbArc
 50
0.0
 51
125.376540151921
  0
ARC
  5
244
330
A
100
AcDbEntity
  8
1
  6
Continuous
 62
     4
100
AcDbCircle
 10
9.420428963897
 20
4083.867016653793
 30
0.0
 40
0.25
100
AcDbArc
 50
54.623459848079
 51
180.0
  0
ARC
  5
243
330
A
100
AcDbEntity
  8
1
  6
Continuous
 62
     3
100
AcDbCircle
 10
99.80029239765999
 20
4042.74
 30
0.0
 40
0.5
100
AcDbArc
 50
180.0
 51
-90.0
  0
ARC
  5
242
330
A
100
AcDbEntity
  8
1
  6
Continuous
 62
     3
100
AcDbCircle
 10
99.80029239765999
 20
4040.239999999999
 30
0.0
 40
0.5
100
AcDbArc
 50
90.0
 51
180.0
  0
ARC
  5
241
330
A
100
AcDbEntity
  8
1
  6
Continuous
 62
     3
100
AcDbCircle
 10
99.80029239765999
 20
4040.239999999999
 30
0.0
 40
0.5
100
AcDbArc
 50
180.0
 51
-90.0
  0
ARC
  5
240
330
A
100
AcDbEntity
  8
1
  6
Continuous
 62
     3
100
AcDbCircle
 10
99.80029239765999
 20
4036.84
 30
0.0
 40
0.5
100
AcDbArc
 50
90.0
 51
180.0
  0
ARC
  5
23F
330
A
100
AcDbEntity
  8
1
  6
Continuous
 62
     3
100
AcDbCircle
 10
99.80029239765999
 20
4071.64
 30
0.0
 40
0.5
100
AcDbArc
 50
90.0
 51
180.0
  0
ARC
  5
23E
330
A
100
AcDbEntity
  8
1
  6
Continuous
 62
     3
100
AcDbCircle
 10
52.304931887873
 20
4071.64
 30
0.0
 40
0.5
100
AcDbArc
 50
90.0
 51
180.0
  0
ARC
  5
23D
330
A
100
AcDbEntity
  8
1
  6
Continuous
 62
     3
100
AcDbCircle
 10
52.304931887873
 20
4070.24
 30
0.0
 40
0.5
100
AcDbArc
 50
180.0
 51
-90.0
  0
ARC
  5
23C
330
A
100
AcDbEntity
  8
1
  6
Continuous
 62
     3
100
AcDbCircle
 10
60.304931887873
 20
4070.24
 30
0.0
 40
0.5
100
AcDbArc
 50
-90.0
 51
0.0
  0
ARC
  5
23B
330
A
100
AcDbEntity
  8
1
  6
Continuous
 62
     3
100
AcDbCircle
 10
60.304931887873
 20
4071.64
 30
0.0
 40
0.5
100
AcDbArc
 50
0.0
 51
90.0
  0
ARC
  5
23A
330
A
100
AcDbEntity
  8
1
  6
Continuous
 62
     3
100
AcDbCircle
 10
7.170428963897
 20
4071.64
 30
0.0
 40
0.5
100
AcDbArc
 50
0.0
 51
90.0
  0
ARC
  5
239
330
A
100
AcDbEntity
  8
1
  6
Continuous
 62
     3
100
AcDbCircle
 10
7.170428963897
 20
4070.24
 30
0.0
 40
0.5
100
AcDbArc
 50
-90.0
 51
0.0
  0
ARC
  5
238
330
A
100
AcDbEntity
  8
1
  6
Continuous
 62
     3
100
AcDbCircle
 10
-0.829571036103
 20
4070.24
 30
0.0
 40
0.5
100
AcDbArc
 50
180.0
 51
-90.0
  0
ARC
  5
237
330
A
100
AcDbEntity
  8
1
  6
Continuous
 62
     3
100
AcDbCircle
 10
-0.829571036103
 20
4071.64
 30
0.0
 40
0.5
100
AcDbArc
 50
90.0
 51
180.0
  0
CIRCLE
  5
236
330
A
100
AcDbEntity
  8
1
  6
Continuous
 62
     6
100
AcDbCircle
 10
136.80029239766
 20
4135.69438596491
 30
0.0
 40
5.75
  0
CIRCLE
  5
235
330
A
100
AcDbEntity
  8
1
  6
Continuous
 62
     3
100
AcDbCircle
 10
136.80029239766
 20
4135.69438596491
 30
0.0
 40
5.25
  0
CIRCLE
  5
234
330
A
100
AcDbEntity
  8
1
  6
Continuous
 62
     3
100
AcDbCircle
 10
136.80029239766
 20
4135.69438596491
 30
0.0
 40
5.0
  0
CIRCLE
  5
233
330
A
100
AcDbEntity
  8
1
  6
Continuous
 62
     3
100
AcDbCircle
 10
136.80029239766
 20
4135.69438596491
 30
0.0
 40
1.25
  0
CIRCLE
  5
232
330
A
100
AcDbEntity
  8
1
  6
Continuous
 62
     3
100
AcDbCircle
 10
136.80029239766
 20
4135.69438596491
 30
0.0
 40
2.5
  0
CIRCLE
  5
231
330
A
100
AcDbEntity
  8
1
  6
Continuous
 62
     3
100
AcDbCircle
 10
149.30029239766
 20
4092.239999999999
 30
0.0
 40
3.5
  0
CIRCLE
  5
230
330
A
100
AcDbEntity
  8
1
  6
Continuous
 62
     3
100
AcDbCircle
 10
149.30029239766
 20
4092.239999999999
 30
0.0
 40
6.0
  0
CIRCLE
  5
22F
330
A
100
AcDbEntity
  8
1
  6
Continuous
 62
     1
100
AcDbCircle
 10
149.30029239766
 20
4092.239999999999
 30
0.0
 40
4.5
  0
CIRCLE
  5
22E
330
A
100
AcDbEntity
  8
1
  6
Continuous
 62
     1
100
AcDbCircle
 10
149.30029239766
 20
4092.239999999999
 30
0.0
 40
7.854101966248999
  0
CIRCLE
  5
22D
330
A
100
AcDbEntity
  8
1
  6
Continuous
 62
     3
100
AcDbCircle
 10
124.30029239766
 20
4092.239999999999
 30
0.0
 40
9.0
  0
CIRCLE
  5
22C
330
A
100
AcDbEntity
  8
1
  6
Continuous
 62
     1
100
AcDbCircle
 10
124.30029239766
 20
4092.239999999999
 30
0.0
 40
7.854101966248999
  0
CIRCLE
  5
22B
330
A
100
AcDbEntity
  8
1
  6
Continuous
 62
     1
100
AcDbCircle
 10
124.30029239766
 20
4092.239999999999
 30
0.0
 40
4.5
  0
CIRCLE
  5
22A
330
A
100
AcDbEntity
  8
1
  6
Continuous
 62
     3
100
AcDbCircle
 10
124.30029239766
 20
4092.239999999999
 30
0.0
 40
6.0
  0
CIRCLE
  5
229
330
A
100
AcDbEntity
  8
1
  6
Continuous
 62
     3
100
AcDbCircle
 10
124.30029239766
 20
4092.239999999999
 30
0.0
 40
3.5
  0
CIRCLE
  5
228
330
A
100
AcDbEntity
  8
1
  6
DOTTED
 62
     1
100
AcDbCircle
 10
56.304931887873
 20
4049.24
 30
0.0
 40
4.0
  0
CIRCLE
  5
227
330
A
100
AcDbEntity
  8
1
  6
DOTTED
 62
     1
100
AcDbCircle
 10
56.304931887873
 20
4062.24
 30
0.0
 40
4.0
  0
CIRCLE
  5
226
330
A
100
AcDbEntity
  8
1
  6
DOTTED
 62
     1
100
AcDbCircle
 10
3.170428963896999
 20
4062.24
 30
0.0
 40
4.0
  0
CIRCLE
  5
225
330
A
100
AcDbEntity
  8
1
  6
DOTTED
 62
     1
100
AcDbCircle
 10
3.170428963896999
 20
4049.24
 30
0.0
 40
4.0
  0
ARC
  5
224
330
A
100
AcDbEntity
  8
1
  6
Continuous
 62
     3
100
AcDbCircle
 10
56.304931887873
 20
4034.239999999999
 30
0.0
 40
7.9
100
AcDbArc
 50
180.0
 51
0.0
  0
ARC
  5
223
330
A
100
AcDbEntity
  8
1
  6
Continuous
 62
     3
100
AcDbCircle
 10
153.800292397659
 20
4126.694385964911
 30
0.0
 40
4.5
100
AcDbArc
 50
-41.810314895778
 51
41.810314895778
  0
ARC
  5
222
330
A
100
AcDbEntity
  8
1
  6
Continuous
 62
     3
100
AcDbCircle
 10
144.80029239766
 20
4126.694385964911
 30
0.0
 40
4.5
100
AcDbArc
 50
165.85099549106
 51
-138.189685104221
  0
ARC
  5
221
330
A
100
AcDbEntity
  8
1
  6
Continuous
 62
     3
100
AcDbCircle
 10
144.80029239766
 20
4144.694385964911
 30
0.0
 40
4.5
100
AcDbArc
 50
-165.850995491071
 51
-138.189685104222
  0
ARC
  5
220
330
A
100
AcDbEntity
  8
1
  6
Continuous
 62
     3
100
AcDbCircle
 10
153.800292397659
 20
4144.694385964911
 30
0.0
 40
4.5
100
AcDbArc
 50
-41.810314895778
 51
41.810314895778
  0
ARC
  5
21F
330
A
100
AcDbEntity
  8
1
  6
Continuous
 62
     3
100
AcDbCircle
 10
119.800292397661
 20
4144.694385964911
 30
0.0
 40
4.5
100
AcDbArc
 50
-165.850995491072
 51
-138.189685104222
  0
ARC
  5
21E
330
A
100
AcDbEntity
  8
1
  6
Continuous
 62
     3
100
AcDbCircle
 10
128.80029239766
 20
4144.694385964911
 30
0.0
 40
4.5
100
AcDbArc
 50
-14.149004508928
 51
41.810314895778
  0
ARC
  5
21D
330
A
100
AcDbEntity
  8
1
  6
Continuous
 62
     3
100
AcDbCircle
 10
128.80029239766
 20
4126.694385964911
 30
0.0
 40
4.5
100
AcDbArc
 50
14.149004508939
 51
41.810314895778
  0
ARC
  5
21C
330
A
100
AcDbEntity
  8
1
  6
Continuous
 62
     3
100
AcDbCircle
 10
119.800292397661
 20
4126.694385964911
 30
0.0
 40
4.5
100
AcDbArc
 50
165.850995491061
 51
-138.189685104222
  0
ARC
  5
21B
330
A
100
AcDbEntity
  8
1
  6
Continuous
 62
     3
100
AcDbCircle
 10
136.80029239766
 20
4135.69438596491
 30
0.0
 40
6.999999999998999
100
AcDbArc
 50
-126.869897645851
 51
-53.130102354149
  0
ARC
  5
21A
330
A
100
AcDbEntity
  8
1
  6
Continuous
 62
     3
100
AcDbCircle
 10
136.80029239766
 20
4135.69438596491
 30
0.0
 40
7.0
100
AcDbArc
 50
53.130102354156
 51
126.869897645842
  0
ARC
  5
219
330
A
100
AcDbEntity
  8
1
  6
Continuous
 62
     3
100
AcDbCircle
 10
56.304931887873
 20
4092.74
 30
0.0
 40
2.0
100
AcDbArc
 50
180.0
 51
0.0
  0
ARC
  5
218
330
A
100
AcDbEntity
  8
1
  6
Continuous
 62
     3
100
AcDbCircle
 10
149.30029239766
 20
4092.239999999999
 30
0.0
 40
9.0
100
AcDbArc
 50
-142.330113035668
 51
133.76174269268
  0
ARC
  5
217
330
A
100
AcDbEntity
  8
1
  6
Continuous
 62
     3
100
AcDbCircle
 10
149.30029239766
 20
4092.239999999999
 30
0.0
 40
9.0
100
AcDbArc
 50
133.76174269268
 51
-142.330113035668
  0
ARC
  5
216
330
A
100
AcDbEntity
  8
1
  6
Continuous
 62
     3
100
AcDbCircle
 10
65.304931887873
 20
4096.739999999999
 30
0.0
 40
4.5
100
AcDbArc
 50
48.189685104222
 51
131.810314895777
  0
ARC
  5
215
330
A
100
AcDbEntity
  8
1
  6
Continuous
 62
     3
100
AcDbCircle
 10
65.304931887873
 20
4087.740000000001
 30
0.0
 40
4.5
100
AcDbArc
 50
-131.810314895773
 51
-48.189685104226
  0
ARC
  5
214
330
A
100
AcDbEntity
  8
1
  6
Continuous
 62
     3
100
AcDbCircle
 10
47.304931887873
 20
4087.740000000001
 30
0.0
 40
4.5
100
AcDbArc
 50
-131.810314895773
 51
-48.189685104226
  0
ARC
  5
213
330
A
100
AcDbEntity
  8
1
  6
Continuous
 62
     3
100
AcDbCircle
 10
47.304931887873
 20
4096.739999999999
 30
0.0
 40
4.5
100
AcDbArc
 50
48.189685104222
 51
131.810314895777
  0
ARC
  5
212
330
A
100
AcDbEntity
  8
1
  6
Continuous
 62
     3
100
AcDbCircle
 10
119.800292397661
 20
4126.694385964911
 30
0.0
 40
4.5
100
AcDbArc
 50
138.189685104222
 51
165.850995491061
  0
ARC
  5
211
330
A
100
AcDbEntity
  8
1
  6
Continuous
 62
     3
100
AcDbCircle
 10
119.800292397661
 20
4144.694385964911
 30
0.0
 40
4.5
100
AcDbArc
 50
138.189685104222
 51
-165.850995491072
  0
ARC
  5
210
330
A
100
AcDbEntity
  8
1
  6
Continuous
 62
     3
100
AcDbCircle
 10
144.80029239766
 20
4144.694385964911
 30
0.0
 40
4.5
100
AcDbArc
 50
138.189685104222
 51
-165.850995491071
  0
ARC
  5
20F
330
A
100
AcDbEntity
  8
1
  6
Continuous
 62
     3
100
AcDbCircle
 10
128.80029239766
 20
4144.694385964911
 30
0.0
 40
4.5
100
AcDbArc
 50
-41.810314895778
 51
-14.149004508928
  0
ARC
  5
20E
330
A
100
AcDbEntity
  8
1
  6
Continuous
 62
     3
100
AcDbCircle
 10
144.80029239766
 20
4126.694385964911
 30
0.0
 40
4.5
100
AcDbArc
 50
138.189685104222
 51
165.85099549106
  0
ARC
  5
20D
330
A
100
AcDbEntity
  8
1
  6
Continuous
 62
     3
100
AcDbCircle
 10
128.80029239766
 20
4126.694385964911
 30
0.0
 40
4.5
100
AcDbArc
 50
-41.810314895778
 51
14.149004508939
  0
ARC
  5
20C
330
A
100
AcDbEntity
  8
1
  6
Continuous
 62
     4
100
AcDbCircle
 10
12.170428963897
 20
4087.740000000001
 30
0.0
 40
4.5
100
AcDbArc
 50
-48.189685104226
 51
-27.266044450736
  0
ARC
  5
20B
330
A
100
AcDbEntity
  8
1
  6
Continuous
 62
     3
100
AcDbCircle
 10
12.170428963897
 20
4096.739999999999
 30
0.0
 40
4.5
100
AcDbArc
 50
48.189685104222
 51
131.810314895777
  0
ARC
  5
20A
330
A
100
AcDbEntity
  8
1
  6
Continuous
 62
     3
100
AcDbCircle
 10
3.170428963896999
 20
4092.74
 30
0.0
 40
2.0
100
AcDbArc
 50
180.0
 51
0.0
  0
ARC
  5
209
330
A
100
AcDbEntity
  8
1
  6
Continuous
 62
     3
100
AcDbCircle
 10
3.170428963896999
 20
4034.239999999999
 30
0.0
 40
7.9
100
AcDbArc
 50
180.0
 51
0.0
  0
ARC
  5
208
330
A
100
AcDbEntity
  8
1
  6
Continuous
 62
     4
100
AcDbCircle
 10
12.170428963897
 20
4098.239999999999
 30
0.0
 40
4.5
100
AcDbArc
 50
27.266044450736
 51
90.0
  0
ARC
  5
207
330
A
100
AcDbEntity
  8
1
  6
Continuous
 62
     3
100
AcDbCircle
 10
12.170428963897
 20
4087.740000000001
 30
0.0
 40
4.5
100
AcDbArc
 50
-131.810314895773
 51
-48.189685104226
  0
ARC
  5
206
330
A
100
AcDbEntity
  8
1
  6
Continuous
 62
     4
100
AcDbCircle
 10
12.170428963897
 20
4087.740000000001
 30
0.0
 40
6.5
100
AcDbArc
 50
-114.624318352163
 51
-32.204227503975
  0
ARC
  5
205
330
A
100
AcDbEntity
  8
1
  6
Continuous
 62
     4
100
AcDbCircle
 10
-5.829571036102999
 20
4087.740000000001
 30
0.0
 40
6.5
100
AcDbArc
 50
-147.795772496025
 51
-65.375681647836
  0
ARC
  5
204
330
A
100
AcDbEntity
  8
1
  6
Continuous
 62
     3
100
AcDbCircle
 10
-5.829571036102999
 20
4087.740000000001
 30
0.0
 40
4.5
100
AcDbArc
 50
-131.810314895773
 51
-48.189685104226
  0
ARC
  5
203
330
A
100
AcDbEntity
  8
1
  6
Continuous
 62
     4
100
AcDbCircle
 10
-5.829571036102999
 20
4098.239999999999
 30
0.0
 40
4.500000000002
100
AcDbArc
 50
90.0
 51
152.733955549263
  0
ARC
  5
202
330
A
100
AcDbEntity
  8
1
  6
Continuous
 62
     3
100
AcDbCircle
 10
-5.829571036102999
 20
4096.739999999999
 30
0.0
 40
4.5
100
AcDbArc
 50
48.189685104223
 51
131.810314895777
  0
ARC
  5
201
330
A
100
AcDbEntity
  8
1
  6
Continuous
 62
     4
100
AcDbCircle
 10
-5.829571036102999
 20
4087.740000000001
 30
0.0
 40
4.5
100
AcDbArc
 50
-152.733955549263
 51
-131.810314895773
  0
ARC
  5
200
330
A
100
AcDbEntity
  8
1
  6
DOTTED
 62
     1
100
AcDbCircle
 10
54.304931887873
 20
4049.24
 30
0.0
 40
4.0
100
AcDbArc
 50
90.0
 51
-90.0
  0
ARC
  5
1FF
330
A
100
AcDbEntity
  8
1
  6
DOTTED
 62
     1
100
AcDbCircle
 10
58.30493188787301
 20
4049.24
 30
0.0
 40
4.0
100
AcDbArc
 50
-90.0
 51
90.0
  0
ARC
  5
1FE
330
A
100
AcDbEntity
  8
1
  6
DOTTED
 62
     1
100
AcDbCircle
 10
56.304931887873
 20
4049.24
 30
0.0
 40
1.399999999999999
100
AcDbArc
 50
20.924832427637
 51
69.07516757236099
  0
ARC
  5
1FD
330
A
100
AcDbEntity
  8
1
  6
DOTTED
 62
     1
100
AcDbCircle
 10
56.304931887873
 20
4049.24
 30
0.0
 40
1.399999999999999
100
AcDbArc
 50
-69.075167572354
 51
-20.924832427639
  0
ARC
  5
1FC
330
A
100
AcDbEntity
  8
1
  6
DOTTED
 62
     1
100
AcDbCircle
 10
56.304931887873
 20
4049.24
 30
0.0
 40
1.399999999999999
100
AcDbArc
 50
-159.0751675723609
 51
-110.924832427645
  0
ARC
  5
1FB
330
A
100
AcDbEntity
  8
1
  6
DOTTED
 62
     1
100
AcDbCircle
 10
56.304931887873
 20
4049.24
 30
0.0
 40
1.399999999999999
100
AcDbArc
 50
110.924832427639
 51
159.075167572362
  0
ARC
  5
1FA
330
A
100
AcDbEntity
  8
1
  6
DOTTED
 62
     1
100
AcDbCircle
 10
56.304931887873
 20
4062.24
 30
0.0
 40
1.399999999999999
100
AcDbArc
 50
20.924832427637
 51
69.07516757236099
  0
ARC
  5
1F9
330
A
100
AcDbEntity
  8
1
  6
DOTTED
 62
     1
100
AcDbCircle
 10
56.304931887873
 20
4062.24
 30
0.0
 40
1.399999999999999
100
AcDbArc
 50
-69.075167572354
 51
-20.924832427639
  0
ARC
  5
1F8
330
A
100
AcDbEntity
  8
1
  6
DOTTED
 62
     1
100
AcDbCircle
 10
56.304931887873
 20
4062.24
 30
0.0
 40
1.399999999999999
100
AcDbArc
 50
-159.0751675723609
 51
-110.924832427645
  0
ARC
  5
1F7
330
A
100
AcDbEntity
  8
1
  6
DOTTED
 62
     1
100
AcDbCircle
 10
56.304931887873
 20
4062.24
 30
0.0
 40
1.399999999999999
100
AcDbArc
 50
110.924832427639
 51
159.075167572362
  0
ARC
  5
1F6
330
A
100
AcDbEntity
  8
1
  6
DOTTED
 62
     1
100
AcDbCircle
 10
3.170428963896999
 20
4062.24
 30
0.0
 40
1.399999999999999
100
AcDbArc
 50
110.924832427639
 51
159.075167572363
  0
ARC
  5
1F5
330
A
100
AcDbEntity
  8
1
  6
DOTTED
 62
     1
100
AcDbCircle
 10
3.170428963896999
 20
4062.24
 30
0.0
 40
1.399999999999999
100
AcDbArc
 50
-159.0751675723609
 51
-110.924832427645
  0
ARC
  5
1F4
330
A
100
AcDbEntity
  8
1
  6
DOTTED
 62
     1
100
AcDbCircle
 10
3.170428963896999
 20
4062.24
 30
0.0
 40
1.399999999999999
100
AcDbArc
 50
-69.075167572354
 51
-20.924832427639
  0
ARC
  5
1F3
330
A
100
AcDbEntity
  8
1
  6
DOTTED
 62
     1
100
AcDbCircle
 10
3.170428963896999
 20
4062.24
 30
0.0
 40
1.399999999999999
100
AcDbArc
 50
20.924832427637
 51
69.07516757236099
  0
ARC
  5
1F2
330
A
100
AcDbEntity
  8
1
  6
DOTTED
 62
     1
100
AcDbCircle
 10
3.170428963896999
 20
4049.24
 30
0.0
 40
1.399999999999999
100
AcDbArc
 50
110.924832427639
 51
159.075167572363
  0
ARC
  5
1F1
330
A
100
AcDbEntity
  8
1
  6
DOTTED
 62
     1
100
AcDbCircle
 10
3.170428963896999
 20
4049.24
 30
0.0
 40
1.399999999999999
100
AcDbArc
 50
-159.0751675723609
 51
-110.924832427645
  0
ARC
  5
1F0
330
A
100
AcDbEntity
  8
1
  6
DOTTED
 62
     1
100
AcDbCircle
 10
3.170428963896999
 20
4049.24
 30
0.0
 40
1.399999999999999
100
AcDbArc
 50
-69.075167572354
 51
-20.924832427639
  0
ARC
  5
1EF
330
A
100
AcDbEntity
  8
1
  6
DOTTED
 62
     1
100
AcDbCircle
 10
3.170428963896999
 20
4049.24
 30
0.0
 40
1.399999999999999
100
AcDbArc
 50
20.924832427637
 51
69.07516757236099
  0
ARC
  5
1EE
330
A
100
AcDbEntity
  8
1
  6
DOTTED
 62
     1
100
AcDbCircle
 10
5.170428963896999
 20
4049.24
 30
0.0
 40
4.0
100
AcDbArc
 50
-90.0
 51
90.0
  0
ARC
  5
1ED
330
A
100
AcDbEntity
  8
1
  6
DOTTED
 62
     1
100
AcDbCircle
 10
1.170428963897
 20
4049.24
 30
0.0
 40
4.0
100
AcDbArc
 50
90.0
 51
-90.0
  0
LINE
  5
1EC
330
A
100
AcDbEntity
  8
1
  6
Continuous
 62
     3
100
AcDbLine
 10
107.95029239766
 20
4035.989999999999
 30
0.0
 11
106.60029239766
 21
4037.34
 31
0.0
  0
LINE
  5
1EB
330
A
100
AcDbEntity
  8
1
  6
Continuous
 62
     3
100
AcDbLine
 10
109.30029239766
 20
4037.34
 30
0.0
 11
107.95029239766
 21
4035.989999999999
 31
0.0
  0
LINE
  5
1EA
330
A
100
AcDbEntity
  8
1
  6
Continuous
 62
     3
100
AcDbLine
 10
109.30029239766
 20
4039.74
 30
0.0
 11
109.30029239766
 21
4037.34
 31
0.0
  0
LINE
  5
1E9
330
A
100
AcDbEntity
  8
1
  6
Continuous
 62
     3
100
AcDbLine
 10
99.80029239765999
 20
4039.74
 30
0.0
 11
109.30029239766
 21
4039.74
 31
0.0
  0
LINE
  5
1E8
330
A
100
AcDbEntity
  8
1
  6
Continuous
 62
     3
100
AcDbLine
 10
106.30029239766
 20
4042.239999999999
 30
0.0
 11
122.80029239766
 21
4042.239999999999
 31
0.0
  0
LINE
  5
1E7
330
A
100
AcDbEntity
  8
1
  6
Continuous
 62
     3
100
AcDbLine
 10
106.30029239766
 20
4042.239999999999
 30
0.0
 11
106.30029239766
 21
4040.739999999999
 31
0.0
  0
LINE
  5
1E6
330
A
100
AcDbEntity
  8
1
  6
Continuous
 62
     3
100
AcDbLine
 10
99.80029239765999
 20
4040.739999999999
 30
0.0
 11
106.30029239766
 21
4040.739999999999
 31
0.0
  0
LINE
  5
1E5
330
A
100
AcDbEntity
  8
1
  6
Continuous
 62
     3
100
AcDbLine
 10
101.80029239766
 20
4074.239999999999
 30
0.0
 11
139.30029239766
 21
4074.239999999999
 31
0.0
  0
LINE
  5
1E4
330
A
100
AcDbEntity
  8
1
  6
Continuous
 62
     3
100
AcDbLine
 10
122.80029239766
 20
4041.24
 30
0.0
 11
144.80029239766
 21
4041.24
 31
0.0
  0
LINE
  5
1E3
330
A
100
AcDbEntity
  8
1
  6
Continuous
 62
     3
100
AcDbLine
 10
122.80029239766
 20
4042.239999999999
 30
0.0
 11
122.80029239766
 21
4041.24
 31
0.0
  0
LINE
  5
1E2
330
A
100
AcDbEntity
  8
1
  6
Continuous
 62
     3
100
AcDbLine
 10
99.80029239765999
 20
4042.239999999999
 30
0.0
 11
106.30029239766
 21
4042.239999999999
 31
0.0
  0
LINE
  5
1E1
330
A
100
AcDbEntity
  8
1
  6
Continuous
 62
     3
100
AcDbLine
 10
96.80029239766
 20
4074.239999999999
 30
0.0
 11
101.80029239766
 21
4074.239999999999
 31
0.0
  0
LINE
  5
1E0
330
A
100
AcDbEntity
  8
1
  6
Continuous
 62
     3
100
AcDbLine
 10
102.80029239766
 20
4037.34
 30
0.0
 11
101.80029239766
 21
4036.34
 31
0.0
  0
LINE
  5
1DF
330
A
100
AcDbEntity
  8
1
  6
Continuous
 62
     3
100
AcDbLine
 10
112.30029239766
 20
4034.239999999999
 30
0.0
 11
112.30029239766
 21
4041.24
 31
0.0
  0
LINE
  5
1DE
330
A
100
AcDbEntity
  8
1
  6
Continuous
 62
     3
100
AcDbLine
 10
106.60029239766
 20
4034.239999999999
 30
0.0
 11
106.60029239766
 21
4033.24
 31
0.0
  0
LINE
  5
1DD
330
A
100
AcDbEntity
  8
1
  6
Continuous
 62
     3
100
AcDbLine
 10
106.60029239766
 20
4034.239999999999
 30
0.0
 11
112.30029239766
 21
4034.239999999999
 31
0.0
  0
LINE
  5
1DC
330
A
100
AcDbEntity
  8
1
  6
Continuous
 62
     3
100
AcDbLine
 10
112.30029239766
 20
4033.24
 30
0.0
 11
112.30029239766
 21
4034.239999999999
 31
0.0
  0
LINE
  5
1DB
330
A
100
AcDbEntity
  8
1
  6
Continuous
 62
     3
100
AcDbLine
 10
106.60029239766
 20
4033.24
 30
0.0
 11
112.30029239766
 21
4033.24
 31
0.0
  0
LINE
  5
1DA
330
A
100
AcDbEntity
  8
1
  6
Continuous
 62
     3
100
AcDbLine
 10
106.60029239766
 20
4037.34
 30
0.0
 11
106.60029239766
 21
4034.239999999999
 31
0.0
  0
LINE
  5
1D9
330
A
100
AcDbEntity
  8
1
  6
Continuous
 62
     3
100
AcDbLine
 10
99.80029239765999
 20
4037.34
 30
0.0
 11
106.60029239766
 21
4037.34
 31
0.0
  0
LINE
  5
1D8
330
A
100
AcDbEntity
  8
1
  6
Continuous
 62
     3
100
AcDbLine
 10
133.80029239766
 20
4052.94
 30
0.0
 11
133.80029239766
 21
4043.139999999999
 31
0.0
  0
LINE
  5
1D7
330
A
100
AcDbEntity
  8
1
  6
Continuous
 62
     1
100
AcDbLine
 10
134.80029239766
 20
4052.94
 30
0.0
 11
134.80029239766
 21
4043.139999999999
 31
0.0
  0
LINE
  5
1D6
330
A
100
AcDbEntity
  8
1
  6
Continuous
 62
     1
100
AcDbLine
 10
138.80029239766
 20
4052.94
 30
0.0
 11
138.80029239766
 21
4043.139999999999
 31
0.0
  0
LINE
  5
1D5
330
A
100
AcDbEntity
  8
1
  6
Continuous
 62
     3
100
AcDbLine
 10
139.80029239766
 20
4052.94
 30
0.0
 11
139.80029239766
 21
4043.139999999999
 31
0.0
  0
LINE
  5
1D4
330
A
100
AcDbEntity
  8
1
  6
Continuous
 62
     1
100
AcDbLine
 10
131.80029239766
 20
4054.59
 30
0.0
 11
131.80029239766
 21
4043.89
 31
0.0
  0
LINE
  5
1D3
330
A
100
AcDbEntity
  8
1
  6
Continuous
 62
     1
100
AcDbLine
 10
131.45029239766
 20
4054.44
 30
0.0
 11
142.15029239766
 21
4054.44
 31
0.0
  0
LINE
  5
1D2
330
A
100
AcDbEntity
  8
1
  6
Continuous
 62
     3
100
AcDbLine
 10
131.80029239766
 20
4043.89
 30
0.0
 11
133.30029239766
 21
4045.39
 31
0.0
  0
LINE
  5
1D1
330
A
100
AcDbEntity
  8
1
  6
Continuous
 62
     3
100
AcDbLine
 10
133.30029239766
 20
4053.09
 30
0.0
 11
131.80029239766
 21
4054.59
 31
0.0
  0
LINE
  5
1D0
330
A
100
AcDbEntity
  8
1
  6
Continuous
 62
     3
100
AcDbLine
 10
132.95029239766
 20
4052.94
 30
0.0
 11
131.45029239766
 21
4054.44
 31
0.0
  0
LINE
  5
1CF
330
A
100
AcDbEntity
  8
1
  6
Continuous
 62
     3
100
AcDbLine
 10
142.15029239766
 20
4054.44
 30
0.0
 11
140.65029239766
 21
4052.94
 31
0.0
  0
LINE
  5
1CE
330
A
100
AcDbEntity
  8
1
  6
Continuous
 62
     3
100
AcDbLine
 10
129.80029239766
 20
4043.89
 30
0.0
 11
129.80029239766
 21
4042.44
 31
0.0
  0
LINE
  5
1CD
330
A
100
AcDbEntity
  8
1
  6
Continuous
 62
     3
100
AcDbLine
 10
131.80029239766
 20
4043.89
 30
0.0
 11
129.80029239766
 21
4043.89
 31
0.0
  0
LINE
  5
1CC
330
A
100
AcDbEntity
  8
1
  6
Continuous
 62
     3
100
AcDbLine
 10
133.30029239766
 20
4053.09
 30
0.0
 11
133.30029239766
 21
4045.39
 31
0.0
  0
LINE
  5
1CB
330
A
100
AcDbEntity
  8
1
  6
Continuous
 62
     3
100
AcDbLine
 10
129.80029239766
 20
4054.59
 30
0.0
 11
129.80029239766
 21
4043.89
 31
0.0
  0
LINE
  5
1CA
330
A
100
AcDbEntity
  8
1
  6
Continuous
 62
     3
100
AcDbLine
 10
129.80029239766
 20
4054.59
 30
0.0
 11
131.80029239766
 21
4054.59
 31
0.0
  0
LINE
  5
1C9
330
A
100
AcDbEntity
  8
1
  6
Continuous
 62
     3
100
AcDbLine
 10
142.15029239766
 20
4056.44
 30
0.0
 11
131.45029239766
 21
4056.44
 31
0.0
  0
LINE
  5
1C8
330
A
100
AcDbEntity
  8
1
  6
Continuous
 62
     3
100
AcDbLine
 10
142.15029239766
 20
4054.44
 30
0.0
 11
142.15029239766
 21
4056.44
 31
0.0
  0
LINE
  5
1C7
330
A
100
AcDbEntity
  8
1
  6
Continuous
 62
     3
100
AcDbLine
 10
132.95029239766
 20
4052.94
 30
0.0
 11
140.65029239766
 21
4052.94
 31
0.0
  0
LINE
  5
1C6
330
A
100
AcDbEntity
  8
1
  6
Continuous
 62
     3
100
AcDbLine
 10
131.45029239766
 20
4056.44
 30
0.0
 11
130.80029239766
 21
4056.44
 31
0.0
  0
LINE
  5
1C5
330
A
100
AcDbEntity
  8
1
  6
Continuous
 62
     3
100
AcDbLine
 10
131.45029239766
 20
4056.44
 30
0.0
 11
131.45029239766
 21
4054.44
 31
0.0
  0
LINE
  5
1C4
330
A
100
AcDbEntity
  8
1
  6
Continuous
 62
     3
100
AcDbLine
 10
142.80029239766
 20
4056.44
 30
0.0
 11
142.80029239766
 21
4059.44
 31
0.0
  0
LINE
  5
1C3
330
A
100
AcDbEntity
  8
1
  6
Continuous
 62
     3
100
AcDbLine
 10
142.80029239766
 20
4056.44
 30
0.0
 11
142.15029239766
 21
4056.44
 31
0.0
  0
LINE
  5
1C2
330
A
100
AcDbEntity
  8
1
  6
Continuous
 62
     3
100
AcDbLine
 10
129.80029239766
 20
4055.439999999999
 30
0.0
 11
129.80029239766
 21
4054.59
 31
0.0
  0
LINE
  5
1C1
330
A
100
AcDbEntity
  8
1
  6
Continuous
 62
     3
100
AcDbLine
 10
141.80029239766
 20
4060.439999999999
 30
0.0
 11
130.80029239766
 21
4060.439999999999
 31
0.0
  0
LINE
  5
1C0
330
A
100
AcDbEntity
  8
1
  6
Continuous
 62
     3
100
AcDbLine
 10
142.80029239766
 20
4044.139999999998
 30
0.0
 11
142.80029239766
 21
4056.44
 31
0.0
  0
LINE
  5
1BF
330
A
100
AcDbEntity
  8
1
  6
Continuous
 62
     3
100
AcDbLine
 10
129.80029239766
 20
4043.139999999999
 30
0.0
 11
141.80029239766
 21
4043.139999999999
 31
0.0
  0
LINE
  5
1BE
330
A
100
AcDbEntity
  8
1
  6
Continuous
 62
     3
100
AcDbLine
 10
125.80029239766
 20
4043.44
 30
0.0
 11
125.80029239766
 21
4069.239999999999
 31
0.0
  0
LINE
  5
1BD
330
A
100
AcDbEntity
  8
1
  6
Continuous
 62
     3
100
AcDbLine
 10
129.80029239766
 20
4042.44
 30
0.0
 11
126.80029239766
 21
4042.44
 31
0.0
  0
LINE
  5
1BC
330
A
100
AcDbEntity
  8
1
  6
Continuous
 62
     3
100
AcDbLine
 10
129.80029239766
 20
4069.239999999999
 30
0.0
 11
129.80029239766
 21
4061.44
 31
0.0
  0
LINE
  5
1BB
330
A
100
AcDbEntity
  8
1
  6
Continuous
 62
     3
100
AcDbLine
 10
126.80029239766
 20
4070.24
 30
0.0
 11
128.80029239766
 21
4070.24
 31
0.0
  0
LINE
  5
1BA
330
A
100
AcDbEntity
  8
1
  6
Continuous
 62
     3
100
AcDbLine
 10
105.80029239766
 20
4055.74
 30
0.0
 11
105.80029239766
 21
4068.74
 31
0.0
  0
LINE
  5
1B9
330
A
100
AcDbEntity
  8
1
  6
Continuous
 62
     3
100
AcDbLine
 10
121.30029239766
 20
4055.24
 30
0.0
 11
106.30029239766
 21
4055.24
 31
0.0
  0
LINE
  5
1B8
330
A
100
AcDbEntity
  8
1
  6
Continuous
 62
     3
100
AcDbLine
 10
121.80029239766
 20
4068.74
 30
0.0
 11
121.80029239766
 21
4055.74
 31
0.0
  0
LINE
  5
1B7
330
A
100
AcDbEntity
  8
1
  6
Continuous
 62
     3
100
AcDbLine
 10
106.30029239766
 20
4069.239999999999
 30
0.0
 11
121.30029239766
 21
4069.239999999999
 31
0.0
  0
LINE
  5
1B6
330
A
100
AcDbEntity
  8
1
  6
DOTTED
 62
     1
100
AcDbLine
 10
119.80029239766
 20
4027.239999999999
 30
0.0
 11
123.80029239766
 21
4027.239999999999
 31
0.0
  0
LINE
  5
1B5
330
A
100
AcDbEntity
  8
1
  6
DOT_CENTER
 62
     1
100
AcDbLine
 10
121.80029239766
 20
4033.26744332015
 30
0.0
 11
121.80029239766
 21
4004.048469960826
 31
0.0
  0
LINE
  5
1B4
330
A
100
AcDbEntity
  8
1
  6
DOTTED
 62
     1
100
AcDbLine
 10
125.80029239766
 20
4029.24
 30
0.0
 11
117.80029239766
 21
4029.24
 31
0.0
  0
LINE
  5
1B3
330
A
100
AcDbEntity
  8
1
  6
DOTTED
 62
     1
100
AcDbLine
 10
119.80029239766
 20
4027.239999999999
 30
0.0
 11
119.80029239766
 21
4026.24
 31
0.0
  0
LINE
  5
1B2
330
A
100
AcDbEntity
  8
1
  6
DOTTED
 62
     1
100
AcDbLine
 10
117.80029239766
 20
4029.24
 30
0.0
 11
119.80029239766
 21
4027.239999999999
 31
0.0
  0
LINE
  5
1B1
330
A
100
AcDbEntity
  8
1
  6
DOTTED
 62
     1
100
AcDbLine
 10
117.80029239766
 20
4029.24
 30
0.0
 11
117.80029239766
 21
4030.24
 31
0.0
  0
LINE
  5
1B0
330
A
100
AcDbEntity
  8
1
  6
DOTTED
 62
     1
100
AcDbLine
 10
123.80029239766
 20
4027.239999999999
 30
0.0
 11
123.80029239766
 21
4026.24
 31
0.0
  0
LINE
  5
1AF
330
A
100
AcDbEntity
  8
1
  6
DOTTED
 62
     1
100
AcDbLine
 10
125.80029239766
 20
4029.24
 30
0.0
 11
123.80029239766
 21
4027.239999999999
 31
0.0
  0
LINE
  5
1AE
330
A
100
AcDbEntity
  8
1
  6
DOTTED
 62
     1
100
AcDbLine
 10
125.80029239766
 20
4030.24
 30
0.0
 11
125.80029239766
 21
4029.24
 31
0.0
  0
LINE
  5
1AD
330
A
100
AcDbEntity
  8
1
  6
DOTTED
 62
     1
100
AcDbLine
 10
144.80029239766
 20
4030.24
 30
0.0
 11
112.30029239766
 21
4030.24
 31
0.0
  0
LINE
  5
1AC
330
A
100
AcDbEntity
  8
1
  6
DOTTED
 62
     1
100
AcDbLine
 10
144.80029239766
 20
4041.24
 30
0.0
 11
144.80029239766
 21
4030.24
 31
0.0
  0
LINE
  5
1AB
330
A
100
AcDbEntity
  8
1
  6
DOT_CENTER
 62
     1
100
AcDbLine
 10
141.77284907751
 20
4039.24
 30
0.0
 11
170.991822436834
 21
4039.24
 31
0.0
  0
LINE
  5
1AA
330
A
100
AcDbEntity
  8
1
  6
DOTTED
 62
     1
100
AcDbLine
 10
144.80029239766
 20
4043.239999999999
 30
0.0
 11
145.80029239766
 21
4043.239999999999
 31
0.0
  0
LINE
  5
1A9
330
A
100
AcDbEntity
  8
1
  6
DOTTED
 62
     1
100
AcDbLine
 10
145.80029239766
 20
4043.239999999999
 30
0.0
 11
145.80029239766
 21
4035.239999999999
 31
0.0
  0
LINE
  5
1A8
330
A
100
AcDbEntity
  8
1
  6
DOTTED
 62
     1
100
AcDbLine
 10
145.80029239766
 20
4035.239999999999
 30
0.0
 11
144.80029239766
 21
4035.239999999999
 31
0.0
  0
LINE
  5
1A7
330
A
100
AcDbEntity
  8
1
  6
DOTTED
 62
     1
100
AcDbLine
 10
145.80029239766
 20
4035.239999999999
 30
0.0
 11
147.80029239766
 21
4037.239999999999
 31
0.0
  0
LINE
  5
1A6
330
A
100
AcDbEntity
  8
1
  6
DOTTED
 62
     1
100
AcDbLine
 10
147.80029239766
 20
4037.239999999999
 30
0.0
 11
148.80029239766
 21
4037.239999999999
 31
0.0
  0
LINE
  5
1A5
330
A
100
AcDbEntity
  8
1
  6
DOTTED
 62
     1
100
AcDbLine
 10
145.80029239766
 20
4043.239999999999
 30
0.0
 11
147.80029239766
 21
4041.24
 31
0.0
  0
LINE
  5
1A4
330
A
100
AcDbEntity
  8
1
  6
DOTTED
 62
     1
100
AcDbLine
 10
147.80029239766
 20
4041.24
 30
0.0
 11
148.80029239766
 21
4041.24
 31
0.0
  0
LINE
  5
1A3
330
A
100
AcDbEntity
  8
1
  6
Continuous
 62
     3
100
AcDbLine
 10
147.80029239766
 20
4074.239999999999
 30
0.0
 11
148.80029239766
 21
4074.239999999999
 31
0.0
  0
LINE
  5
1A2
330
A
100
AcDbEntity
  8
1
  6
DOT_CENTER
 62
     1
100
AcDbLine
 10
141.77284907751
 20
4063.239999999999
 30
0.0
 11
170.991822436834
 21
4063.239999999999
 31
0.0
  0
LINE
  5
1A1
330
A
100
AcDbEntity
  8
1
  6
DOTTED
 62
     1
100
AcDbLine
 10
147.80029239766
 20
4065.24
 30
0.0
 11
148.80029239766
 21
4065.24
 31
0.0
  0
LINE
  5
1A0
330
A
100
AcDbEntity
  8
1
  6
DOTTED
 62
     1
100
AcDbLine
 10
145.80029239766
 20
4067.239999999999
 30
0.0
 11
147.80029239766
 21
4065.24
 31
0.0
  0
LINE
  5
19F
330
A
100
AcDbEntity
  8
1
  6
Continuous
 62
     3
100
AcDbLine
 10
148.80029239766
 20
4074.239999999999
 30
0.0
 11
148.80029239766
 21
4027.34
 31
0.0
  0
LINE
  5
19E
330
A
100
AcDbEntity
  8
1
  6
DOTTED
 62
     1
100
AcDbLine
 10
147.80029239766
 20
4061.24
 30
0.0
 11
148.80029239766
 21
4061.24
 31
0.0
  0
LINE
  5
19D
330
A
100
AcDbEntity
  8
1
  6
DOTTED
 62
     1
100
AcDbLine
 10
145.80029239766
 20
4059.239999999999
 30
0.0
 11
147.80029239766
 21
4061.24
 31
0.0
  0
LINE
  5
19C
330
A
100
AcDbEntity
  8
1
  6
DOTTED
 62
     1
100
AcDbLine
 10
145.80029239766
 20
4059.239999999999
 30
0.0
 11
144.80029239766
 21
4059.239999999999
 31
0.0
  0
LINE
  5
19B
330
A
100
AcDbEntity
  8
1
  6
DOTTED
 62
     1
100
AcDbLine
 10
145.80029239766
 20
4067.239999999999
 30
0.0
 11
145.80029239766
 21
4059.239999999999
 31
0.0
  0
LINE
  5
19A
330
A
100
AcDbEntity
  8
1
  6
DOTTED
 62
     1
100
AcDbLine
 10
144.80029239766
 20
4067.239999999999
 30
0.0
 11
145.80029239766
 21
4067.239999999999
 31
0.0
  0
LINE
  5
199
330
A
100
AcDbEntity
  8
1
  6
Continuous
 62
     3
100
AcDbLine
 10
140.30029239766
 20
4068.24
 30
0.0
 11
143.80029239766
 21
4068.24
 31
0.0
  0
LINE
  5
198
330
A
100
AcDbEntity
  8
1
  6
Continuous
 62
     3
100
AcDbLine
 10
139.30029239766
 20
4074.239999999999
 30
0.0
 11
147.80029239766
 21
4074.239999999999
 31
0.0
  0
LINE
  5
197
330
A
100
AcDbEntity
  8
1
  6
Continuous
 62
     3
100
AcDbLine
 10
139.30029239766
 20
4074.239999999999
 30
0.0
 11
139.30029239766
 21
4069.239999999999
 31
0.0
  0
LINE
  5
196
330
A
100
AcDbEntity
  8
1
  6
Continuous
 62
     3
100
AcDbLine
 10
144.80029239766
 20
4041.24
 30
0.0
 11
144.80029239766
 21
4067.239999999999
 31
0.0
  0
LINE
  5
195
330
A
100
AcDbEntity
  8
1
  6
Continuous
 62
     3
100
AcDbLine
 10
112.30029239766
 20
4041.24
 30
0.0
 11
122.80029239766
 21
4041.24
 31
0.0
  0
LINE
  5
194
330
A
100
AcDbEntity
  8
1
  6
Continuous
 62
     3
100
AcDbLine
 10
112.30029239766
 20
4030.24
 30
0.0
 11
112.30029239766
 21
4033.24
 31
0.0
  0
LINE
  5
193
330
A
100
AcDbEntity
  8
1
  6
Continuous
 62
     3
100
AcDbLine
 10
110.30029239766
 20
4028.239999999999
 30
0.0
 11
112.30029239766
 21
4030.24
 31
0.0
  0
LINE
  5
192
330
A
100
AcDbEntity
  8
1
  6
Continuous
 62
     3
100
AcDbLine
 10
107.80029239766
 20
4028.239999999999
 30
0.0
 11
110.30029239766
 21
4028.239999999999
 31
0.0
  0
LINE
  5
191
330
A
100
AcDbEntity
  8
1
  6
Continuous
 62
     3
100
AcDbLine
 10
107.50029239766
 20
4030.24
 30
0.0
 11
107.80029239766
 21
4028.239999999999
 31
0.0
  0
LINE
  5
190
330
A
100
AcDbEntity
  8
1
  6
Continuous
 62
     3
100
AcDbLine
 10
104.80029239766
 20
4030.24
 30
0.0
 11
107.50029239766
 21
4030.24
 31
0.0
  0
LINE
  5
18F
330
A
100
AcDbEntity
  8
1
  6
Continuous
 62
     3
100
AcDbLine
 10
104.80029239766
 20
4026.34
 30
0.0
 11
96.80029239766
 21
4026.34
 31
0.0
  0
LINE
  5
18E
330
A
100
AcDbEntity
  8
1
  6
Continuous
 62
     3
100
AcDbLine
 10
104.80029239766
 20
4026.34
 30
0.0
 11
104.80029239766
 21
4030.24
 31
0.0
  0
LINE
  5
18D
330
A
100
AcDbEntity
  8
1
  6
Continuous
 62
     3
100
AcDbLine
 10
101.80029239766
 20
4026.34
 30
0.0
 11
101.80029239766
 21
4030.24
 31
0.0
  0
LINE
  5
18C
330
A
100
AcDbEntity
  8
1
  6
Continuous
 62
     1
100
AcDbLine
 10
147.80029239766
 20
4026.34
 30
0.0
 11
147.80029239766
 21
4074.239999999999
 31
0.0
  0
LINE
  5
18B
330
A
100
AcDbEntity
  8
1
  6
Continuous
 62
     3
100
AcDbLine
 10
147.80029239766
 20
4026.34
 30
0.0
 11
148.80029239766
 21
4027.34
 31
0.0
  0
LINE
  5
18A
330
A
100
AcDbEntity
  8
1
  6
DOT_CENTER
 62
     1
100
AcDbLine
 10
108.939802232087
 20
4092.239999999999
 30
0.0
 11
165.891732193976
 21
4092.239999999999
 31
0.0
  0
LINE
  5
189
330
A
100
AcDbEntity
  8
1
  6
Continuous
 62
     3
100
AcDbLine
 10
136.80029239766
 20
4076.24
 30
0.0
 11
136.80029239766
 21
4074.239999999999
 31
0.0
  0
LINE
  5
188
330
A
100
AcDbEntity
  8
1
  6
Continuous
 62
     3
100
AcDbLine
 10
133.30029239766
 20
4076.24
 30
0.0
 11
133.30029239766
 21
4074.239999999999
 31
0.0
  0
LINE
  5
187
330
A
100
AcDbEntity
  8
1
  6
Continuous
 62
     3
100
AcDbLine
 10
140.30029239766
 20
4076.24
 30
0.0
 11
140.30029239766
 21
4074.239999999999
 31
0.0
  0
LINE
  5
186
330
A
100
AcDbEntity
  8
1
  6
Continuous
 62
     3
100
AcDbLine
 10
96.80029239766
 20
4026.34
 30
0.0
 11
96.80029239766
 21
4074.239999999999
 31
0.0
  0
LINE
  5
185
330
A
100
AcDbEntity
  8
1
  6
Continuous
 62
     3
100
AcDbLine
 10
147.80029239766
 20
4026.34
 30
0.0
 11
104.80029239766
 21
4026.34
 31
0.0
  0
LINE
  5
184
330
A
100
AcDbEntity
  8
1
  6
Continuous
 62
     3
100
AcDbLine
 10
48.40493188787299
 20
4034.239999999999
 30
0.0
 11
48.40493188787299
 21
4074.239999999999
 31
0.0
  0
LINE
  5
183
330
A
100
AcDbEntity
  8
1
  6
Continuous
 62
     3
100
AcDbLine
 10
64.204931887873
 20
4074.239999999999
 30
0.0
 11
64.204931887873
 21
4034.239999999999
 31
0.0
  0
LINE
  5
182
330
A
100
AcDbEntity
  8
1
  6
Continuous
 62
     3
100
AcDbLine
 10
48.40493188787299
 20
4074.239999999999
 30
0.0
 11
64.204931887873
 21
4074.239999999999
 31
0.0
  0
LINE
  5
181
330
A
100
AcDbEntity
  8
1
  6
Continuous
 62
     3
100
AcDbLine
 10
60.346383772201
 20
4076.24
 30
0.0
 11
60.346383772201
 21
4074.239999999999
 31
0.0
  0
LINE
  5
180
330
A
100
AcDbEntity
  8
1
  6
Continuous
 62
     3
100
AcDbLine
 10
61.054931887873
 20
4076.24
 30
0.0
 11
51.554931887873
 21
4076.24
 31
0.0
  0
LINE
  5
17F
330
A
100
AcDbEntity
  8
1
  6
Continuous
 62
     3
100
AcDbLine
 10
58.325657830037
 20
4076.24
 30
0.0
 11
58.325657830037
 21
4074.239999999999
 31
0.0
  0
LINE
  5
17E
330
A
100
AcDbEntity
  8
1
  6
Continuous
 62
     3
100
AcDbLine
 10
54.284205945709
 20
4076.24
 30
0.0
 11
54.284205945709
 21
4074.239999999999
 31
0.0
  0
LINE
  5
17D
330
A
100
AcDbEntity
  8
1
  6
Continuous
 62
     3
100
AcDbLine
 10
52.263480003546
 20
4076.24
 30
0.0
 11
52.263480003546
 21
4074.239999999999
 31
0.0
  0
LINE
  5
17C
330
A
100
AcDbEntity
  8
1
  6
DOT_CENTER
 62
     1
100
AcDbLine
 10
149.30029239766
 20
4119.499960333929
 30
0.0
 11
149.30029239766
 21
4151.005067318415
 31
0.0
  0
LINE
  5
17B
330
A
100
AcDbEntity
  8
1
  6
Continuous
 62
     3
100
AcDbLine
 10
142.80029239766
 20
4140.694385964911
 30
0.0
 11
158.30029239766
 21
4140.694385964911
 31
0.0
  0
LINE
  5
17A
330
A
100
AcDbEntity
  8
1
  6
Continuous
 62
     3
100
AcDbLine
 10
159.30029239766
 20
4133.194385964911
 30
0.0
 11
159.30029239766
 21
4131.694385964911
 31
0.0
  0
LINE
  5
179
330
A
100
AcDbEntity
  8
1
  6
Continuous
 62
     3
100
AcDbLine
 10
158.30029239766
 20
4130.69438596491
 30
0.0
 11
142.80029239766
 21
4130.69438596491
 31
0.0
  0
LINE
  5
178
330
A
100
AcDbEntity
  8
1
  6
Continuous
 62
     3
100
AcDbLine
 10
154.80029239766
 20
4139.194385964911
 30
0.0
 11
156.80029239766
 21
4139.194385964911
 31
0.0
  0
LINE
  5
177
330
A
100
AcDbEntity
  8
1
  6
Continuous
 62
     3
100
AcDbLine
 10
154.30029239766
 20
4132.694385964911
 30
0.0
 11
154.30029239766
 21
4138.69438596491
 31
0.0
  0
LINE
  5
176
330
A
100
AcDbEntity
  8
1
  6
Continuous
 62
     3
100
AcDbLine
 10
156.80029239766
 20
4132.19438596491
 30
0.0
 11
154.80029239766
 21
4132.19438596491
 31
0.0
  0
LINE
  5
175
330
A
100
AcDbEntity
  8
1
  6
Continuous
 62
     3
100
AcDbLine
 10
157.30029239766
 20
4133.194385964911
 30
0.0
 11
157.30029239766
 21
4132.694385964911
 31
0.0
  0
LINE
  5
174
330
A
100
AcDbEntity
  8
1
  6
Continuous
 62
     3
100
AcDbLine
 10
157.80029239766
 20
4133.69438596491
 30
0.0
 11
158.80029239766
 21
4133.69438596491
 31
0.0
  0
LINE
  5
173
330
A
100
AcDbEntity
  8
1
  6
Continuous
 62
     3
100
AcDbLine
 10
159.30029239766
 20
4138.194385964911
 30
0.0
 11
159.30029239766
 21
4133.194385964911
 31
0.0
  0
LINE
  5
172
330
A
100
AcDbEntity
  8
1
  6
Continuous
 62
     3
100
AcDbLine
 10
157.30029239766
 20
4138.194385964911
 30
0.0
 11
157.30029239766
 21
4133.194385964911
 31
0.0
  0
LINE
  5
171
330
A
100
AcDbEntity
  8
1
  6
Continuous
 62
     3
100
AcDbLine
 10
157.80029239766
 20
4137.694385964911
 30
0.0
 11
158.80029239766
 21
4137.694385964911
 31
0.0
  0
LINE
  5
170
330
A
100
AcDbEntity
  8
1
  6
Continuous
 62
     3
100
AcDbLine
 10
159.30029239766
 20
4139.694385964911
 30
0.0
 11
159.30029239766
 21
4138.194385964911
 31
0.0
  0
LINE
  5
16F
330
A
100
AcDbEntity
  8
1
  6
Continuous
 62
     3
100
AcDbLine
 10
157.30029239766
 20
4138.69438596491
 30
0.0
 11
157.30029239766
 21
4138.194385964911
 31
0.0
  0
LINE
  5
16E
330
A
100
AcDbEntity
  8
1
  6
Continuous
 62
     3
100
AcDbLine
 10
144.80029239766
 20
4129.694385964911
 30
0.0
 11
144.80029239766
 21
4130.69438596491
 31
0.0
  0
LINE
  5
16D
330
A
100
AcDbEntity
  8
1
  6
Continuous
 62
     3
100
AcDbLine
 10
153.80029239766
 20
4129.694385964911
 30
0.0
 11
153.80029239766
 21
4130.69438596491
 31
0.0
  0
LINE
  5
16C
330
A
100
AcDbEntity
  8
1
  6
Continuous
 62
     3
100
AcDbLine
 10
141.446190431411
 20
4129.694385964911
 30
0.0
 11
157.154394363909
 21
4129.694385964911
 31
0.0
  0
LINE
  5
16B
330
A
100
AcDbEntity
  8
1
  6
Continuous
 62
     3
100
AcDbLine
 10
141.446190431411
 20
4123.694385964911
 30
0.0
 11
157.154394363909
 21
4123.694385964911
 31
0.0
  0
LINE
  5
16A
330
A
100
AcDbEntity
  8
1
  6
DOT_CENTER
 62
     1
100
AcDbLine
 10
138.070741836881
 20
4126.694385964911
 30
0.0
 11
161.600741836881
 21
4126.694385964911
 31
0.0
  0
LINE
  5
169
330
A
100
AcDbEntity
  8
1
  6
DOT_CENTER
 62
     1
100
AcDbLine
 10
161.600741836881
 20
4144.694385964911
 30
0.0
 11
138.070741836881
 21
4144.694385964911
 31
0.0
  0
LINE
  5
168
330
A
100
AcDbEntity
  8
1
  6
Continuous
 62
     3
100
AcDbLine
 10
157.154394363909
 20
4147.694385964911
 30
0.0
 11
141.446190431411
 21
4147.694385964911
 31
0.0
  0
LINE
  5
167
330
A
100
AcDbEntity
  8
1
  6
Continuous
 62
     3
100
AcDbLine
 10
157.154394363909
 20
4141.69438596491
 30
0.0
 11
141.446190431411
 21
4141.69438596491
 31
0.0
  0
LINE
  5
166
330
A
100
AcDbEntity
  8
1
  6
Continuous
 62
     3
100
AcDbLine
 10
153.80029239766
 20
4140.694385964911
 30
0.0
 11
153.80029239766
 21
4141.69438596491
 31
0.0
  0
LINE
  5
165
330
A
100
AcDbEntity
  8
1
  6
Continuous
 62
     3
100
AcDbLine
 10
144.80029239766
 20
4140.694385964911
 30
0.0
 11
144.80029239766
 21
4141.69438596491
 31
0.0
  0
LINE
  5
164
330
A
100
AcDbEntity
  8
1
  6
DOT_CENTER
 62
     1
100
AcDbLine
 10
136.80029239766
 20
4152.156648015261
 30
0.0
 11
136.80029239766
 21
4119.809327472191
 31
0.0
  0
LINE
  5
163
330
A
100
AcDbEntity
  8
1
  6
DOT_CENTER
 62
     1
100
AcDbLine
 10
91.01445048193099
 20
4135.69438596491
 30
0.0
 11
167.180575671448
 21
4135.69438596491
 31
0.0
  0
LINE
  5
162
330
A
100
AcDbEntity
  8
1
  6
Continuous
 62
     3
100
AcDbLine
 10
128.80029239766
 20
4141.69438596491
 30
0.0
 11
128.80029239766
 21
4140.694385964911
 31
0.0
  0
LINE
  5
161
330
A
100
AcDbEntity
  8
1
  6
Continuous
 62
     3
100
AcDbLine
 10
119.80029239766
 20
4141.69438596491
 30
0.0
 11
119.80029239766
 21
4140.694385964911
 31
0.0
  0
LINE
  5
160
330
A
100
AcDbEntity
  8
1
  6
Continuous
 62
     3
100
AcDbLine
 10
132.154394363909
 20
4141.69438596491
 30
0.0
 11
116.446190431411
 21
4141.69438596491
 31
0.0
  0
LINE
  5
15F
330
A
100
AcDbEntity
  8
1
  6
Continuous
 62
     3
100
AcDbLine
 10
132.154394363909
 20
4147.694385964911
 30
0.0
 11
116.446190431411
 21
4147.694385964911
 31
0.0
  0
LINE
  5
15E
330
A
100
AcDbEntity
  8
1
  6
DOT_CENTER
 62
     1
100
AcDbLine
 10
135.52984295844
 20
4144.694385964911
 30
0.0
 11
111.999842958439
 21
4144.694385964911
 31
0.0
  0
LINE
  5
15D
330
A
100
AcDbEntity
  8
1
  6
DOT_CENTER
 62
     1
100
AcDbLine
 10
124.30029239766
 20
4151.005067318415
 30
0.0
 11
124.30029239766
 21
4119.499960333929
 31
0.0
  0
LINE
  5
15C
330
A
100
AcDbEntity
  8
1
  6
DOT_CENTER
 62
     1
100
AcDbLine
 10
111.999842958439
 20
4126.694385964911
 30
0.0
 11
135.52984295844
 21
4126.694385964911
 31
0.0
  0
LINE
  5
15B
330
A
100
AcDbEntity
  8
1
  6
Continuous
 62
     3
100
AcDbLine
 10
116.446190431411
 20
4123.694385964911
 30
0.0
 11
132.154394363909
 21
4123.694385964911
 31
0.0
  0
LINE
  5
15A
330
A
100
AcDbEntity
  8
1
  6
Continuous
 62
     3
100
AcDbLine
 10
101.80029239766
 20
4129.694385964911
 30
0.0
 11
116.446190431411
 21
4129.694385964911
 31
0.0
  0
LINE
  5
159
330
A
100
AcDbEntity
  8
1
  6
Continuous
 62
     3
100
AcDbLine
 10
119.80029239766
 20
4130.69438596491
 30
0.0
 11
119.80029239766
 21
4129.694385964911
 31
0.0
  0
LINE
  5
158
330
A
100
AcDbEntity
  8
1
  6
Continuous
 62
     3
100
AcDbLine
 10
128.80029239766
 20
4130.69438596491
 30
0.0
 11
128.80029239766
 21
4129.694385964911
 31
0.0
  0
LINE
  5
157
330
A
100
AcDbEntity
  8
1
  6
Continuous
 62
     3
100
AcDbLine
 10
116.30029239766
 20
4138.194385964911
 30
0.0
 11
116.30029239766
 21
4138.69438596491
 31
0.0
  0
LINE
  5
156
330
A
100
AcDbEntity
  8
1
  6
Continuous
 62
     3
100
AcDbLine
 10
114.30029239766
 20
4138.194385964911
 30
0.0
 11
114.30029239766
 21
4139.694385964911
 31
0.0
  0
LINE
  5
155
330
A
100
AcDbEntity
  8
1
  6
Continuous
 62
     3
100
AcDbLine
 10
114.80029239766
 20
4137.694385964911
 30
0.0
 11
115.80029239766
 21
4137.694385964911
 31
0.0
  0
LINE
  5
154
330
A
100
AcDbEntity
  8
1
  6
Continuous
 62
     3
100
AcDbLine
 10
116.30029239766
 20
4133.194385964911
 30
0.0
 11
116.30029239766
 21
4138.194385964911
 31
0.0
  0
LINE
  5
153
330
A
100
AcDbEntity
  8
1
  6
Continuous
 62
     3
100
AcDbLine
 10
114.30029239766
 20
4133.194385964911
 30
0.0
 11
114.30029239766
 21
4138.194385964911
 31
0.0
  0
LINE
  5
152
330
A
100
AcDbEntity
  8
1
  6
Continuous
 62
     3
100
AcDbLine
 10
114.80029239766
 20
4133.69438596491
 30
0.0
 11
115.80029239766
 21
4133.69438596491
 31
0.0
  0
LINE
  5
151
330
A
100
AcDbEntity
  8
1
  6
Continuous
 62
     3
100
AcDbLine
 10
116.30029239766
 20
4132.694385964911
 30
0.0
 11
116.30029239766
 21
4133.194385964911
 31
0.0
  0
LINE
  5
150
330
A
100
AcDbEntity
  8
1
  6
Continuous
 62
     3
100
AcDbLine
 10
118.80029239766
 20
4132.19438596491
 30
0.0
 11
116.80029239766
 21
4132.19438596491
 31
0.0
  0
LINE
  5
14F
330
A
100
AcDbEntity
  8
1
  6
Continuous
 62
     3
100
AcDbLine
 10
119.30029239766
 20
4138.69438596491
 30
0.0
 11
119.30029239766
 21
4132.694385964911
 31
0.0
  0
LINE
  5
14E
330
A
100
AcDbEntity
  8
1
  6
Continuous
 62
     3
100
AcDbLine
 10
116.80029239766
 20
4139.194385964911
 30
0.0
 11
118.80029239766
 21
4139.194385964911
 31
0.0
  0
LINE
  5
14D
330
A
100
AcDbEntity
  8
1
  6
Continuous
 62
     3
100
AcDbLine
 10
130.80029239766
 20
4130.69438596491
 30
0.0
 11
115.30029239766
 21
4130.69438596491
 31
0.0
  0
LINE
  5
14C
330
A
100
AcDbEntity
  8
1
  6
Continuous
 62
     3
100
AcDbLine
 10
114.30029239766
 20
4131.694385964911
 30
0.0
 11
114.30029239766
 21
4133.194385964911
 31
0.0
  0
LINE
  5
14B
330
A
100
AcDbEntity
  8
1
  6
Continuous
 62
     3
100
AcDbLine
 10
115.30029239766
 20
4140.694385964911
 30
0.0
 11
130.80029239766
 21
4140.694385964911
 31
0.0
  0
LINE
  5
14A
330
A
100
AcDbEntity
  8
1
  6
Continuous
 62
     3
100
AcDbLine
 10
62.304931887873
 20
4098.74
 30
0.0
 11
62.304931887873
 21
4100.09410196625
 31
0.0
  0
LINE
  5
149
330
A
100
AcDbEntity
  8
1
  6
Continuous
 62
     3
100
AcDbLine
 10
54.304931887873
 20
4092.74
 30
0.0
 11
54.304931887873
 21
4097.739999999999
 31
0.0
  0
LINE
  5
148
330
A
100
AcDbEntity
  8
1
  6
Continuous
 62
     3
100
AcDbLine
 10
58.30493188787301
 20
4092.74
 30
0.0
 11
58.30493188787301
 21
4097.739999999999
 31
0.0
  0
LINE
  5
147
330
A
100
AcDbEntity
  8
1
  6
DOT_CENTER
 62
     1
100
AcDbLine
 10
56.304931887873
 20
4108.168215677109
 30
0.0
 11
56.304931887873
 21
4018.658776875421
 31
0.0
  0
LINE
  5
146
330
A
100
AcDbEntity
  8
1
  6
Continuous
 62
     3
100
AcDbLine
 10
155.525242196654
 20
4098.74
 30
0.0
 11
158.30029239766
 21
4098.74
 31
0.0
  0
LINE
  5
145
330
A
100
AcDbEntity
  8
1
  6
Continuous
 62
     3
100
AcDbLine
 10
159.30029239766
 20
4097.739999999999
 30
0.0
 11
159.30029239766
 21
4087.74
 31
0.0
  0
LINE
  5
144
330
A
100
AcDbEntity
  8
1
  6
Continuous
 62
     3
100
AcDbLine
 10
142.55029239766
 20
4082.03979246179
 30
0.0
 11
142.55029239766
 21
4077.239999999999
 31
0.0
  0
LINE
  5
143
330
A
100
AcDbEntity
  8
1
  6
Continuous
 62
     3
100
AcDbLine
 10
158.30029239766
 20
4086.739999999999
 30
0.0
 11
156.424195822047
 21
4086.739999999999
 31
0.0
  0
LINE
  5
142
330
A
100
AcDbEntity
  8
1
  6
Continuous
 62
     3
100
AcDbLine
 10
142.191257060872
 20
4082.74
 30
0.0
 11
142.191257060872
 21
4086.720795656954
 31
0.0
  0
LINE
  5
141
330
A
100
AcDbEntity
  8
1
  6
Continuous
 62
     3
100
AcDbLine
 10
143.208272254334
 20
4082.979485082576
 30
0.0
 11
145.832871586192
 21
4083.934761116248
 31
0.0
  0
LINE
  5
140
330
A
100
AcDbEntity
  8
1
  6
DOT_CENTER
 62
     1
100
AcDbLine
 10
149.30029239766
 20
4079.442325659671
 30
0.0
 11
149.30029239766
 21
4104.27775080472
 31
0.0
  0
LINE
  5
13F
330
A
100
AcDbEntity
  8
1
  6
DOT_CENTER
 62
     1
100
AcDbLine
 10
136.80029239766
 20
4104.73067649126
 30
0.0
 11
136.80029239766
 21
4021.38759690255
 31
0.0
  0
LINE
  5
13E
330
A
100
AcDbEntity
  8
1
  6
DOT_CENTER
 62
     1
100
AcDbLine
 10
124.30029239766
 20
4104.27775080472
 30
0.0
 11
124.30029239766
 21
4079.442325659671
 31
0.0
  0
LINE
  5
13D
330
A
100
AcDbEntity
  8
1
  6
Continuous
 62
     3
100
AcDbLine
 10
127.767713209128
 20
4083.934761116248
 30
0.0
 11
130.392312540986
 21
4082.979485082576
 31
0.0
  0
LINE
  5
13C
330
A
100
AcDbEntity
  8
1
  6
Continuous
 62
     3
100
AcDbLine
 10
131.409327734448
 20
4086.720795656954
 30
0.0
 11
131.409327734448
 21
4082.74
 31
0.0
  0
LINE
  5
13B
330
A
100
AcDbEntity
  8
1
  6
Continuous
 62
     3
100
AcDbLine
 10
117.176388973273
 20
4086.739999999999
 30
0.0
 11
115.30029239766
 21
4086.739999999999
 31
0.0
  0
LINE
  5
13A
330
A
100
AcDbEntity
  8
1
  6
Continuous
 62
     3
100
AcDbLine
 10
130.525242196654
 20
4098.74
 30
0.0
 11
143.075342598665
 21
4098.74
 31
0.0
  0
LINE
  5
139
330
A
100
AcDbEntity
  8
1
  6
Continuous
 62
     3
100
AcDbLine
 10
131.05029239766
 20
4077.239999999999
 30
0.0
 11
131.05029239766
 21
4082.03979246179
 31
0.0
  0
LINE
  5
138
330
A
100
AcDbEntity
  8
1
  6
Continuous
 62
     3
100
AcDbLine
 10
141.55029239766
 20
4076.24
 30
0.0
 11
132.05029239766
 21
4076.24
 31
0.0
  0
LINE
  5
137
330
A
100
AcDbEntity
  8
1
  6
Continuous
 62
     3
100
AcDbLine
 10
50.304931887873
 20
4086.739999999999
 30
0.0
 11
50.304931887873
 21
4084.385898033751
 31
0.0
  0
LINE
  5
136
330
A
100
AcDbEntity
  8
1
  6
Continuous
 62
     3
100
AcDbLine
 10
62.304931887873
 20
4086.739999999999
 30
0.0
 11
62.304931887873
 21
4098.74
 31
0.0
  0
LINE
  5
135
330
A
100
AcDbEntity
  8
1
  6
Continuous
 62
     3
100
AcDbLine
 10
58.30493188787301
 20
4085.74
 30
0.0
 11
58.30493188787301
 21
4082.74
 31
0.0
  0
LINE
  5
134
330
A
100
AcDbEntity
  8
1
  6
Continuous
 62
     3
100
AcDbLine
 10
50.304931887873
 20
4086.739999999999
 30
0.0
 11
62.304931887873
 21
4086.739999999999
 31
0.0
  0
LINE
  5
133
330
A
100
AcDbEntity
  8
1
  6
Continuous
 62
     3
100
AcDbLine
 10
54.304931887873
 20
4085.74
 30
0.0
 11
54.304931887873
 21
4082.74
 31
0.0
  0
LINE
  5
132
330
A
100
AcDbEntity
  8
1
  6
Continuous
 62
     3
100
AcDbLine
 10
62.304931887873
 20
4084.385898033751
 30
0.0
 11
62.304931887873
 21
4086.739999999999
 31
0.0
  0
LINE
  5
131
330
A
100
AcDbEntity
  8
1
  6
Continuous
 62
     3
100
AcDbLine
 10
50.304931887873
 20
4098.74
 30
0.0
 11
50.304931887873
 21
4086.739999999999
 31
0.0
  0
LINE
  5
130
330
A
100
AcDbEntity
  8
1
  6
Continuous
 62
     3
100
AcDbLine
 10
50.304931887873
 20
4100.09410196625
 30
0.0
 11
50.304931887873
 21
4098.74
 31
0.0
  0
LINE
  5
12F
330
A
100
AcDbEntity
  8
1
  6
Continuous
 62
     3
100
AcDbLine
 10
51.304931887873
 20
4087.74
 30
0.0
 11
51.304931887873
 21
4096.739999999999
 31
0.0
  0
LINE
  5
12E
330
A
100
AcDbEntity
  8
1
  6
Continuous
 62
     3
100
AcDbLine
 10
50.304931887873
 20
4087.74
 30
0.0
 11
51.304931887873
 21
4087.74
 31
0.0
  0
LINE
  5
12D
330
A
100
AcDbEntity
  8
1
  6
Continuous
 62
     3
100
AcDbLine
 10
51.304931887873
 20
4096.739999999999
 30
0.0
 11
51.304931887873
 21
4097.739999999999
 31
0.0
  0
LINE
  5
12C
330
A
100
AcDbEntity
  8
1
  6
Continuous
 62
     3
100
AcDbLine
 10
50.304931887873
 20
4096.739999999999
 30
0.0
 11
51.304931887873
 21
4096.739999999999
 31
0.0
  0
LINE
  5
12B
330
A
100
AcDbEntity
  8
1
  6
Continuous
 62
     3
100
AcDbLine
 10
61.304931887873
 20
4087.74
 30
0.0
 11
62.304931887873
 21
4087.74
 31
0.0
  0
LINE
  5
12A
330
A
100
AcDbEntity
  8
1
  6
Continuous
 62
     3
100
AcDbLine
 10
61.304931887873
 20
4096.739999999999
 30
0.0
 11
61.304931887873
 21
4087.74
 31
0.0
  0
LINE
  5
129
330
A
100
AcDbEntity
  8
1
  6
Continuous
 62
     3
100
AcDbLine
 10
61.304931887873
 20
4096.739999999999
 30
0.0
 11
62.304931887873
 21
4096.739999999999
 31
0.0
  0
LINE
  5
128
330
A
100
AcDbEntity
  8
1
  6
Continuous
 62
     3
100
AcDbLine
 10
61.304931887873
 20
4097.739999999999
 30
0.0
 11
61.304931887873
 21
4096.739999999999
 31
0.0
  0
LINE
  5
127
330
A
100
AcDbEntity
  8
1
  6
Continuous
 62
     3
100
AcDbLine
 10
50.304931887873
 20
4098.74
 30
0.0
 11
62.304931887873
 21
4098.74
 31
0.0
  0
LINE
  5
126
330
A
100
AcDbEntity
  8
1
  6
Continuous
 62
     3
100
AcDbLine
 10
50.554931887873
 20
4077.239999999999
 30
0.0
 11
50.554931887873
 21
4086.739999999999
 31
0.0
  0
LINE
  5
125
330
A
100
AcDbEntity
  8
1
  6
Continuous
 62
     3
100
AcDbLine
 10
62.05493188787301
 20
4086.739999999999
 30
0.0
 11
62.05493188787301
 21
4077.239999999999
 31
0.0
  0
LINE
  5
124
330
A
100
AcDbEntity
  8
1
  6
Continuous
 62
     3
100
AcDbLine
 10
114.30029239766
 20
4087.74
 30
0.0
 11
114.30029239766
 21
4097.739999999999
 31
0.0
  0
LINE
  5
123
330
A
100
AcDbEntity
  8
1
  6
Continuous
 62
     3
100
AcDbLine
 10
142.176388973273
 20
4086.739999999999
 30
0.0
 11
131.424195822047
 21
4086.739999999999
 31
0.0
  0
LINE
  5
122
330
A
100
AcDbEntity
  8
1
  6
Continuous
 62
     3
100
AcDbLine
 10
115.30029239766
 20
4098.74
 30
0.0
 11
118.075342598666
 21
4098.74
 31
0.0
  0
LINE
  5
121
330
A
100
AcDbEntity
  8
1
  6
DOT_CENTER
 62
     1
100
AcDbLine
 10
40.994250534369
 20
4092.239999999999
 30
0.0
 11
72.49935751885399
 21
4092.239999999999
 31
0.0
  0
LINE
  5
120
330
A
100
AcDbEntity
  8
1
  6
Continuous
 62
     3
100
AcDbLine
 10
68.304931887873
 20
4084.385898033751
 30
0.0
 11
68.304931887873
 21
4100.09410196625
 31
0.0
  0
LINE
  5
11F
330
A
100
AcDbEntity
  8
1
  6
DOT_CENTER
 62
     1
100
AcDbLine
 10
65.304931887873
 20
4079.939550560779
 30
0.0
 11
65.304931887873
 21
4103.46955056078
 31
0.0
  0
LINE
  5
11E
330
A
100
AcDbEntity
  8
1
  6
DOT_CENTER
 62
     1
100
AcDbLine
 10
47.304931887873
 20
4103.46955056078
 30
0.0
 11
47.304931887873
 21
4079.939550560779
 31
0.0
  0
LINE
  5
11D
330
A
100
AcDbEntity
  8
1
  6
Continuous
 62
     3
100
AcDbLine
 10
44.304931887873
 20
4100.09410196625
 30
0.0
 11
44.304931887873
 21
4084.385898033751
 31
0.0
  0
LINE
  5
11C
330
A
100
AcDbEntity
  8
1
  6
Continuous
 62
     4
100
AcDbLine
 10
125.30029239766
 20
4029.04
 30
0.0
 11
125.30029239766
 21
4028.739999999999
 31
0.0
  0
LINE
  5
11B
330
A
100
AcDbEntity
  8
1
  6
Continuous
 62
     4
100
AcDbLine
 10
125.30029239766
 20
4028.739999999999
 30
0.0
 11
118.30029239766
 21
4028.739999999999
 31
0.0
  0
LINE
  5
11A
330
A
100
AcDbEntity
  8
1
  6
Continuous
 62
     4
100
AcDbLine
 10
118.30029239766
 20
4028.739999999999
 30
0.0
 11
118.30029239766
 21
4029.04
 31
0.0
  0
LINE
  5
119
330
A
100
AcDbEntity
  8
1
  6
Continuous
 62
     4
100
AcDbLine
 10
118.30029239766
 20
4029.04
 30
0.0
 11
125.30029239766
 21
4029.04
 31
0.0
  0
LINE
  5
118
330
A
100
AcDbEntity
  8
1
  6
Continuous
 62
     4
100
AcDbLine
 10
125.30029239766
 20
4028.739999999999
 30
0.0
 11
123.05029239766
 21
4026.489999999999
 31
0.0
  0
LINE
  5
117
330
A
100
AcDbEntity
  8
1
  6
Continuous
 62
     4
100
AcDbLine
 10
123.05029239766
 20
4026.489999999999
 30
0.0
 11
120.55029239766
 21
4026.489999999999
 31
0.0
  0
LINE
  5
116
330
A
100
AcDbEntity
  8
1
  6
Continuous
 62
     4
100
AcDbLine
 10
120.55029239766
 20
4026.489999999999
 30
0.0
 11
118.30029239766
 21
4028.739999999999
 31
0.0
  0
LINE
  5
115
330
A
100
AcDbEntity
  8
1
  6
Continuous
 62
     4
100
AcDbLine
 10
123.05029239766
 20
4026.489999999999
 30
0.0
 11
123.05029239766
 21
4014.932866827375
 31
0.0
  0
LINE
  5
114
330
A
100
AcDbEntity
  8
1
  6
Continuous
 62
     4
100
AcDbLine
 10
123.05029239766
 20
4014.932866827375
 30
0.0
 11
121.80029239766
 21
4009.04
 31
0.0
  0
LINE
  5
113
330
A
100
AcDbEntity
  8
1
  6
Continuous
 62
     4
100
AcDbLine
 10
121.80029239766
 20
4009.04
 30
0.0
 11
120.550292397661
 21
4014.932866827375
 31
0.0
  0
LINE
  5
112
330
A
100
AcDbEntity
  8
1
  6
Continuous
 62
     4
100
AcDbLine
 10
120.550292397661
 20
4014.932866827375
 30
0.0
 11
120.55029239766
 21
4026.489999999999
 31
0.0
  0
LINE
  5
111
330
A
100
AcDbEntity
  8
1
  6
Continuous
 62
     4
100
AcDbLine
 10
123.55029239766
 20
4026.008823154961
 30
0.0
 11
120.05029239766
 21
4025.2021708734
 31
0.0
  0
LINE
  5
110
330
A
100
AcDbEntity
  8
1
  6
Continuous
 62
     4
100
AcDbLine
 10
123.55029239766
 20
4024.610501755047
 30
0.0
 11
120.05029239766
 21
4023.803849473486
 31
0.0
  0
LINE
  5
10F
330
A
100
AcDbEntity
  8
1
  6
Continuous
 62
     4
100
AcDbLine
 10
123.55029239766
 20
4023.212180355133
 30
0.0
 11
120.05029239766
 21
4022.405528073572
 31
0.0
  0
LINE
  5
10E
330
A
100
AcDbEntity
  8
1
  6
Continuous
 62
     4
100
AcDbLine
 10
123.55029239766
 20
4021.813858955218
 30
0.0
 11
120.05029239766
 21
4021.007206673657
 31
0.0
  0
LINE
  5
10D
330
A
100
AcDbEntity
  8
1
  6
Continuous
 62
     4
100
AcDbLine
 10
123.55029239766
 20
4020.415537555305
 30
0.0
 11
120.05029239766
 21
4019.608885273743
 31
0.0
  0
LINE
  5
10C
330
A
100
AcDbEntity
  8
1
  6
Continuous
 62
     4
100
AcDbLine
 10
123.55029239766
 20
4019.017216155392
 30
0.0
 11
120.05029239766
 21
4018.21056387383
 31
0.0
  0
LINE
  5
10B
330
A
100
AcDbEntity
  8
1
  6
Continuous
 62
     4
100
AcDbLine
 10
123.55029239766
 20
4017.618894755478
 30
0.0
 11
120.05029239766
 21
4016.812242473916
 31
0.0
  0
LINE
  5
10A
330
A
100
AcDbEntity
  8
1
  6
Continuous
 62
     4
100
AcDbLine
 10
123.55029239766
 20
4016.220573355563
 30
0.0
 11
120.05029239766
 21
4015.413921074002
 31
0.0
  0
LINE
  5
109
330
A
100
AcDbEntity
  8
1
  6
Continuous
 62
     4
100
AcDbLine
 10
123.55029239766
 20
4014.822251955648
 30
0.0
 11
120.262568754878
 21
4014.064523447766
 31
0.0
  0
LINE
  5
108
330
A
100
AcDbEntity
  8
1
  6
Continuous
 62
     4
100
AcDbLine
 10
123.142606834314
 20
4013.329970415782
 30
0.0
 11
120.577864452171
 21
4012.738868903162
 31
0.0
  0
LINE
  5
107
330
A
100
AcDbEntity
  8
1
  6
Continuous
 62
     4
100
AcDbLine
 10
122.73947898321
 20
4011.838739301339
 30
0.0
 11
120.9062437506
 21
4011.416229763333
 31
0.0
  0
LINE
  5
106
330
A
100
AcDbEntity
  8
1
  6
Continuous
 62
     4
100
AcDbLine
 10
122.360975651899
 20
4010.353183451202
 30
0.0
 11
121.276000889739
 21
4010.103127060536
 31
0.0
  0
LINE
  5
105
330
A
100
AcDbEntity
  8
1
  6
Continuous
 62
     4
100
AcDbLine
 10
164.687108946458
 20
4063.800683254238
 30
0.0
 11
164.937165337124
 21
4062.715708492079
 31
0.0
  0
LINE
  5
104
330
A
100
AcDbEntity
  8
1
  6
Continuous
 62
     4
100
AcDbLine
 10
163.201553096321
 20
4064.17918658555
 30
0.0
 11
163.624062634327
 21
4062.34595135294
 31
0.0
  0
LINE
  5
103
330
A
100
AcDbEntity
  8
1
  6
Continuous
 62
     4
100
AcDbLine
 10
161.710321981877
 20
4064.582314436654
 30
0.0
 11
162.301423494498
 21
4062.017572054511
 31
0.0
  0
LINE
  5
102
330
A
100
AcDbEntity
  8
1
  6
Continuous
 62
     4
100
AcDbLine
 10
160.218040442011
 20
4064.989999999999
 30
0.0
 11
160.975768949895
 21
4061.702276357218
 31
0.0
  0
LINE
  5
101
330
A
100
AcDbEntity
  8
1
  6
Continuous
 62
     4
100
AcDbLine
 10
158.819719042097
 20
4064.989999999999
 30
0.0
 11
159.626371323658
 21
4061.49
 31
0.0
  0
LINE
  5
100
330
A
100
AcDbEntity
  8
1
  6
Continuous
 62
     4
100
AcDbLine
 10
157.421397642183
 20
4064.989999999999
 30
0.0
 11
158.2280499237439
 21
4061.49
 31
0.0
  0
LINE
  5
FF
330
A
100
AcDbEntity
  8
1
  6
Continuous
 62
     4
100
AcDbLine
 10
156.023076242269
 20
4064.989999999999
 30
0.0
 11
156.82972852383
 21
4061.49
 31
0.0
  0
LINE
  5
FE
330
A
100
AcDbEntity
  8
1
  6
Continuous
 62
     4
100
AcDbLine
 10
154.624754842355
 20
4064.989999999999
 30
0.0
 11
155.431407123916
 21
4061.49
 31
0.0
  0
LINE
  5
FD
330
A
100
AcDbEntity
  8
1
  6
Continuous
 62
     4
100
AcDbLine
 10
153.226433442441
 20
4064.989999999999
 30
0.0
 11
154.033085724002
 21
4061.49
 31
0.0
  0
LINE
  5
FC
330
A
100
AcDbEntity
  8
1
  6
Continuous
 62
     4
100
AcDbLine
 10
151.828112042527
 20
4064.989999999999
 30
0.0
 11
152.634764324088
 21
4061.49
 31
0.0
  0
LINE
  5
FB
330
A
100
AcDbEntity
  8
1
  6
Continuous
 62
     4
100
AcDbLine
 10
150.429790642613
 20
4064.989999999999
 30
0.0
 11
151.236442924174
 21
4061.49
 31
0.0
  0
LINE
  5
FA
330
A
100
AcDbEntity
  8
1
  6
Continuous
 62
     4
100
AcDbLine
 10
149.031469242699
 20
4064.989999999999
 30
0.0
 11
149.83812152426
 21
4061.49
 31
0.0
  0
LINE
  5
F9
330
A
100
AcDbEntity
  8
1
  6
Continuous
 62
     4
100
AcDbLine
 10
160.107425570285
 20
4061.990000000001
 30
0.0
 11
148.55029239766
 21
4061.99
 31
0.0
  0
LINE
  5
F8
330
A
100
AcDbEntity
  8
1
  6
Continuous
 62
     4
100
AcDbLine
 10
166.00029239766
 20
4063.239999999999
 30
0.0
 11
160.107425570285
 21
4061.990000000001
 31
0.0
  0
LINE
  5
F7
330
A
100
AcDbEntity
  8
1
  6
Continuous
 62
     4
100
AcDbLine
 10
160.107425570285
 20
4064.49
 30
0.0
 11
166.00029239766
 21
4063.239999999999
 31
0.0
  0
LINE
  5
F6
330
A
100
AcDbEntity
  8
1
  6
Continuous
 62
     4
100
AcDbLine
 10
148.55029239766
 20
4064.49
 30
0.0
 11
160.107425570285
 21
4064.49
 31
0.0
  0
LINE
  5
F5
330
A
100
AcDbEntity
  8
1
  6
Continuous
 62
     4
100
AcDbLine
 10
148.55029239766
 20
4061.99
 30
0.0
 11
146.30029239766
 21
4059.74
 31
0.0
  0
LINE
  5
F4
330
A
100
AcDbEntity
  8
1
  6
Continuous
 62
     4
100
AcDbLine
 10
148.55029239766
 20
4064.49
 30
0.0
 11
148.55029239766
 21
4061.99
 31
0.0
  0
LINE
  5
F3
330
A
100
AcDbEntity
  8
1
  6
Continuous
 62
     4
100
AcDbLine
 10
146.30029239766
 20
4066.74
 30
0.0
 11
148.55029239766
 21
4064.49
 31
0.0
  0
LINE
  5
F2
330
A
100
AcDbEntity
  8
1
  6
Continuous
 62
     4
100
AcDbLine
 10
146.00029239766
 20
4059.74
 30
0.0
 11
146.00029239766
 21
4066.74
 31
0.0
  0
LINE
  5
F1
330
A
100
AcDbEntity
  8
1
  6
Continuous
 62
     4
100
AcDbLine
 10
146.30029239766
 20
4059.74
 30
0.0
 11
146.00029239766
 21
4059.74
 31
0.0
  0
LINE
  5
F0
330
A
100
AcDbEntity
  8
1
  6
Continuous
 62
     4
100
AcDbLine
 10
146.30029239766
 20
4066.74
 30
0.0
 11
146.30029239766
 21
4059.74
 31
0.0
  0
LINE
  5
EF
330
A
100
AcDbEntity
  8
1
  6
Continuous
 62
     4
100
AcDbLine
 10
146.00029239766
 20
4066.74
 30
0.0
 11
146.30029239766
 21
4066.74
 31
0.0
  0
LINE
  5
EE
330
A
100
AcDbEntity
  8
1
  6
Continuous
 62
     4
100
AcDbLine
 10
164.687108946458
 20
4039.800683254238
 30
0.0
 11
164.937165337124
 21
4038.715708492079
 31
0.0
  0
LINE
  5
ED
330
A
100
AcDbEntity
  8
1
  6
Continuous
 62
     4
100
AcDbLine
 10
163.201553096321
 20
4040.179186585549
 30
0.0
 11
163.624062634327
 21
4038.34595135294
 31
0.0
  0
LINE
  5
EC
330
A
100
AcDbEntity
  8
1
  6
Continuous
 62
     4
100
AcDbLine
 10
161.710321981877
 20
4040.582314436654
 30
0.0
 11
162.301423494498
 21
4038.017572054511
 31
0.0
  0
LINE
  5
EB
330
A
100
AcDbEntity
  8
1
  6
Continuous
 62
     4
100
AcDbLine
 10
160.218040442011
 20
4040.989999999999
 30
0.0
 11
160.975768949895
 21
4037.702276357218
 31
0.0
  0
LINE
  5
EA
330
A
100
AcDbEntity
  8
1
  6
Continuous
 62
     4
100
AcDbLine
 10
158.819719042097
 20
4040.989999999999
 30
0.0
 11
159.626371323658
 21
4037.49
 31
0.0
  0
LINE
  5
E9
330
A
100
AcDbEntity
  8
1
  6
Continuous
 62
     4
100
AcDbLine
 10
157.421397642183
 20
4040.989999999999
 30
0.0
 11
158.2280499237439
 21
4037.49
 31
0.0
  0
LINE
  5
E8
330
A
100
AcDbEntity
  8
1
  6
Continuous
 62
     4
100
AcDbLine
 10
156.023076242269
 20
4040.989999999999
 30
0.0
 11
156.82972852383
 21
4037.49
 31
0.0
  0
LINE
  5
E7
330
A
100
AcDbEntity
  8
1
  6
Continuous
 62
     4
100
AcDbLine
 10
154.624754842355
 20
4040.989999999999
 30
0.0
 11
155.431407123916
 21
4037.49
 31
0.0
  0
LINE
  5
E6
330
A
100
AcDbEntity
  8
1
  6
Continuous
 62
     4
100
AcDbLine
 10
153.226433442441
 20
4040.989999999999
 30
0.0
 11
154.033085724002
 21
4037.49
 31
0.0
  0
LINE
  5
E5
330
A
100
AcDbEntity
  8
1
  6
Continuous
 62
     4
100
AcDbLine
 10
151.828112042527
 20
4040.989999999999
 30
0.0
 11
152.634764324088
 21
4037.49
 31
0.0
  0
LINE
  5
E4
330
A
100
AcDbEntity
  8
1
  6
Continuous
 62
     4
100
AcDbLine
 10
150.429790642613
 20
4040.989999999999
 30
0.0
 11
151.236442924174
 21
4037.49
 31
0.0
  0
LINE
  5
E3
330
A
100
AcDbEntity
  8
1
  6
Continuous
 62
     4
100
AcDbLine
 10
149.031469242699
 20
4040.989999999999
 30
0.0
 11
149.83812152426
 21
4037.49
 31
0.0
  0
LINE
  5
E2
330
A
100
AcDbEntity
  8
1
  6
Continuous
 62
     4
100
AcDbLine
 10
160.107425570285
 20
4037.990000000001
 30
0.0
 11
148.55029239766
 21
4037.989999999999
 31
0.0
  0
LINE
  5
E1
330
A
100
AcDbEntity
  8
1
  6
Continuous
 62
     4
100
AcDbLine
 10
166.00029239766
 20
4039.24
 30
0.0
 11
160.107425570285
 21
4037.990000000001
 31
0.0
  0
LINE
  5
E0
330
A
100
AcDbEntity
  8
1
  6
Continuous
 62
     4
100
AcDbLine
 10
160.107425570285
 20
4040.49
 30
0.0
 11
166.00029239766
 21
4039.24
 31
0.0
  0
LINE
  5
DF
330
A
100
AcDbEntity
  8
1
  6
Continuous
 62
     4
100
AcDbLine
 10
148.55029239766
 20
4040.49
 30
0.0
 11
160.107425570285
 21
4040.49
 31
0.0
  0
LINE
  5
DE
330
A
100
AcDbEntity
  8
1
  6
Continuous
 62
     4
100
AcDbLine
 10
148.55029239766
 20
4037.989999999999
 30
0.0
 11
146.30029239766
 21
4035.739999999999
 31
0.0
  0
LINE
  5
DD
330
A
100
AcDbEntity
  8
1
  6
Continuous
 62
     4
100
AcDbLine
 10
148.55029239766
 20
4040.49
 30
0.0
 11
148.55029239766
 21
4037.989999999999
 31
0.0
  0
LINE
  5
DC
330
A
100
AcDbEntity
  8
1
  6
Continuous
 62
     4
100
AcDbLine
 10
146.30029239766
 20
4042.74
 30
0.0
 11
148.55029239766
 21
4040.49
 31
0.0
  0
LINE
  5
DB
330
A
100
AcDbEntity
  8
1
  6
Continuous
 62
     4
100
AcDbLine
 10
146.00029239766
 20
4035.739999999999
 30
0.0
 11
146.00029239766
 21
4042.74
 31
0.0
  0
LINE
  5
DA
330
A
100
AcDbEntity
  8
1
  6
Continuous
 62
     4
100
AcDbLine
 10
146.30029239766
 20
4035.739999999999
 30
0.0
 11
146.00029239766
 21
4035.739999999999
 31
0.0
  0
LINE
  5
D9
330
A
100
AcDbEntity
  8
1
  6
Continuous
 62
     4
100
AcDbLine
 10
146.30029239766
 20
4042.74
 30
0.0
 11
146.30029239766
 21
4035.739999999999
 31
0.0
  0
LINE
  5
D8
330
A
100
AcDbEntity
  8
1
  6
Continuous
 62
     4
100
AcDbLine
 10
146.00029239766
 20
4042.74
 30
0.0
 11
146.30029239766
 21
4042.74
 31
0.0
  0
LINE
  5
D7
330
A
100
AcDbEntity
  8
1
  6
Continuous
 62
     3
100
AcDbLine
 10
104.80029239766
 20
4141.69438596491
 30
0.0
 11
104.80029239766
 21
4141.194385964911
 31
0.0
  0
LINE
  5
D6
330
A
100
AcDbEntity
  8
1
  6
Continuous
 62
     3
100
AcDbLine
 10
106.80029239766
 20
4141.69438596491
 30
0.0
 11
106.80029239766
 21
4129.694385964911
 31
0.0
  0
LINE
  5
D5
330
A
100
AcDbEntity
  8
1
  6
Continuous
 62
     3
100
AcDbLine
 10
108.80029239766
 20
4141.69438596491
 30
0.0
 11
108.80029239766
 21
4129.694385964911
 31
0.0
  0
LINE
  5
D4
330
A
100
AcDbEntity
  8
1
  6
Continuous
 62
     3
100
AcDbLine
 10
110.80029239766
 20
4141.69438596491
 30
0.0
 11
110.80029239766
 21
4129.694385964911
 31
0.0
  0
LINE
  5
D3
330
A
100
AcDbEntity
  8
1
  6
Continuous
 62
     3
100
AcDbLine
 10
112.80029239766
 20
4141.69438596491
 30
0.0
 11
112.80029239766
 21
4129.694385964911
 31
0.0
  0
LINE
  5
D2
330
A
100
AcDbEntity
  8
1
  6
Continuous
 62
     3
100
AcDbLine
 10
114.80029239766
 20
4141.69438596491
 30
0.0
 11
114.80029239766
 21
4140.560411368695
 31
0.0
  0
LINE
  5
D1
330
A
100
AcDbEntity
  8
1
  6
Continuous
 62
     3
100
AcDbLine
 10
102.80029239766
 20
4141.69438596491
 30
0.0
 11
102.80029239766
 21
4141.194385964911
 31
0.0
  0
LINE
  5
D0
330
A
100
AcDbEntity
  8
1
  6
Continuous
 62
     1
100
AcDbLine
 10
103.80029239766
 20
4141.69438596491
 30
0.0
 11
103.80029239766
 21
4141.194385964911
 31
0.0
  0
LINE
  5
CF
330
A
100
AcDbEntity
  8
1
  6
Continuous
 62
     1
100
AcDbLine
 10
105.80029239766
 20
4141.69438596491
 30
0.0
 11
105.80029239766
 21
4141.194385964911
 31
0.0
  0
LINE
  5
CE
330
A
100
AcDbEntity
  8
1
  6
Continuous
 62
     1
100
AcDbLine
 10
107.80029239766
 20
4141.69438596491
 30
0.0
 11
107.80029239766
 21
4129.694385964911
 31
0.0
  0
LINE
  5
CD
330
A
100
AcDbEntity
  8
1
  6
Continuous
 62
     1
100
AcDbLine
 10
109.80029239766
 20
4141.69438596491
 30
0.0
 11
109.80029239766
 21
4129.694385964911
 31
0.0
  0
LINE
  5
CC
330
A
100
AcDbEntity
  8
1
  6
Continuous
 62
     1
100
AcDbLine
 10
111.80029239766
 20
4141.69438596491
 30
0.0
 11
111.80029239766
 21
4129.694385964911
 31
0.0
  0
LINE
  5
CB
330
A
100
AcDbEntity
  8
1
  6
Continuous
 62
     1
100
AcDbLine
 10
113.80029239766
 20
4141.69438596491
 30
0.0
 11
113.80029239766
 21
4129.694385964911
 31
0.0
  0
LINE
  5
CA
330
A
100
AcDbEntity
  8
1
  6
Continuous
 62
     3
100
AcDbLine
 10
114.80029239766
 20
4130.828360561127
 30
0.0
 11
114.80029239766
 21
4129.694385964911
 31
0.0
  0
LINE
  5
C9
330
A
100
AcDbEntity
  8
1
  6
Continuous
 62
     3
100
AcDbLine
 10
96.80029239766
 20
4143.594385964912
 30
0.0
 11
101.80029239766
 21
4143.594385964912
 31
0.0
  0
LINE
  5
C8
330
A
100
AcDbEntity
  8
1
  6
Continuous
 62
     3
100
AcDbLine
 10
101.80029239766
 20
4143.594385964912
 30
0.0
 11
101.80029239766
 21
4141.69438596491
 31
0.0
  0
LINE
  5
C7
330
A
100
AcDbEntity
  8
1
  6
Continuous
 62
     3
100
AcDbLine
 10
115.436807551806
 20
4127.794385964911
 30
0.0
 11
101.80029239766
 21
4127.794385964911
 31
0.0
  0
LINE
  5
C6
330
A
100
AcDbEntity
  8
1
  6
Continuous
 62
     3
100
AcDbLine
 10
96.80029239766
 20
4127.794385964911
 30
0.0
 11
96.80029239766
 21
4143.594385964912
 31
0.0
  0
LINE
  5
C5
330
A
100
AcDbEntity
  8
1
  6
Continuous
 62
     3
100
AcDbLine
 10
116.446190431411
 20
4141.69438596491
 30
0.0
 11
101.80029239766
 21
4141.69438596491
 31
0.0
  0
LINE
  5
C4
330
A
100
AcDbEntity
  8
1
  6
Continuous
 62
     3
100
AcDbLine
 10
101.80029239766
 20
4129.694385964911
 30
0.0
 11
101.80029239766
 21
4127.794385964911
 31
0.0
  0
LINE
  5
C3
330
A
100
AcDbEntity
  8
1
  6
Continuous
 62
     3
100
AcDbLine
 10
101.80029239766
 20
4141.69438596491
 30
0.0
 11
101.80029239766
 21
4141.194385964911
 31
0.0
  0
LINE
  5
C2
330
A
100
AcDbEntity
  8
1
  6
Continuous
 62
     3
100
AcDbLine
 10
116.446190431411
 20
4129.694385964911
 30
0.0
 11
132.154394363909
 21
4129.694385964911
 31
0.0
  0
LINE
  5
C1
330
A
100
AcDbEntity
  8
1
  6
Continuous
 62
     3
100
AcDbLine
 10
101.80029239766
 20
4127.794385964911
 30
0.0
 11
96.80029239766
 21
4127.794385964911
 31
0.0
  0
LINE
  5
C0
330
A
100
AcDbEntity
  8
1
  6
Continuous
 62
     3
100
AcDbLine
 10
101.80029239766
 20
4143.594385964912
 30
0.0
 11
115.436807551806
 21
4143.594385964912
 31
0.0
  0
LINE
  5
BF
330
A
100
AcDbEntity
  8
1
  6
Continuous
 62
     3
100
AcDbLine
 10
133.163777243514
 20
4143.594385964912
 30
0.0
 11
140.436807551806
 21
4143.594385964912
 31
0.0
  0
LINE
  5
BE
330
A
100
AcDbEntity
  8
1
  6
Continuous
 62
     3
100
AcDbLine
 10
133.163777243514
 20
4127.794385964911
 30
0.0
 11
140.436807551806
 21
4127.794385964911
 31
0.0
  0
LINE
  5
BD
330
A
100
AcDbEntity
  8
1
  6
DOTTED
 62
     1
100
AcDbLine
 10
115.436807551806
 20
4143.594385964912
 30
0.0
 11
133.163777243514
 21
4143.594385964912
 31
0.0
  0
LINE
  5
BC
330
A
100
AcDbEntity
  8
1
  6
DOTTED
 62
     1
100
AcDbLine
 10
140.436807551806
 20
4143.594385964912
 30
0.0
 11
147.80029239766
 21
4143.594385964912
 31
0.0
  0
LINE
  5
BB
330
A
100
AcDbEntity
  8
1
  6
DOTTED
 62
     1
100
AcDbLine
 10
148.80029239766
 20
4142.594385964912
 30
0.0
 11
148.80029239766
 21
4128.794385964911
 31
0.0
  0
LINE
  5
BA
330
A
100
AcDbEntity
  8
1
  6
DOTTED
 62
     1
100
AcDbLine
 10
147.80029239766
 20
4127.794385964911
 30
0.0
 11
140.436807551806
 21
4127.794385964911
 31
0.0
  0
LINE
  5
B9
330
A
100
AcDbEntity
  8
1
  6
DOTTED
 62
     1
100
AcDbLine
 10
133.163777243514
 20
4127.794385964911
 30
0.0
 11
115.436807551806
 21
4127.794385964911
 31
0.0
  0
LINE
  5
B8
330
A
100
AcDbEntity
  8
1
  6
DOTTED
 62
     1
100
AcDbLine
 10
148.80029239766
 20
4142.594385964912
 30
0.0
 11
147.80029239766
 21
4143.594385964912
 31
0.0
  0
LINE
  5
B7
330
A
100
AcDbEntity
  8
1
  6
DOTTED
 62
     1
100
AcDbLine
 10
147.80029239766
 20
4127.794385964911
 30
0.0
 11
148.80029239766
 21
4128.794385964911
 31
0.0
  0
LINE
  5
B6
330
A
100
AcDbEntity
  8
1
  6
Continuous
 62
     3
100
AcDbLine
 10
101.80029239766
 20
4141.194385964911
 30
0.0
 11
102.80029239766
 21
4141.194385964911
 31
0.0
  0
LINE
  5
B5
330
A
100
AcDbEntity
  8
1
  6
Continuous
 62
     3
100
AcDbLine
 10
105.80029239766
 20
4141.194385964911
 30
0.0
 11
105.80029239766
 21
4130.194385964911
 31
0.0
  0
LINE
  5
B4
330
A
100
AcDbEntity
  8
1
  6
Continuous
 62
     3
100
AcDbLine
 10
101.80029239766
 20
4130.194385964911
 30
0.0
 11
102.80029239766
 21
4130.194385964911
 31
0.0
  0
LINE
  5
B3
330
A
100
AcDbEntity
  8
1
  6
Continuous
 62
     1
100
AcDbLine
 10
105.80029239766
 20
4130.194385964911
 30
0.0
 11
105.80029239766
 21
4129.694385964911
 31
0.0
  0
LINE
  5
B2
330
A
100
AcDbEntity
  8
1
  6
Continuous
 62
     3
100
AcDbLine
 10
101.80029239766
 20
4130.194385964911
 30
0.0
 11
101.80029239766
 21
4129.694385964911
 31
0.0
  0
LINE
  5
B1
330
A
100
AcDbEntity
  8
1
  6
Continuous
 62
     3
100
AcDbLine
 10
104.80029239766
 20
4130.194385964911
 30
0.0
 11
104.80029239766
 21
4129.694385964911
 31
0.0
  0
LINE
  5
B0
330
A
100
AcDbEntity
  8
1
  6
Continuous
 62
     1
100
AcDbLine
 10
103.80029239766
 20
4130.194385964911
 30
0.0
 11
103.80029239766
 21
4129.694385964911
 31
0.0
  0
LINE
  5
AF
330
A
100
AcDbEntity
  8
1
  6
Continuous
 62
     3
100
AcDbLine
 10
102.80029239766
 20
4130.194385964911
 30
0.0
 11
102.80029239766
 21
4129.694385964911
 31
0.0
  0
LINE
  5
AE
330
A
100
AcDbEntity
  8
1
  6
Continuous
 62
     3
100
AcDbLine
 10
104.80029239766
 20
4141.194385964911
 30
0.0
 11
105.80029239766
 21
4141.194385964911
 31
0.0
  0
LINE
  5
AD
330
A
100
AcDbEntity
  8
1
  6
Continuous
 62
     3
100
AcDbLine
 10
103.80029239766
 20
4141.194385964911
 30
0.0
 11
104.80029239766
 21
4141.194385964911
 31
0.0
  0
LINE
  5
AC
330
A
100
AcDbEntity
  8
1
  6
Continuous
 62
     3
100
AcDbLine
 10
102.80029239766
 20
4141.194385964911
 30
0.0
 11
103.80029239766
 21
4141.194385964911
 31
0.0
  0
LINE
  5
AB
330
A
100
AcDbEntity
  8
1
  6
Continuous
 62
     3
100
AcDbLine
 10
104.80029239766
 20
4130.194385964911
 30
0.0
 11
105.80029239766
 21
4130.194385964911
 31
0.0
  0
LINE
  5
AA
330
A
100
AcDbEntity
  8
1
  6
Continuous
 62
     3
100
AcDbLine
 10
103.80029239766
 20
4130.194385964911
 30
0.0
 11
104.80029239766
 21
4130.194385964911
 31
0.0
  0
LINE
  5
A9
330
A
100
AcDbEntity
  8
1
  6
Continuous
 62
     3
100
AcDbLine
 10
102.80029239766
 20
4130.194385964911
 30
0.0
 11
103.80029239766
 21
4130.194385964911
 31
0.0
  0
LINE
  5
A8
330
A
100
AcDbEntity
  8
1
  6
DOTTED
 62
     1
100
AcDbLine
 10
101.80029239766
 20
4141.194385964911
 30
0.0
 11
101.80029239766
 21
4130.194385964911
 31
0.0
  0
LINE
  5
A7
330
A
100
AcDbEntity
  8
1
  6
DOT_CENTER
 62
     1
100
AcDbLine
 10
12.170428963897
 20
4079.939550560779
 30
0.0
 11
12.170428963897
 21
4103.46955056078
 31
0.0
  0
LINE
  5
A6
330
A
100
AcDbEntity
  8
1
  6
Continuous
 62
     3
100
AcDbLine
 10
15.170428963897
 20
4084.385898033751
 30
0.0
 11
15.170428963897
 21
4100.09410196625
 31
0.0
  0
LINE
  5
A5
330
A
100
AcDbEntity
  8
1
  6
DOT_CENTER
 62
     1
100
AcDbLine
 10
-13.828190558616
 20
4092.239999999999
 30
0.0
 11
20.299233264098
 21
4092.239999999999
 31
0.0
  0
LINE
  5
A4
330
A
100
AcDbEntity
  8
1
  6
Continuous
 62
     3
100
AcDbLine
 10
8.920428963897
 20
4086.739999999999
 30
0.0
 11
8.920428963897
 21
4077.239999999999
 31
0.0
  0
LINE
  5
A3
330
A
100
AcDbEntity
  8
1
  6
Continuous
 62
     3
100
AcDbLine
 10
-2.579571036103
 20
4077.239999999999
 30
0.0
 11
-2.579571036103
 21
4086.739999999999
 31
0.0
  0
LINE
  5
A2
330
A
100
AcDbEntity
  8
1
  6
Continuous
 62
     3
100
AcDbLine
 10
-2.829571036103
 20
4098.74
 30
0.0
 11
9.170428963897
 21
4098.74
 31
0.0
  0
LINE
  5
A1
330
A
100
AcDbEntity
  8
1
  6
Continuous
 62
     3
100
AcDbLine
 10
8.170428963897
 20
4097.739999999999
 30
0.0
 11
8.170428963897
 21
4096.739999999999
 31
0.0
  0
LINE
  5
A0
330
A
100
AcDbEntity
  8
1
  6
Continuous
 62
     3
100
AcDbLine
 10
8.170428963897
 20
4096.739999999999
 30
0.0
 11
9.170428963897
 21
4096.739999999999
 31
0.0
  0
LINE
  5
9F
330
A
100
AcDbEntity
  8
1
  6
Continuous
 62
     3
100
AcDbLine
 10
8.170428963897
 20
4096.739999999999
 30
0.0
 11
8.170428963897
 21
4087.74
 31
0.0
  0
LINE
  5
9E
330
A
100
AcDbEntity
  8
1
  6
Continuous
 62
     3
100
AcDbLine
 10
8.170428963897
 20
4087.74
 30
0.0
 11
9.170428963897
 21
4087.74
 31
0.0
  0
LINE
  5
9D
330
A
100
AcDbEntity
  8
1
  6
Continuous
 62
     3
100
AcDbLine
 10
9.170428963897
 20
4084.385898033751
 30
0.0
 11
9.170428963897
 21
4086.739999999999
 31
0.0
  0
LINE
  5
9C
330
A
100
AcDbEntity
  8
1
  6
Continuous
 62
     3
100
AcDbLine
 10
-2.829571036103
 20
4086.739999999999
 30
0.0
 11
9.170428963897
 21
4086.739999999999
 31
0.0
  0
LINE
  5
9B
330
A
100
AcDbEntity
  8
1
  6
Continuous
 62
     3
100
AcDbLine
 10
5.170428963896999
 20
4085.74
 30
0.0
 11
5.170428963896999
 21
4082.74
 31
0.0
  0
LINE
  5
9A
330
A
100
AcDbEntity
  8
1
  6
Continuous
 62
     3
100
AcDbLine
 10
9.170428963897
 20
4086.739999999999
 30
0.0
 11
9.170428963897
 21
4098.74
 31
0.0
  0
LINE
  5
99
330
A
100
AcDbEntity
  8
1
  6
DOT_CENTER
 62
     1
100
AcDbLine
 10
3.170428963896999
 20
4108.168215677109
 30
0.0
 11
3.170428963896999
 21
4018.658776875421
 31
0.0
  0
LINE
  5
98
330
A
100
AcDbEntity
  8
1
  6
Continuous
 62
     3
100
AcDbLine
 10
5.170428963896999
 20
4092.74
 30
0.0
 11
5.170428963896999
 21
4097.739999999999
 31
0.0
  0
LINE
  5
97
330
A
100
AcDbEntity
  8
1
  6
Continuous
 62
     3
100
AcDbLine
 10
9.170428963897
 20
4098.74
 30
0.0
 11
9.170428963897
 21
4100.09410196625
 31
0.0
  0
LINE
  5
96
330
A
100
AcDbEntity
  8
1
  6
Continuous
 62
     3
100
AcDbLine
 10
-0.871022920431
 20
4076.24
 30
0.0
 11
-0.871022920431
 21
4074.239999999999
 31
0.0
  0
LINE
  5
95
330
A
100
AcDbEntity
  8
1
  6
Continuous
 62
     3
100
AcDbLine
 10
1.149703021732999
 20
4076.24
 30
0.0
 11
1.149703021732999
 21
4074.239999999999
 31
0.0
  0
LINE
  5
94
330
A
100
AcDbEntity
  8
1
  6
Continuous
 62
     3
100
AcDbLine
 10
5.191154906061
 20
4076.24
 30
0.0
 11
5.191154906061
 21
4074.239999999999
 31
0.0
  0
LINE
  5
93
330
A
100
AcDbEntity
  8
1
  6
Continuous
 62
     3
100
AcDbLine
 10
7.920428963897
 20
4076.24
 30
0.0
 11
-1.579571036103
 21
4076.24
 31
0.0
  0
LINE
  5
92
330
A
100
AcDbEntity
  8
1
  6
Continuous
 62
     3
100
AcDbLine
 10
7.211880848223999
 20
4076.24
 30
0.0
 11
7.211880848223999
 21
4074.239999999999
 31
0.0
  0
LINE
  5
91
330
A
100
AcDbEntity
  8
1
  6
Continuous
 62
     3
100
AcDbLine
 10
-4.729571036102999
 20
4074.239999999999
 30
0.0
 11
11.070428963897
 21
4074.239999999999
 31
0.0
  0
LINE
  5
90
330
A
100
AcDbEntity
  8
1
  6
Continuous
 62
     3
100
AcDbLine
 10
11.070428963897
 20
4074.239999999999
 30
0.0
 11
11.070428963897
 21
4034.239999999999
 31
0.0
  0
LINE
  5
8F
330
A
100
AcDbEntity
  8
1
  6
Continuous
 62
     3
100
AcDbLine
 10
-4.729571036102999
 20
4034.239999999999
 30
0.0
 11
-4.729571036102999
 21
4074.239999999999
 31
0.0
  0
LINE
  5
8E
330
A
100
AcDbEntity
  8
1
  6
Continuous
 62
     4
100
AcDbLine
 10
-11.329571036103
 20
4104.240000000001
 30
0.0
 11
16.670428963897
 21
4104.240000000001
 31
0.0
  0
LINE
  5
8D
330
A
100
AcDbEntity
  8
1
  6
Continuous
 62
     4
100
AcDbLine
 10
17.670428963897
 20
4103.240000000002
 30
0.0
 11
17.670428963897
 21
4084.275898384863
 31
0.0
  0
LINE
  5
8C
330
A
100
AcDbEntity
  8
1
  6
Continuous
 62
     4
100
AcDbLine
 10
16.170428963897
 20
4100.301552812811
 30
0.0
 11
16.170428963897
 21
4100.301552812807
 31
0.0
  0
LINE
  5
8B
330
A
100
AcDbEntity
  8
1
  6
Continuous
 62
     4
100
AcDbLine
 10
8.920428963897
 20
4101.740000000002
 30
0.0
 11
8.920428963897
 21
4100.740000000001
 31
0.0
  0
LINE
  5
8A
330
A
100
AcDbEntity
  8
1
  6
Continuous
 62
     4
100
AcDbLine
 10
8.420428963897
 20
4100.240000000002
 30
0.0
 11
7.920428963897
 21
4100.240000000002
 31
0.0
  0
LINE
  5
89
330
A
100
AcDbEntity
  8
1
  6
Continuous
 62
     4
100
AcDbLine
 10
7.420428963897
 20
4100.740000000001
 30
0.0
 11
7.420428963897
 21
4102.240000000001
 31
0.0
  0
LINE
  5
88
330
A
100
AcDbEntity
  8
1
  6
Continuous
 62
     4
100
AcDbLine
 10
9.920428963897
 20
4102.740000000001
 30
0.0
 11
12.170428963897
 21
4102.740000000001
 31
0.0
  0
LINE
  5
87
330
A
100
AcDbEntity
  8
1
  6
Continuous
 62
     4
100
AcDbLine
 10
-0.5795710361030001
 20
4102.740000000001
 30
0.0
 11
6.920428963897
 21
4102.740000000001
 31
0.0
  0
LINE
  5
86
330
A
100
AcDbEntity
  8
1
  6
Continuous
 62
     4
100
AcDbLine
 10
16.170428963897
 20
4100.301552812807
 30
0.0
 11
16.170428963897
 21
4085.678447187191
 31
0.0
  0
LINE
  5
85
330
A
100
AcDbEntity
  8
1
  6
Continuous
 62
     4
100
AcDbLine
 10
-2.829571036103
 20
4082.285643942683
 30
0.0
 11
-2.829571036103
 21
4083.867016653793
 31
0.0
  0
LINE
  5
84
330
A
100
AcDbEntity
  8
1
  6
Continuous
 62
     4
100
AcDbLine
 10
-9.829571036102999
 20
4085.678447187191
 30
0.0
 11
-9.829571036102999
 21
4100.301552812807
 31
0.0
  0
LINE
  5
83
330
A
100
AcDbEntity
  8
1
  6
Continuous
 62
     4
100
AcDbLine
 10
-5.829571036102999
 20
4102.740000000001
 30
0.0
 11
-3.579571036103
 21
4102.740000000001
 31
0.0
  0
LINE
  5
82
330
A
100
AcDbEntity
  8
1
  6
Continuous
 62
     4
100
AcDbLine
 10
-1.079571036102999
 20
4102.240000000001
 30
0.0
 11
-1.079571036102999
 21
4100.740000000001
 31
0.0
  0
LINE
  5
81
330
A
100
AcDbEntity
  8
1
  6
Continuous
 62
     4
100
AcDbLine
 10
-1.579571036103
 20
4100.240000000002
 30
0.0
 11
-2.079571036103
 21
4100.240000000002
 31
0.0
  0
LINE
  5
80
330
A
100
AcDbEntity
  8
1
  6
Continuous
 62
     4
100
AcDbLine
 10
-2.579571036103
 20
4100.740000000001
 30
0.0
 11
-2.579571036103
 21
4101.740000000002
 31
0.0
  0
LINE
  5
7F
330
A
100
AcDbEntity
  8
1
  6
Continuous
 62
     4
100
AcDbLine
 10
-9.829571036102999
 20
4100.301552812807
 30
0.0
 11
-9.829571036102999
 21
4100.301552812811
 31
0.0
  0
LINE
  5
7E
330
A
100
AcDbEntity
  8
1
  6
Continuous
 62
     4
100
AcDbLine
 10
-11.329571036103
 20
4084.275898384863
 30
0.0
 11
-11.329571036103
 21
4103.240000000002
 31
0.0
  0
LINE
  5
7D
330
A
100
AcDbEntity
  8
1
  6
Continuous
 62
     3
100
AcDbLine
 10
-2.829571036103
 20
4100.09410196625
 30
0.0
 11
-2.829571036103
 21
4098.74
 31
0.0
  0
LINE
  5
7C
330
A
100
AcDbEntity
  8
1
  6
Continuous
 62
     3
100
AcDbLine
 10
1.170428963897
 20
4097.739999999999
 30
0.0
 11
1.170428963897
 21
4092.74
 31
0.0
  0
LINE
  5
7B
330
A
100
AcDbEntity
  8
1
  6
Continuous
 62
     3
100
AcDbLine
 10
-2.829571036103
 20
4098.74
 30
0.0
 11
-2.829571036103
 21
4086.739999999999
 31
0.0
  0
LINE
  5
7A
330
A
100
AcDbEntity
  8
1
  6
Continuous
 62
     3
100
AcDbLine
 10
1.170428963897
 20
4082.74
 30
0.0
 11
1.170428963897
 21
4085.74
 31
0.0
  0
LINE
  5
79
330
A
100
AcDbEntity
  8
1
  6
Continuous
 62
     3
100
AcDbLine
 10
-2.829571036103
 20
4086.739999999999
 30
0.0
 11
-2.829571036103
 21
4084.385898033751
 31
0.0
  0
LINE
  5
78
330
A
100
AcDbEntity
  8
1
  6
Continuous
 62
     3
100
AcDbLine
 10
-2.829571036103
 20
4087.74
 30
0.0
 11
-1.829571036103
 21
4087.74
 31
0.0
  0
LINE
  5
77
330
A
100
AcDbEntity
  8
1
  6
Continuous
 62
     3
100
AcDbLine
 10
-1.829571036103
 20
4087.74
 30
0.0
 11
-1.829571036103
 21
4096.739999999999
 31
0.0
  0
LINE
  5
76
330
A
100
AcDbEntity
  8
1
  6
Continuous
 62
     3
100
AcDbLine
 10
-2.829571036103
 20
4096.739999999999
 30
0.0
 11
-1.829571036103
 21
4096.739999999999
 31
0.0
  0
LINE
  5
75
330
A
100
AcDbEntity
  8
1
  6
Continuous
 62
     3
100
AcDbLine
 10
-1.829571036103
 20
4096.739999999999
 30
0.0
 11
-1.829571036103
 21
4097.739999999999
 31
0.0
  0
LINE
  5
74
330
A
100
AcDbEntity
  8
1
  6
Continuous
 62
     3
100
AcDbLine
 10
-8.829571036102999
 20
4100.09410196625
 30
0.0
 11
-8.829571036102999
 21
4084.385898033751
 31
0.0
  0
LINE
  5
73
330
A
100
AcDbEntity
  8
1
  6
DOT_CENTER
 62
     1
100
AcDbLine
 10
-5.829571036102999
 20
4103.46955056078
 30
0.0
 11
-5.829571036102999
 21
4079.939550560779
 31
0.0
  0
LINE
  5
72
330
A
100
AcDbEntity
  8
1
  6
Continuous
 62
     4
100
AcDbLine
 10
9.170428963897
 20
4083.867016653793
 30
0.0
 11
9.170428963897
 21
4082.285643942683
 31
0.0
  0
LINE
  5
71
330
A
100
AcDbEntity
  8
1
  6
Continuous
 62
     3
100
AcDbLine
 10
101.80029239766
 20
4072.14
 30
0.0
 11
99.80029239765999
 21
4072.14
 31
0.0
  0
LINE
  5
70
330
A
100
AcDbEntity
  8
1
  6
Continuous
 62
     3
100
AcDbLine
 10
101.80029239766
 20
4072.14
 30
0.0
 11
101.80029239766
 21
4074.239999999999
 31
0.0
  0
LINE
  5
6F
330
A
100
AcDbEntity
  8
1
  6
Continuous
 62
     3
100
AcDbLine
 10
99.30029239766
 20
4071.64
 30
0.0
 11
99.30029239766
 21
4064.24
 31
0.0
  0
LINE
  5
6E
330
A
100
AcDbEntity
  8
1
  6
Continuous
 62
     3
100
AcDbLine
 10
99.30029239766
 20
4064.24
 30
0.0
 11
101.80029239766
 21
4064.24
 31
0.0
  0
LINE
  5
6D
330
A
100
AcDbEntity
  8
1
  6
Continuous
 62
     3
100
AcDbLine
 10
101.80029239766
 20
4064.24
 30
0.0
 11
101.80029239766
 21
4072.14
 31
0.0
  0
LINE
  5
6C
330
A
100
AcDbEntity
  8
1
  6
Continuous
 62
     3
100
AcDbLine
 10
101.80029239766
 20
4044.24
 30
0.0
 11
99.30029239766
 21
4044.24
 31
0.0
  0
LINE
  5
6B
330
A
100
AcDbEntity
  8
1
  6
Continuous
 62
     3
100
AcDbLine
 10
101.80029239766
 20
4044.24
 30
0.0
 11
101.80029239766
 21
4064.24
 31
0.0
  0
LINE
  5
6A
330
A
100
AcDbEntity
  8
1
  6
Continuous
 62
     3
100
AcDbLine
 10
99.30029239766
 20
4030.24
 30
0.0
 11
101.80029239766
 21
4030.24
 31
0.0
  0
LINE
  5
69
330
A
100
AcDbEntity
  8
1
  6
Continuous
 62
     3
100
AcDbLine
 10
101.80029239766
 20
4030.24
 30
0.0
 11
101.80029239766
 21
4036.34
 31
0.0
  0
LINE
  5
68
330
A
100
AcDbEntity
  8
1
  6
Continuous
 62
     3
100
AcDbLine
 10
99.30029239766
 20
4044.24
 30
0.0
 11
99.30029239766
 21
4030.24
 31
0.0
  0
LINE
  5
67
330
A
100
AcDbEntity
  8
1
  6
Continuous
 62
     3
100
AcDbLine
 10
52.304931887873
 20
4072.14
 30
0.0
 11
60.304931887873
 21
4072.14
 31
0.0
  0
LINE
  5
66
330
A
100
AcDbEntity
  8
1
  6
Continuous
 62
     3
100
AcDbLine
 10
60.80493188787301
 20
4071.64
 30
0.0
 11
60.80493188787301
 21
4070.24
 31
0.0
  0
LINE
  5
65
330
A
100
AcDbEntity
  8
1
  6
Continuous
 62
     3
100
AcDbLine
 10
60.304931887873
 20
4069.74
 30
0.0
 11
52.304931887873
 21
4069.74
 31
0.0
  0
LINE
  5
64
330
A
100
AcDbEntity
  8
1
  6
Continuous
 62
     3
100
AcDbLine
 10
51.804931887873
 20
4070.24
 30
0.0
 11
51.804931887873
 21
4071.64
 31
0.0
  0
LINE
  5
63
330
A
100
AcDbEntity
  8
1
  6
Continuous
 62
     3
100
AcDbLine
 10
-1.329571036102999
 20
4070.24
 30
0.0
 11
-1.329571036102999
 21
4071.64
 31
0.0
  0
LINE
  5
62
330
A
100
AcDbEntity
  8
1
  6
Continuous
 62
     3
100
AcDbLine
 10
7.170428963897
 20
4069.74
 30
0.0
 11
-0.829571036103
 21
4069.74
 31
0.0
  0
LINE
  5
61
330
A
100
AcDbEntity
  8
1
  6
Continuous
 62
     3
100
AcDbLine
 10
7.670428963897
 20
4071.64
 30
0.0
 11
7.670428963897
 21
4070.24
 31
0.0
  0
LINE
  5
60
330
A
100
AcDbEntity
  8
1
  6
Continuous
 62
     3
100
AcDbLine
 10
-0.829571036103
 20
4072.14
 30
0.0
 11
7.170428963897
 21
4072.14
 31
0.0
  0
LINE
  5
5F
330
A
100
AcDbEntity
  8
1
  6
DOTTED
 62
     1
100
AcDbLine
 10
54.304931887873
 20
4053.239999999999
 30
0.0
 11
58.30493188787301
 21
4053.239999999999
 31
0.0
  0
LINE
  5
5E
330
A
100
AcDbEntity
  8
1
  6
DOTTED
 62
     1
100
AcDbLine
 10
54.304931887873
 20
4045.239999999999
 30
0.0
 11
58.30493188787301
 21
4045.239999999999
 31
0.0
  0
LINE
  5
5D
330
A
100
AcDbEntity
  8
1
  6
DOTTED
 62
     1
100
AcDbLine
 10
57.612601570936
 20
4049.739999999999
 30
0.0
 11
59.304931887873
 21
4049.739999999999
 31
0.0
  0
LINE
  5
5C
330
A
100
AcDbEntity
  8
1
  6
DOTTED
 62
     1
100
AcDbLine
 10
56.804931887873
 20
4047.932330316938
 30
0.0
 11
56.804931887873
 21
4046.24
 31
0.0
  0
LINE
  5
5B
330
A
100
AcDbEntity
  8
1
  6
DOTTED
 62
     1
100
AcDbLine
 10
54.997262204811
 20
4048.74
 30
0.0
 11
53.30493188787301
 21
4048.74
 31
0.0
  0
LINE
  5
5A
330
A
100
AcDbEntity
  8
1
  6
DOTTED
 62
     1
100
AcDbLine
 10
55.80493188787301
 20
4050.547669683061
 30
0.0
 11
55.80493188787301
 21
4052.24
 31
0.0
  0
LINE
  5
59
330
A
100
AcDbEntity
  8
1
  6
DOTTED
 62
     1
100
AcDbLine
 10
55.80493188787301
 20
4046.24
 30
0.0
 11
55.80493188787301
 21
4047.932330316938
 31
0.0
  0
LINE
  5
58
330
A
100
AcDbEntity
  8
1
  6
DOTTED
 62
     1
100
AcDbLine
 10
56.804931887873
 20
4046.24
 30
0.0
 11
55.80493188787301
 21
4046.24
 31
0.0
  0
LINE
  5
57
330
A
100
AcDbEntity
  8
1
  6
DOTTED
 62
     1
100
AcDbLine
 10
56.804931887873
 20
4052.24
 30
0.0
 11
56.804931887873
 21
4050.547669683061
 31
0.0
  0
LINE
  5
56
330
A
100
AcDbEntity
  8
1
  6
DOTTED
 62
     1
100
AcDbLine
 10
55.80493188787301
 20
4052.24
 30
0.0
 11
56.804931887873
 21
4052.24
 31
0.0
  0
LINE
  5
55
330
A
100
AcDbEntity
  8
1
  6
DOTTED
 62
     1
100
AcDbLine
 10
53.30493188787301
 20
4048.74
 30
0.0
 11
53.30493188787301
 21
4049.739999999999
 31
0.0
  0
LINE
  5
54
330
A
100
AcDbEntity
  8
1
  6
DOTTED
 62
     1
100
AcDbLine
 10
59.304931887873
 20
4048.74
 30
0.0
 11
57.612601570936
 21
4048.74
 31
0.0
  0
LINE
  5
53
330
A
100
AcDbEntity
  8
1
  6
DOTTED
 62
     1
100
AcDbLine
 10
59.304931887873
 20
4049.739999999999
 30
0.0
 11
59.304931887873
 21
4048.74
 31
0.0
  0
LINE
  5
52
330
A
100
AcDbEntity
  8
1
  6
DOTTED
 62
     1
100
AcDbLine
 10
53.30493188787301
 20
4049.739999999999
 30
0.0
 11
54.997262204811
 21
4049.739999999999
 31
0.0
  0
LINE
  5
51
330
A
100
AcDbEntity
  8
1
  6
DOT_CENTER
 62
     1
100
AcDbLine
 10
49.630269253392
 20
4049.24
 30
0.0
 11
63.660269253392
 21
4049.24
 31
0.0
  0
LINE
  5
50
330
A
100
AcDbEntity
  8
1
  6
DOTTED
 62
     1
100
AcDbLine
 10
57.612601570936
 20
4062.74
 30
0.0
 11
59.304931887873
 21
4062.74
 31
0.0
  0
LINE
  5
4F
330
A
100
AcDbEntity
  8
1
  6
DOTTED
 62
     1
100
AcDbLine
 10
56.804931887873
 20
4060.932330316938
 30
0.0
 11
56.804931887873
 21
4059.239999999999
 31
0.0
  0
LINE
  5
4E
330
A
100
AcDbEntity
  8
1
  6
DOTTED
 62
     1
100
AcDbLine
 10
54.997262204811
 20
4061.739999999999
 30
0.0
 11
53.30493188787301
 21
4061.739999999999
 31
0.0
  0
LINE
  5
4D
330
A
100
AcDbEntity
  8
1
  6
DOTTED
 62
     1
100
AcDbLine
 10
55.80493188787301
 20
4063.547669683062
 30
0.0
 11
55.80493188787301
 21
4065.24
 31
0.0
  0
LINE
  5
4C
330
A
100
AcDbEntity
  8
1
  6
DOTTED
 62
     1
100
AcDbLine
 10
55.80493188787301
 20
4059.239999999999
 30
0.0
 11
55.80493188787301
 21
4060.932330316938
 31
0.0
  0
LINE
  5
4B
330
A
100
AcDbEntity
  8
1
  6
DOTTED
 62
     1
100
AcDbLine
 10
56.804931887873
 20
4059.239999999999
 30
0.0
 11
55.80493188787301
 21
4059.239999999999
 31
0.0
  0
LINE
  5
4A
330
A
100
AcDbEntity
  8
1
  6
DOTTED
 62
     1
100
AcDbLine
 10
56.804931887873
 20
4065.24
 30
0.0
 11
56.804931887873
 21
4063.547669683062
 31
0.0
  0
LINE
  5
49
330
A
100
AcDbEntity
  8
1
  6
DOTTED
 62
     1
100
AcDbLine
 10
55.80493188787301
 20
4065.24
 30
0.0
 11
56.804931887873
 21
4065.24
 31
0.0
  0
LINE
  5
48
330
A
100
AcDbEntity
  8
1
  6
DOTTED
 62
     1
100
AcDbLine
 10
53.30493188787301
 20
4061.739999999999
 30
0.0
 11
53.30493188787301
 21
4062.74
 31
0.0
  0
LINE
  5
47
330
A
100
AcDbEntity
  8
1
  6
DOTTED
 62
     1
100
AcDbLine
 10
59.304931887873
 20
4061.739999999999
 30
0.0
 11
57.612601570936
 21
4061.739999999999
 31
0.0
  0
LINE
  5
46
330
A
100
AcDbEntity
  8
1
  6
DOTTED
 62
     1
100
AcDbLine
 10
59.304931887873
 20
4062.74
 30
0.0
 11
59.304931887873
 21
4061.739999999999
 31
0.0
  0
LINE
  5
45
330
A
100
AcDbEntity
  8
1
  6
DOTTED
 62
     1
100
AcDbLine
 10
53.30493188787301
 20
4062.74
 30
0.0
 11
54.997262204811
 21
4062.74
 31
0.0
  0
LINE
  5
44
330
A
100
AcDbEntity
  8
1
  6
DOT_CENTER
 62
     1
100
AcDbLine
 10
49.289931887873
 20
4062.24
 30
0.0
 11
63.31993188787301
 21
4062.24
 31
0.0
  0
LINE
  5
43
330
A
100
AcDbEntity
  8
1
  6
DOT_CENTER
 62
     1
100
AcDbLine
 10
-3.844571036102999
 20
4062.24
 30
0.0
 11
10.185428963897
 21
4062.24
 31
0.0
  0
LINE
  5
42
330
A
100
AcDbEntity
  8
1
  6
DOTTED
 62
     1
100
AcDbLine
 10
0.170428963897
 20
4062.74
 30
0.0
 11
1.862759280835
 21
4062.74
 31
0.0
  0
LINE
  5
41
330
A
100
AcDbEntity
  8
1
  6
DOTTED
 62
     1
100
AcDbLine
 10
6.170428963897
 20
4062.74
 30
0.0
 11
6.170428963897
 21
4061.739999999999
 31
0.0
  0
LINE
  5
40
330
A
100
AcDbEntity
  8
1
  6
DOTTED
 62
     1
100
AcDbLine
 10
6.170428963897
 20
4061.739999999999
 30
0.0
 11
4.478098646959
 21
4061.739999999999
 31
0.0
  0
LINE
  5
3F
330
A
100
AcDbEntity
  8
1
  6
DOTTED
 62
     1
100
AcDbLine
 10
0.170428963897
 20
4061.739999999999
 30
0.0
 11
0.170428963897
 21
4062.74
 31
0.0
  0
LINE
  5
3E
330
A
100
AcDbEntity
  8
1
  6
DOTTED
 62
     1
100
AcDbLine
 10
2.670428963896999
 20
4065.24
 30
0.0
 11
3.670428963896999
 21
4065.24
 31
0.0
  0
LINE
  5
3D
330
A
100
AcDbEntity
  8
1
  6
DOTTED
 62
     1
100
AcDbLine
 10
3.670428963896999
 20
4065.24
 30
0.0
 11
3.670428963896999
 21
4063.547669683062
 31
0.0
  0
LINE
  5
3C
330
A
100
AcDbEntity
  8
1
  6
DOTTED
 62
     1
100
AcDbLine
 10
3.670428963896999
 20
4059.239999999999
 30
0.0
 11
2.670428963896999
 21
4059.239999999999
 31
0.0
  0
LINE
  5
3B
330
A
100
AcDbEntity
  8
1
  6
DOTTED
 62
     1
100
AcDbLine
 10
2.670428963896999
 20
4059.239999999999
 30
0.0
 11
2.670428963896999
 21
4060.932330316938
 31
0.0
  0
LINE
  5
3A
330
A
100
AcDbEntity
  8
1
  6
DOTTED
 62
     1
100
AcDbLine
 10
2.670428963896999
 20
4063.547669683062
 30
0.0
 11
2.670428963896999
 21
4065.24
 31
0.0
  0
LINE
  5
39
330
A
100
AcDbEntity
  8
1
  6
DOTTED
 62
     1
100
AcDbLine
 10
1.862759280835
 20
4061.739999999999
 30
0.0
 11
0.170428963897
 21
4061.739999999999
 31
0.0
  0
LINE
  5
38
330
A
100
AcDbEntity
  8
1
  6
DOTTED
 62
     1
100
AcDbLine
 10
3.670428963896999
 20
4060.932330316938
 30
0.0
 11
3.670428963896999
 21
4059.239999999999
 31
0.0
  0
LINE
  5
37
330
A
100
AcDbEntity
  8
1
  6
DOTTED
 62
     1
100
AcDbLine
 10
4.478098646959
 20
4062.74
 30
0.0
 11
6.170428963897
 21
4062.74
 31
0.0
  0
LINE
  5
36
330
A
100
AcDbEntity
  8
1
  6
DOT_CENTER
 62
     1
100
AcDbLine
 10
-3.504233670585
 20
4049.24
 30
0.0
 11
10.525766329415
 21
4049.24
 31
0.0
  0
LINE
  5
35
330
A
100
AcDbEntity
  8
1
  6
DOTTED
 62
     1
100
AcDbLine
 10
0.170428963897
 20
4049.739999999999
 30
0.0
 11
1.862759280835
 21
4049.739999999999
 31
0.0
  0
LINE
  5
34
330
A
100
AcDbEntity
  8
1
  6
DOTTED
 62
     1
100
AcDbLine
 10
6.170428963897
 20
4049.739999999999
 30
0.0
 11
6.170428963897
 21
4048.74
 31
0.0
  0
LINE
  5
33
330
A
100
AcDbEntity
  8
1
  6
DOTTED
 62
     1
100
AcDbLine
 10
6.170428963897
 20
4048.74
 30
0.0
 11
4.478098646959
 21
4048.74
 31
0.0
  0
LINE
  5
32
330
A
100
AcDbEntity
  8
1
  6
DOTTED
 62
     1
100
AcDbLine
 10
0.170428963897
 20
4048.74
 30
0.0
 11
0.170428963897
 21
4049.739999999999
 31
0.0
  0
LINE
  5
31
330
A
100
AcDbEntity
  8
1
  6
DOTTED
 62
     1
100
AcDbLine
 10
2.670428963896999
 20
4052.24
 30
0.0
 11
3.670428963896999
 21
4052.24
 31
0.0
  0
LINE
  5
30
330
A
100
AcDbEntity
  8
1
  6
DOTTED
 62
     1
100
AcDbLine
 10
3.670428963896999
 20
4052.24
 30
0.0
 11
3.670428963896999
 21
4050.547669683061
 31
0.0
  0
LINE
  5
2F
330
A
100
AcDbEntity
  8
1
  6
DOTTED
 62
     1
100
AcDbLine
 10
3.670428963896999
 20
4046.24
 30
0.0
 11
2.670428963896999
 21
4046.24
 31
0.0
  0
LINE
  5
2E
330
A
100
AcDbEntity
  8
1
  6
DOTTED
 62
     1
100
AcDbLine
 10
2.670428963896999
 20
4046.24
 30
0.0
 11
2.670428963896999
 21
4047.932330316938
 31
0.0
  0
LINE
  5
2D
330
A
100
AcDbEntity
  8
1
  6
DOTTED
 62
     1
100
AcDbLine
 10
2.670428963896999
 20
4050.547669683061
 30
0.0
 11
2.670428963896999
 21
4052.24
 31
0.0
  0
LINE
  5
2C
330
A
100
AcDbEntity
  8
1
  6
DOTTED
 62
     1
100
AcDbLine
 10
1.862759280835
 20
4048.74
 30
0.0
 11
0.170428963897
 21
4048.74
 31
0.0
  0
LINE
  5
2B
330
A
100
AcDbEntity
  8
1
  6
DOTTED
 62
     1
100
AcDbLine
 10
3.670428963896999
 20
4047.932330316938
 30
0.0
 11
3.670428963896999
 21
4046.24
 31
0.0
  0
LINE
  5
2A
330
A
100
AcDbEntity
  8
1
  6
DOTTED
 62
     1
100
AcDbLine
 10
4.478098646959
 20
4049.739999999999
 30
0.0
 11
6.170428963897
 21
4049.739999999999
 31
0.0
  0
LINE
  5
29
330
A
100
AcDbEntity
  8
1
  6
DOTTED
 62
     1
100
AcDbLine
 10
1.170428963897
 20
4045.239999999999
 30
0.0
 11
5.170428963896999
 21
4045.239999999999
 31
0.0
  0
LINE
  5
28
330
A
100
AcDbEntity
  8
1
  6
DOTTED
 62
     1
100
AcDbLine
 10
1.170428963897
 20
4053.239999999999
 30
0.0
 11
5.170428963896999
 21
4053.239999999999
 31
0.0
  0
ENDSEC
  0
SECTION
  2
OBJECTS
  0
DICTIONARY
  5
19
330
0
100
AcDbDictionary
281
     1
  3
ACAD_COLOR
350
2A1
  3
ACAD_GROUP
350
1A
  3
ACAD_LAYOUT
350
2A4
  3
ACAD_MATERIAL
350
2A0
  3
ACAD_MLINESTYLE
350
1B
  3
ACAD_PLOTSETTINGS
350
2A5
  3
ACAD_PLOTSTYLENAME
350
29E
  3
ACAD_TABLESTYLE
350
2A2
  3
ACDBHEADERROUNDTRIPXREC
350
3D8
  3
AcDbVariableDictionary
350
3D1
  3
AcmDictionary
350
36B
  3
AMG
350
2E6
  3
AMGSNAPSETTINGS
350
3C1
  3
ASE_INDEX_DICTIONARY
350
3C9
  3
DWGPROPS
350
3D7
  3
MAPISURF_MODULE
350
337
  0
DICTIONARY
  5
3CC
330
A
100
AcDbDictionary
280
     1
281
     1
  3
ACAD_INDEX
360
3CD
  0
DICTIONARY
  5
2A1
102
{ACAD_REACTORS
330
19
102
}
330
19
100
AcDbDictionary
281
     1
  0
DICTIONARY
  5
1A
102
{ACAD_REACTORS
330
19
102
}
330
19
100
AcDbDictionary
281
     1
  0
DICTIONARY
  5
2A4
102
{ACAD_REACTORS
330
19
102
}
330
19
100
AcDbDictionary
281
     1
  3
Model
350
2A6
  3
レイアウト1
350
2A7
  0
DICTIONARY
  5
2A0
102
{ACAD_REACTORS
330
19
102
}
330
19
100
AcDbDictionary
281
     1
  0
DICTIONARY
  5
1B
102
{ACAD_REACTORS
330
19
102
}
330
19
100
AcDbDictionary
281
     1
  3
STANDARD
350
1C
  0
DICTIONARY
  5
2A5
102
{ACAD_REACTORS
330
19
102
}
330
19
100
AcDbDictionary
281
     1
  0
ACDBDICTIONARYWDFLT
  5
29E
102
{ACAD_REACTORS
330
19
102
}
330
19
100
AcDbDictionary
281
     1
  3
Normal
350
29F
100
AcDbDictionaryWithDefault
340
29F
  0
DICTIONARY
  5
2A2
102
{ACAD_REACTORS
330
19
102
}
330
19
100
AcDbDictionary
281
     1
  3
Standard
350
2A3
  0
DICTIONARY
  5
3D8
102
{ACAD_REACTORS
330
19
102
}
330
19
100
AcDbDictionary
281
     1
  0
DICTIONARY
  5
3D1
102
{ACAD_REACTORS
330
19
102
}
330
19
100
AcDbDictionary
281
     1
  3
CTABLESTYLE
350
3D2
  3
DIMASSOC
350
3D4
  3
INDEXCTL
350
3D3
  3
PROJECTNAME
350
3D5
  0
DICTIONARY
  5
36B
102
{ACAD_REACTORS
330
19
102
}
330
19
100
AcDbDictionary
281
     1
  3
AcmStdDictionary
350
377
  3
AMDTSECTSYM_ARROWCOLOR
350
396
  0
DICTIONARY
  5
2E6
102
{ACAD_REACTORS
330
19
102
}
330
19
100
AcDbDictionary
281
     1
  3
AcMgSettings
350
2E7
  0
DICTIONARY
  5
3C1
102
{ACAD_REACTORS
330
19
102
}
330
19
100
AcDbDictionary
281
     1
  3
DIMENSION
350
3C6
  3
FEA
350
3C5
  3
HATCH (1)
350
3C2
  3
HATCH (2)
350
3C3
  3
SIMPLE WELD
350
3C7
  3
SYMBOLS
350
3C4
  0
DICTIONARY
  5
3C9
102
{ACAD_REACTORS
330
19
102
}
330
19
100
AcDbDictionary
281
     1
  3
ASEBlockHierarchyIndexRecord
350
3CB
1001
DCO15
1040
1937882662.51
  0
XRECORD
  5
3D7
102
{ACAD_REACTORS
330
19
102
}
330
19
100
AcDbXrecord
280
     1
  1
DWGPROPS COOKIE
  2

  3

  4

  6

  7

  8

  9

300
AmdtFileType=84
301
=
302
=
303
=
304
=
305
=
306
=
307
=
308
=
309
=
 40
0.0003063541666667
 41
2305814.417176053
 42
2458232.409334606
  1

 90
        1
  0
DICTIONARY
  5
3CD
102
{ACAD_REACTORS
330
3CC
102
}
330
3CC
100
AcDbDictionary
281
     1
  3
*A1
350
3CE
  0
LAYOUT
  5
2A6
102
{ACAD_XDICTIONARY
360
3D9
102
}
102
{ACAD_REACTORS
330
2A4
102
}
330
2A4
100
AcDbPlotSettings
  1

  2
Adobe PDF#:3
  4

  6

 40
0.0
 41
0.0
 42
0.0
 43
0.0
 44
0.0
 45
0.0
 46
0.0
 47
0.0
 48
0.0
 49
0.0
140
0.0
141
0.0
142
1.0
143
1.0
 70
  1712
 72
     0
 73
     0
 74
     0
  7

 75
     0
147
1.0
148
0.0
149
0.0
100
AcDbLayout
  1
Model
 70
     1
 71
     0
 10
0.0
 20
0.0
 11
12.0
 21
9.0
 12
0.0
 22
0.0
 32
0.0
 14
0.0
 24
0.0
 34
0.0
 15
0.0
 25
0.0
 35
0.0
146
0.0
 13
0.0
 23
0.0
 33
0.0
 16
1.0
 26
0.0
 36
0.0
 17
0.0
 27
1.0
 37
0.0
 76
     0
330
A
  0
LAYOUT
  5
2A7
102
{ACAD_XDICTIONARY
360
3DB
102
}
102
{ACAD_REACTORS
330
2A4
102
}
330
2A4
100
AcDbPlotSettings
  1

  2
Adobe PDF#:3
  4

  6

 40
0.0
 41
0.0
 42
0.0
 43
0.0
 44
0.0
 45
0.0
 46
0.0
 47
0.0
 48
0.0
 49
0.0
140
0.0
141
0.0
142
1.0
143
1.0
 70
   688
 72
     0
 73
     0
 74
     5
  7

 75
    16
147
1.0
148
0.0
149
0.0
100
AcDbLayout
  1
レイアウト1
 70
     0
 71
     1
 10
0.0
 20
0.0
 11
12.0
 21
9.0
 12
0.0
 22
0.0
 32
0.0
 14
1.000000000000000E+20
 24
1.000000000000000E+20
 34
1.000000000000000E+20
 15
-1.000000000000000E+20
 25
-1.000000000000000E+20
 35
-1.000000000000000E+20
146
0.0
 13
0.0
 23
0.0
 33
0.0
 16
1.0
 26
0.0
 36
0.0
 17
0.0
 27
1.0
 37
0.0
 76
     0
330
B
  0
MLINESTYLE
  5
1C
102
{ACAD_REACTORS
330
1B
102
}
330
1B
100
AcDbMlineStyle
  2
STANDARD
 70
     0
  3

 62
     0
 51
90.0
 52
90.0
 71
     2
 49
0.5
 62
   256
  6
BYLAYER
 49
-0.5
 62
   256
  6
BYLAYER
  0
ACDBPLACEHOLDER
  5
29F
102
{ACAD_REACTORS
330
29E
102
}
330
29E
  0
TABLESTYLE
  5
2A3
102
{ACAD_REACTORS
330
2A2
102
}
330
2A2
100
AcDbTableStyle
  3
Standard
 70
     0
 71
     0
 40
1.5
 41
1.5
280
     0
281
     0
  7
STANDARD
140
4.5
170
     2
 62
     0
 63
     7
283
     0
274
    -2
284
     1
 64
     0
275
    -2
285
     1
 65
     0
276
    -2
286
     1
 66
     0
277
    -2
287
     1
 67
     0
278
    -2
288
     1
 68
     0
279
    -2
289
     1
 69
     0
  7
STANDARD
140
6.0
170
     5
 62
     0
 63
     7
283
     0
274
    -2
284
     1
 64
     0
275
    -2
285
     1
 65
     0
276
    -2
286
     1
 66
     0
277
    -2
287
     1
 67
     0
278
    -2
288
     1
 68
     0
279
    -2
289
     1
 69
     0
  7
STANDARD
140
4.5
170
     5
 62
     0
 63
     7
283
     0
274
    -2
284
     1
 64
     0
275
    -2
285
     1
 65
     0
276
    -2
286
     1
 66
     0
277
    -2
287
     1
 67
     0
278
    -2
288
     1
 68
     0
279
    -2
289
     1
 69
     0
  0
DICTIONARYVAR
  5
3D2
102
{ACAD_REACTORS
330
3D1
102
}
330
3D1
100
DictionaryVariables
280
     0
  1
STANDARD
  0
DICTIONARYVAR
  5
3D4
102
{ACAD_REACTORS
330
3D1
102
}
330
3D1
100
DictionaryVariables
280
     0
  1
1
  0
DICTIONARYVAR
  5
3D3
102
{ACAD_REACTORS
330
3D1
102
}
330
3D1
100
DictionaryVariables
280
     0
  1
1
  0
DICTIONARYVAR
  5
3D5
102
{ACAD_REACTORS
330
3D1
102
}
330
3D1
100
DictionaryVariables
280
     0
  1

  0
DICTIONARY
  5
377
102
{ACAD_REACTORS
330
36B
102
}
330
36B
100
AcDbDictionary
281
     1
  0
XRECORD
  5
396
102
{ACAD_REACTORS
330
36B
102
}
330
36B
100
AcDbXrecord
280
     1
 90
-1023410169
  0
DICTIONARY
  5
2E7
102
{ACAD_REACTORS
330
2E6
102
}
330
2E6
100
AcDbDictionary
281
     1
  3
DWGSETTINGS
350
2E8
  3
TRANSSETTINGS
350
2EC
  0
ACAMGFILTERDAT
  5
3C6
102
{ACAD_REACTORS
330
3C1
102
}
330
3C1
100
AcAmgFilterDat
 70
    15
  1
DIMENSION,AMDT_*_DIM
  2
*
  3
*
  4
*
  5
*
290
     1
  0
ACAMGFILTERDAT
  5
3C5
102
{ACAD_REACTORS
330
3C1
102
}
330
3C1
100
AcAmgFilterDat
 70
    15
  1
*
  2
AM_FEA-AM_*
  3
*
  4
*
  5
*
290
     1
  0
ACAMGFILTERDAT
  5
3C2
102
{ACAD_REACTORS
330
3C1
102
}
330
3C1
100
AcAmgFilterDat
 70
    15
  1
HATCH
  2
*
  3
*
  4
*
  5
*
290
     1
  0
ACAMGFILTERDAT
  5
3C3
102
{ACAD_REACTORS
330
3C1
102
}
330
3C1
100
AcAmgFilterDat
 70
    15
  1
LINE
  2
8,8N,*-8,*-8N,AM_8,AM_8N,*-AM_8,*-AM_8N
  3
*
  4
*
  5
INSERT,STDPART2D
290
     1
  0
ACAMGFILTERDAT
  5
3C7
102
{ACAD_REACTORS
330
3C1
102
}
330
3C1
100
AcAmgFilterDat
 70
    15
  1
ARC
  2
AM_5
  3
*
  4
2
  5
INSERT
290
     0
  0
ACAMGFILTERDAT
  5
3C4
102
{ACAD_REACTORS
330
3C1
102
}
330
3C1
100
AcAmgFilterDat
 70
    15
  1
ACMFCFRAME,ACMDATUMTARGET,ACMDATUMID,ACMWELDSYM,ACMSURFSYM,ACMFEATID,ACMPARTREF,ACMBALLOON,AMDTEDGESYM,AMGSCREWCALCTABLE
  2
*
  3
*
  4
*
  5
*
290
     1
  0
XRECORD
  5
3CB
102
{ACAD_REACTORS
330
3C9
102
}
330
3C9
100
AcDbXrecord
280
     1
  0
LAYER_INDEX
  5
3CE
102
{ACAD_REACTORS
330
3CD
102
}
330
3CD
100
AcDbIndex
 40
2458232.409334606
100
AcDbLayerIndex
  8
0
360
3CF
 90
        0
  8
1
360
3D0
 90
      625
  0
DICTIONARY
  5
3D9
330
2A6
100
AcDbDictionary
280
     1
281
     1
  3
ACAD_XREC_ROUNDTRIP
360
3DA
  0
DICTIONARY
  5
3DB
330
2A7
100
AcDbDictionary
280
     1
281
     1
  3
ACAD_XREC_ROUNDTRIP
360
3DC
  0
IDBUFFER
  5
3CF
330
0
100
AcDbIdBuffer
  0
IDBUFFER
  5
3D0
330
0
100
AcDbIdBuffer
330
A8
330
A7
330
A6
330
A5
330
A4
330
A3
330
A2
330
A1
330
A0
330
9F
330
9E
330
9D
330
9C
330
9B
330
9A
330
99
330
98
330
97
330
96
330
95
330
94
330
93
330
92
330
91
330
90
330
8F
330
8E
330
8D
330
8C
330
8B
330
8A
330
89
330
88
330
87
330
86
330
85
330
84
330
83
330
82
330
81
330
80
330
7F
330
7E
330
7D
330
7C
330
7B
330
7A
330
79
330
78
330
77
330
76
330
75
330
74
330
73
330
72
330
71
330
70
330
6F
330
6E
330
6D
330
6C
330
6B
330
6A
330
69
330
68
330
67
330
66
330
65
330
64
330
63
330
62
330
61
330
60
330
5F
330
5E
330
5D
330
5C
330
5B
330
5A
330
59
330
58
330
57
330
56
330
55
330
54
330
53
330
52
330
51
330
50
330
4F
330
4E
330
4D
330
4C
330
4B
330
4A
330
49
330
48
330
47
330
46
330
45
330
44
330
43
330
42
330
41
330
40
330
3F
330
3E
330
3D
330
3C
330
3B
330
3A
330
39
330
38
330
37
330
36
330
35
330
34
330
33
330
32
330
31
330
30
330
2F
330
2E
330
2D
330
2C
330
2B
330
2A
330
29
330
28
330
299
330
298
330
296
330
295
330
294
330
293
330
292
330
291
330
290
330
28F
330
28E
330
28D
330
28C
330
28B
330
28A
330
289
330
288
330
287
330
286
330
285
330
284
330
283
330
282
330
281
330
280
330
27F
330
27E
330
27D
330
27C
330
27B
330
27A
330
279
330
278
330
277
330
276
330
275
330
274
330
273
330
272
330
271
330
270
330
26F
330
26E
330
26D
330
26C
330
26B
330
26A
330
269
330
268
330
267
330
266
330
265
330
264
330
263
330
262
330
261
330
260
330
25F
330
25E
330
25D
330
25C
330
25B
330
25A
330
259
330
258
330
257
330
256
330
255
330
254
330
253
330
252
330
251
330
250
330
24F
330
24E
330
24D
330
24C
330
24B
330
24A
330
249
330
248
330
247
330
246
330
245
330
244
330
243
330
242
330
241
330
240
330
23F
330
23E
330
23D
330
23C
330
23B
330
23A
330
239
330
238
330
237
330
236
330
235
330
234
330
233
330
232
330
231
330
230
330
22F
330
22E
330
22D
330
22C
330
22B
330
22A
330
229
330
228
330
227
330
226
330
225
330
224
330
223
330
222
330
221
330
220
330
21F
330
21E
330
21D
330
21C
330
21B
330
21A
330
219
330
218
330
217
330
216
330
215
330
214
330
213
330
212
330
211
330
210
330
20F
330
20E
330
20D
330
20C
330
20B
330
20A
330
209
330
208
330
207
330
206
330
205
330
204
330
203
330
202
330
201
330
200
330
1FF
330
1FE
330
1FD
330
1FC
330
1FB
330
1FA
330
1F9
330
1F8
330
1F7
330
1F6
330
1F5
330
1F4
330
1F3
330
1F2
330
1F1
330
1F0
330
1EF
330
1EE
330
1ED
330
1EC
330
1EB
330
1EA
330
1E9
330
1E8
330
1E7
330
1E6
330
1E5
330
1E4
330
1E3
330
1E2
330
1E1
330
1E0
330
1DF
330
1DE
330
1DD
330
1DC
330
1DB
330
1DA
330
1D9
330
1D8
330
1D7
330
1D6
330
1D5
330
1D4
330
1D3
330
1D2
330
1D1
330
1D0
330
1CF
330
1CE
330
1CD
330
1CC
330
1CB
330
1CA
330
1C9
330
1C8
330
1C7
330
1C6
330
1C5
330
1C4
330
1C3
330
1C2
330
1C1
330
1C0
330
1BF
330
1BE
330
1BD
330
1BC
330
1BB
330
1BA
330
1B9
330
1B8
330
1B7
330
1B6
330
1B5
330
1B4
330
1B3
330
1B2
330
1B1
330
1B0
330
1AF
330
1AE
330
1AD
330
1AC
330
1AB
330
1AA
330
1A9
330
1A8
330
1A7
330
1A6
330
1A5
330
1A4
330
1A3
330
1A2
330
1A1
330
1A0
330
19F
330
19E
330
19D
330
19C
330
19B
330
19A
330
199
330
198
330
197
330
196
330
195
330
194
330
193
330
192
330
191
330
190
330
18F
330
18E
330
18D
330
18C
330
18B
330
18A
330
189
330
188
330
187
330
186
330
185
330
184
330
183
330
182
330
181
330
180
330
17F
330
17E
330
17D
330
17C
330
17B
330
17A
330
179
330
178
330
177
330
176
330
175
330
174
330
173
330
172
330
171
330
170
330
16F
330
16E
330
16D
330
16C
330
16B
330
16A
330
169
330
168
330
167
330
166
330
165
330
164
330
163
330
162
330
161
330
160
330
15F
330
15E
330
15D
330
15C
330
15B
330
15A
330
159
330
158
330
157
330
156
330
155
330
154
330
153
330
152
330
151
330
150
330
14F
330
14E
330
14D
330
14C
330
14B
330
14A
330
149
330
148
330
147
330
146
330
145
330
144
330
143
330
142
330
141
330
140
330
13F
330
13E
330
13D
330
13C
330
13B
330
13A
330
139
330
138
330
137
330
136
330
135
330
134
330
133
330
132
330
131
330
130
330
12F
330
12E
330
12D
330
12C
330
12B
330
12A
330
129
330
128
330
127
330
126
330
125
330
124
330
123
330
122
330
121
330
120
330
11F
330
11E
330
11D
330
11C
330
11B
330
11A
330
119
330
118
330
117
330
116
330
115
330
114
330
113
330
112
330
111
330
110
330
10F
330
10E
330
10D
330
10C
330
10B
330
10A
330
109
330
108
330
107
330
106
330
105
330
104
330
103
330
102
330
101
330
100
330
FF
330
FE
330
FD
330
FC
330
FB
330
FA
330
F9
330
F8
330
F7
330
F6
330
F5
330
F4
330
F3
330
F2
330
F1
330
F0
330
EF
330
EE
330
ED
330
EC
330
EB
330
EA
330
E9
330
E8
330
E7
330
E6
330
E5
330
E4
330
E3
330
E2
330
E1
330
E0
330
DF
330
DE
330
DD
330
DC
330
DB
330
DA
330
D9
330
D8
330
D7
330
D6
330
D5
330
D4
330
D3
330
D2
330
D1
330
D0
330
CF
330
CE
330
CD
330
CC
330
CB
330
CA
330
C9
330
C8
330
C7
330
C6
330
C5
330
C4
330
C3
330
C2
330
C1
330
C0
330
BF
330
BE
330
BD
330
BC
330
BB
330
BA
330
B9
330
B8
330
B7
330
B6
330
B5
330
B4
330
B3
330
B2
330
B1
330
B0
330
AF
330
AE
330
AD
330
AC
330
AB
330
AA
330
A9
  0
XRECORD
  5
3DA
102
{ACAD_REACTORS
330
3D9
102
}
330
3D9
100
AcDbXrecord
280
     1
102
SHADEPLOT
 70
     0
102
SHADEPLOTRESLEVEL
 70
     2
102
SHADEPLOTCUSTOMDPI
 70
   300
  0
XRECORD
  5
3DC
102
{ACAD_REACTORS
330
3DB
102
}
330
3DB
100
AcDbXrecord
280
     1
102
SHADEPLOT
 70
     0
102
SHADEPLOTRESLEVEL
 70
     2
102
SHADEPLOTCUSTOMDPI
 70
   300
  0
ENDSEC
  0
EOF
