  0
SECTION
  2
HEADER
  9
$ACADVER
  1
AC1015
  9
$ACADMAINTVER
 70
    20
  9
$DWGCODEPAGE
  3
ANSI_932
  9
$INSBASE
 10
0.0
 20
0.0
 30
0.0
  9
$EXTMIN
 10
-70.00090538980299
 20
3943.715782526081
 30
0.0
  9
$EXTMAX
 10
266.882496262751
 20
4172.579838978009
 30
0.0
  9
$LIMMIN
 10
0.0
 20
0.0
  9
$LIMMAX
 10
0.0
 20
0.0
  9
$ORTHOMODE
 70
     0
  9
$REGENMODE
 70
     1
  9
$FILLMODE
 70
     1
  9
$QTEXTMODE
 70
     0
  9
$MIRRTEXT
 70
     1
  9
$LTSCALE
 40
1.0
  9
$ATTMODE
 70
     1
  9
$TEXTSIZE
 40
0.0
  9
$TRACEWID
 40
0.05
  9
$TEXTSTYLE
  7
STANDARD
  9
$CLAYER
  8
0
  9
$CELTYPE
  6
CONTINUOUS
  9
$CECOLOR
 62
   256
  9
$CELTSCALE
 40
1.0
  9
$DISPSILH
 70
     0
  9
$DIMSCALE
 40
1.0
  9
$DIMASZ
 40
0.18
  9
$DIMEXO
 40
0.0625
  9
$DIMDLI
 40
0.38
  9
$DIMRND
 40
0.0
  9
$DIMDLE
 40
0.0
  9
$DIMEXE
 40
0.18
  9
$DIMTP
 40
0.0
  9
$DIMTM
 40
0.0
  9
$DIMTXT
 40
0.18
  9
$DIMCEN
 40
0.09
  9
$DIMTSZ
 40
0.0
  9
$DIMTOL
 70
     0
  9
$DIMLIM
 70
     0
  9
$DIMTIH
 70
     1
  9
$DIMTOH
 70
     1
  9
$DIMSE1
 70
     0
  9
$DIMSE2
 70
     0
  9
$DIMTAD
 70
     0
  9
$DIMZIN
 70
     0
  9
$DIMBLK
  1

  9
$DIMASO
 70
     1
  9
$DIMSHO
 70
     1
  9
$DIMPOST
  1

  9
$DIMAPOST
  1

  9
$DIMALT
 70
     0
  9
$DIMALTD
 70
     2
  9
$DIMALTF
 40
25.4
  9
$DIMLFAC
 40
1.0
  9
$DIMTOFL
 70
     0
  9
$DIMTVP
 40
0.0
  9
$DIMTIX
 70
     0
  9
$DIMSOXD
 70
     0
  9
$DIMSAH
 70
     0
  9
$DIMBLK1
  1

  9
$DIMBLK2
  1

  9
$DIMSTYLE
  2
STANDARD
  9
$DIMCLRD
 70
     0
  9
$DIMCLRE
 70
     0
  9
$DIMCLRT
 70
     0
  9
$DIMTFAC
 40
1.0
  9
$DIMGAP
 40
0.09
  9
$DIMJUST
 70
     0
  9
$DIMSD1
 70
     0
  9
$DIMSD2
 70
     0
  9
$DIMTOLJ
 70
     1
  9
$DIMTZIN
 70
     0
  9
$DIMALTZ
 70
     0
  9
$DIMALTTZ
 70
     0
  9
$DIMUPT
 70
     0
  9
$DIMDEC
 70
     4
  9
$DIMTDEC
 70
     4
  9
$DIMALTU
 70
     2
  9
$DIMALTTD
 70
     2
  9
$DIMTXSTY
  7
STANDARD
  9
$DIMAUNIT
 70
     0
  9
$DIMADEC
 70
     0
  9
$DIMALTRND
 40
0.0
  9
$DIMAZIN
 70
     0
  9
$DIMDSEP
 70
    46
  9
$DIMATFIT
 70
     3
  9
$DIMFRAC
 70
     0
  9
$DIMLDRBLK
  1

  9
$DIMLUNIT
 70
     2
  9
$DIMLWD
 70
    -2
  9
$DIMLWE
 70
    -2
  9
$DIMTMOVE
 70
     0
  9
$LUNITS
 70
     2
  9
$LUPREC
 70
     2
  9
$SKETCHINC
 40
0.1
  9
$FILLETRAD
 40
0.0
  9
$AUNITS
 70
     0
  9
$AUPREC
 70
     0
  9
$MENU
  1
acad
  9
$ELEVATION
 40
0.0
  9
$PELEVATION
 40
0.0
  9
$THICKNESS
 40
0.0
  9
$LIMCHECK
 70
     0
  9
$CHAMFERA
 40
0.0
  9
$CHAMFERB
 40
0.0
  9
$CHAMFERC
 40
0.0
  9
$CHAMFERD
 40
0.0
  9
$SKPOLY
 70
     0
  9
$TDCREATE
 40
2305814.417176053
  9
$TDUCREATE
 40
6.0000000000
  9
$TDUPDATE
 40
2458232.599042917
  9
$TDUUPDATE
 40
2458232.224042917
  9
$TDINDWG
 40
0.0002737963
  9
$TDUSRTIMER
 40
0.0002737963
  9
$USRTIMER
 70
     1
  9
$ANGBASE
 50
0.0
  9
$ANGDIR
 70
     0
  9
$PDMODE
 70
     0
  9
$PDSIZE
 40
0.0
  9
$PLINEWID
 40
0.0
  9
$SPLFRAME
 70
     0
  9
$SPLINETYPE
 70
     6
  9
$SPLINESEGS
 70
     8
  9
$HANDSEED
  5
57E
  9
$SURFTAB1
 70
     6
  9
$SURFTAB2
 70
     6
  9
$SURFTYPE
 70
     6
  9
$SURFU
 70
     6
  9
$SURFV
 70
     6
  9
$UCSBASE
  2

  9
$UCSNAME
  2

  9
$UCSORG
 10
0.0
 20
0.0
 30
0.0
  9
$UCSXDIR
 10
1.0
 20
0.0
 30
0.0
  9
$UCSYDIR
 10
0.0
 20
1.0
 30
0.0
  9
$UCSORTHOREF
  2

  9
$UCSORTHOVIEW
 70
     0
  9
$UCSORGTOP
 10
0.0
 20
0.0
 30
0.0
  9
$UCSORGBOTTOM
 10
0.0
 20
0.0
 30
0.0
  9
$UCSORGLEFT
 10
0.0
 20
0.0
 30
0.0
  9
$UCSORGRIGHT
 10
0.0
 20
0.0
 30
0.0
  9
$UCSORGFRONT
 10
0.0
 20
0.0
 30
0.0
  9
$UCSORGBACK
 10
0.0
 20
0.0
 30
0.0
  9
$PUCSBASE
  2

  9
$PUCSNAME
  2

  9
$PUCSORG
 10
0.0
 20
0.0
 30
0.0
  9
$PUCSXDIR
 10
1.0
 20
0.0
 30
0.0
  9
$PUCSYDIR
 10
0.0
 20
1.0
 30
0.0
  9
$PUCSORTHOREF
  2

  9
$PUCSORTHOVIEW
 70
     0
  9
$PUCSORGTOP
 10
0.0
 20
0.0
 30
0.0
  9
$PUCSORGBOTTOM
 10
0.0
 20
0.0
 30
0.0
  9
$PUCSORGLEFT
 10
0.0
 20
0.0
 30
0.0
  9
$PUCSORGRIGHT
 10
0.0
 20
0.0
 30
0.0
  9
$PUCSORGFRONT
 10
0.0
 20
0.0
 30
0.0
  9
$PUCSORGBACK
 10
0.0
 20
0.0
 30
0.0
  9
$USERI1
 70
     0
  9
$USERI2
 70
     0
  9
$USERI3
 70
     0
  9
$USERI4
 70
     0
  9
$USERI5
 70
     0
  9
$USERR1
 40
0.0
  9
$USERR2
 40
0.0
  9
$USERR3
 40
0.0
  9
$USERR4
 40
0.0
  9
$USERR5
 40
0.0
  9
$WORLDVIEW
 70
     1
  9
$SHADEDGE
 70
     3
  9
$SHADEDIF
 70
    70
  9
$TILEMODE
 70
     1
  9
$MAXACTVP
 70
    16
  9
$PINSBASE
 10
0.0
 20
0.0
 30
0.0
  9
$PLIMCHECK
 70
     0
  9
$PEXTMIN
 10
1.000000000000000E+20
 20
1.000000000000000E+20
 30
1.000000000000000E+20
  9
$PEXTMAX
 10
-1.000000000000000E+20
 20
-1.000000000000000E+20
 30
-1.000000000000000E+20
  9
$PLIMMIN
 10
0.0
 20
0.0
  9
$PLIMMAX
 10
12.0
 20
9.0
  9
$UNITMODE
 70
     0
  9
$VISRETAIN
 70
     0
  9
$PLINEGEN
 70
     1
  9
$PSLTSCALE
 70
     0
  9
$TREEDEPTH
 70
  3020
  9
$CMLSTYLE
  2
STANDARD
  9
$CMLJUST
 70
     0
  9
$CMLSCALE
 40
1.0
  9
$PROXYGRAPHICS
 70
     0
  9
$MEASUREMENT
 70
     1
  9
$CELWEIGHT
370
    -1
  9
$ENDCAPS
280
     0
  9
$JOINSTYLE
280
     0
  9
$LWDISPLAY
290
     0
  9
$INSUNITS
 70
     0
  9
$HYPERLINKBASE
  1

  9
$STYLESHEET
  1

  9
$XEDIT
290
     1
  9
$CEPSNTYPE
380
     0
  9
$PSTYLEMODE
290
     1
  9
$FINGERPRINTGUID
  2
{C8B8CBB8-AC87-4E71-BACF-B888432AB393}
  9
$VERSIONGUID
  2
{4632F9D9-8B0D-4FD7-9FC7-76547771CE4D}
  9
$EXTNAMES
290
     1
  9
$PSVPSCALE
 40
0.0
  9
$OLESTARTUP
290
     0
  0
ENDSEC
  0
SECTION
  2
CLASSES
  0
CLASS
  1
IMAGE
  2
AcDbRasterImage
  3
ISM
 90
    32895
280
     0
281
     1
  0
CLASS
  1
DICTIONARYVAR
  2
AcDbDictionaryVar
  3
ObjectDBX Classes
 90
        0
280
     0
281
     0
  0
CLASS
  1
RASTERVARIABLES
  2
AcDbRasterVariables
  3
ISM
 90
    32768
280
     0
281
     0
  0
CLASS
  1
IMAGEDEF
  2
AcDbRasterImageDef
  3
ISM
 90
    32768
280
     0
281
     0
  0
CLASS
  1
IMAGEDEF_REACTOR
  2
AcDbRasterImageDefReactor
  3
ISM
 90
    32769
280
     0
281
     0
  0
CLASS
  1
IDBUFFER
  2
AcDbIdBuffer
  3
ObjectDBX Classes
 90
        0
280
     0
281
     0
  0
CLASS
  1
SPATIAL_FILTER
  2
AcDbSpatialFilter
  3
ObjectDBX Classes
 90
    32768
280
     0
281
     0
  0
CLASS
  1
SORTENTSTABLE
  2
AcDbSortentsTable
  3
ObjectDBX Classes
 90
    32768
280
     0
281
     0
  0
CLASS
  1
LAYER_INDEX
  2
AcDbLayerIndex
  3
ObjectDBX Classes
 90
        0
280
     0
281
     0
  0
CLASS
  1
SPATIAL_INDEX
  2
AcDbSpatialIndex
  3
ObjectDBX Classes
 90
    32768
280
     0
281
     0
  0
CLASS
  1
OBJECT_PTR
  2
CAseDLPNTableRecord
  3
ASE-LPNTableRecord
 90
    32769
280
     0
281
     0
  0
CLASS
  1
LAYOUT
  2
AcDbLayout
  3
ObjectDBX Classes
 90
        0
280
     0
281
     0
  0
CLASS
  1
PLOTSETTINGS
  2
AcDbPlotSettings
  3
ObjectDBX Classes
 90
    32768
280
     0
281
     0
  0
CLASS
  1
ACDBDICTIONARYWDFLT
  2
AcDbDictionaryWithDefault
  3
ObjectDBX Classes
 90
        0
280
     0
281
     0
  0
CLASS
  1
ACDBPLACEHOLDER
  2
AcDbPlaceHolder
  3
ObjectDBX Classes
 90
        0
280
     0
281
     0
  0
CLASS
  1
VBA_PROJECT
  2
AcDbVbaProject
  3
acad
 90
    32768
280
     0
281
     0
  0
CLASS
  1
WIPEOUT
  2
AcDbWipeout
  3
"WipeOut|Product Desc: Object Enabler for WipeOut entity^I^I^I^I^I^I|Company: Autodesk, Inc.^I^I^I^I^I^I|WEB Address: www.autodesk.com"
 90
    32895
280
     0
281
     1
  0
CLASS
  1
WIPEOUTVARIABLES
  2
AcDbWipeoutVariables
  3
"WipeOut|Product Desc:     WipeOut Dbx Application|Company:          Autodesk, Inc.|WEB Address:      www.autodesk.com"
 90
    32768
280
     0
281
     0
  0
CLASS
  1
RTEXT
  2
RText
  3
RText|AutoCAD Express Tool|expresstools@autodesk.com
 90
    32768
280
     0
281
     1
  0
CLASS
  1
ARCALIGNEDTEXT
  2
AcDbArcAlignedText
  3
ATEXT|AutoCAD Express Tool|expresstools@autodesk.com
 90
    32768
280
     0
281
     1
  0
CLASS
  1
TABLESTYLE
  2
AcDbTableStyle
  3
ObjectDBX Classes
 90
     2047
280
     0
281
     0
  0
CLASS
  1
AMGSETTINGSOBJ
  2
AmgSettingsObj
  3
"AcadM|Product Description: AutoCAD Mechanical 2000|Company: Autodesk"
 90
        0
280
     0
281
     0
  0
CLASS
  1
ACME_DOCUMENT
  2
AcMeDbDoc
  3
AcMeServices
 90
        0
280
     0
281
     0
  0
CLASS
  1
ACMESCOPE
  2
AcMeScope
  3
AcMeServices
 90
        0
280
     0
281
     0
  0
CLASS
  1
ACMECOMMANDHISTORY
  2
AcMeCommandHistory
  3
AcMeServices
 90
        0
280
     0
281
     0
  0
CLASS
  1
ACIMSYSVARMAN
  2
AcImSysVarManager
  3
AcMeServices
 90
        0
280
     0
281
     0
  0
CLASS
  1
ACIMREALSYSVAR
  2
AcImRealSysVar
  3
AcMeServices
 90
        0
280
     0
281
     0
  0
CLASS
  1
ACIMINTSYSVAR
  2
AcImIntSysVar
  3
AcMeServices
 90
        0
280
     0
281
     0
  0
CLASS
  1
ACMEDRAWINGMAN
  2
AcMeDrawingMan
  3
AcMeServices
 90
        0
280
     0
281
     0
  0
CLASS
  1
ACMEVIEW
  2
AcMeView
  3
AcMeServices
 90
        0
280
     0
281
     0
  0
CLASS
  1
ACDBENTITYCACHE
  2
AcMeEntityCache
  3
AcMeServices
 90
        0
280
     0
281
     0
  0
CLASS
  1
GSMANAGER
  2
AcMeGSManager
  3
AcMeServices
 90
        0
280
     0
281
     0
  0
CLASS
  1
AMDTINTERNALREACTOR
  2
AmdtInternalReactor
  3
AcMeServices
 90
        0
280
     0
281
     0
  0
CLASS
  1
ACMESTATEMGR
  2
AcMeStateMgr
  3
AcMeServices
 90
        0
280
     0
281
     0
  0
CLASS
  1
ACGREFMASTER
  2
AcGrefMaster
  3
AcAttribServices
 90
        0
280
     0
281
     0
  0
CLASS
  1
AM_DRAWING_MGR
  2
AcDmDwgMgr
  3
AcMechDwgViewMgmt
 90
        0
280
     0
281
     0
  0
CLASS
  1
AM_DWG_DOCUMENT
  2
AcDmDwgDocument
  3
AcMechDwgViewMgmt
 90
        0
280
     0
281
     0
  0
CLASS
  1
AM_DWG_SHEET
  2
AcDmSheet
  3
AcMechDwgViewMgmt
 90
        0
280
     0
281
     0
  0
CLASS
  1
AM_VIEWDIMPARMAP
  2
AcDmViewDimParMap
  3
AcMechDwgViewMgmt
 90
        0
280
     0
281
     0
  0
CLASS
  1
AM_DWGMGR_NAME
  2
AcDmDwgMgrName
  3
AcMechDwgViewMgmt
 90
        0
280
     0
281
     0
  0
CLASS
  1
ACME_DATABASE
  2
AcMeDbDatabase
  3
AcMeServices
 90
        0
280
     0
281
     0
  0
CLASS
  1
ACRFINSADJUSTERMGR
  2
AcRfInsAdjusterMgr
  3
AcMeServices
 90
        0
280
     0
281
     0
  0
CLASS
  1
ACGREFACADMASTER
  2
AcGrefacadMaster
  3
AcGrefServices
 90
        0
280
     0
281
     0
  0
CLASS
  1
AMDTMENUSTATEMGR
  2
AmdtMenuStateMgr
  3
McadcomServices
 90
        0
280
     0
281
     0
  0
CLASS
  1
AMDTMCOMMENUSTATE
  2
AmdtMcomMenuState
  3
McadcomServices
 90
        0
280
     0
281
     0
  0
CLASS
  1
AMIMASTER
  2
AmiMaster
  3
AmiServices
 90
        0
280
     0
281
     0
  0
CLASS
  1
ASAPP
  2
AcAsAppObject
  3
AutoSurfServices
 90
        0
280
     0
281
     0
  0
CLASS
  1
IM_STATIC_MAN
  2
AcImStaticVarManager
  3
AcMeServices
 90
        0
280
     0
281
     0
  0
CLASS
  1
ACIMSTRSYSVAR
  2
AcImStrSysVar
  3
AcMeServices
 90
        0
280
     0
281
     0
  0
CLASS
  1
ACIMDBLSTATICVAR
  2
AcImDblStaticVar
  3
AcMeServices
 90
        0
280
     0
281
     0
  0
CLASS
  1
ACIMSTRSTATICVAR
  2
AcImStrStaticVar
  3
AcMeServices
 90
        0
280
     0
281
     0
  0
CLASS
  1
ACIMINTSTATICVAR
  2
AcImIntStaticVar
  3
AcMeServices
 90
        0
280
     0
281
     0
  0
CLASS
  1
ACASGREFMASTER
  2
AcAsGrefMaster
  3
AutoSurfResolverServices
 90
        0
280
     0
281
     0
  0
CLASS
  1
ACADGREFMODULE
  2
AcAdGrefModule
  3
AdGrefServices
 90
        0
280
     0
281
     0
  0
CLASS
  1
AMDTMAPISURFMOUDULE
  2
AmdtMApiSurfModule
  3
MApiSurfServices
 90
        0
280
     0
281
     0
  0
CLASS
  1
MAPIAMMOUDLE
  2
MApiAmModule
  3
MApiAmServices
 90
        0
280
     0
281
     0
  0
CLASS
  1
AMDTADMENUSTATE
  2
AmdtAdMenuState
  3
DesignerServices
 90
        0
280
     0
281
     0
  0
CLASS
  1
ADAPPL
  2
AcAdAppl
  3
DesignerServices
 90
        0
280
     0
281
     0
  0
CLASS
  1
DEPMGR
  2
AcAdDepMgr
  3
DesignerServices
 90
        0
280
     0
281
     0
  0
CLASS
  1
PARAMMGR
  2
AcAdParamMgr
  3
DesignerServices
 90
        0
280
     0
281
     0
  0
CLASS
  1
PARAMSCOPE
  2
AcAdParamScope
  3
DesignerServices
 90
        0
280
     0
281
     0
  0
CLASS
  1
NAMEDAPPL
  2
AcAdNamedAppl
  3
DesignerServices
 90
        0
280
     0
281
     0
  0
CLASS
  1
AMDTDMMENUSTATE
  2
AmdtDmMenuState
  3
AcMechDwgViewMgmt
 90
        0
280
     0
281
     0
  0
CLASS
  1
MAPIADMODULE
  2
MApiAdModule
  3
MApiAdServices
 90
        0
280
     0
281
     0
  0
CLASS
  1
AMDTAMMENUSTATE
  2
AmdtAmMenuState
  3
DesignerAssemblies
 90
        0
280
     0
281
     0
  0
CLASS
  1
ACAMPROJECT
  2
AcAmProject
  3
DesignerAssemblies
 90
        0
280
     0
281
     0
  0
CLASS
  1
ACAMGRCOMPDEF
  2
AcAmGrCompDef
  3
DesignerAssemblies
 90
        0
280
     0
281
     0
  0
CLASS
  1
ACCMCONTEXT
  2
AcCmContext
  3
DesignerAssemblies
 90
        0
280
     0
281
     0
  0
CLASS
  1
ACAMCOMPDEF
  2
AcAmCompDef
  3
DesignerAssemblies
 90
        0
280
     0
281
     0
  0
CLASS
  1
ACAMCOMPDEFMGR
  2
AcAmCompDefMgr
  3
DesignerAssemblies
 90
        0
280
     0
281
     0
  0
CLASS
  1
AMCONTEXTMGR
  2
AcAmContextMgr
  3
DesignerAssemblies
 90
        0
280
     0
281
     0
  0
CLASS
  1
ACAMCONTEXTMODELER
  2
AcAmContextModeler
  3
DesignerAssemblies
 90
        0
280
     0
281
     0
  0
CLASS
  1
ACMDATADICTIONARY
  2
AcmDataDictionary
  3
"AcmSymBB|Product Description: AutoCAD Mechanical 2004 DX|Company: Autodesk"
 90
        0
280
     0
281
     0
  0
CLASS
  1
ACMDATAENTRYBLOCK
  2
AcmDataEntryBlock
  3
"AcmSymBB|Product Description: AutoCAD Mechanical 2004 DX|Company: Autodesk"
 90
        0
280
     0
281
     0
  0
CLASS
  1
CATALOGSTATE
  2
AcAmCatalogState
  3
DesignerAssemblies
 90
        0
280
     0
281
     0
  0
CLASS
  1
ACAMGRCOMPDEFSET
  2
AcAmGrCompDefSet
  3
DesignerAssemblies
 90
        0
280
     0
281
     0
  0
CLASS
  1
AMDTBROWSERDBTAB
  2
AmdtBrowserDbTab
  3
McadcomServices
 90
        0
280
     0
281
     0
  0
CLASS
  1
CBROWSERAPPOBJECT
  2
CBrowserAppObject
  3
McadcomServices
 90
        0
280
     0
281
     0
  0
CLASS
  1
DM_PLACEHOLDER
  2
AcDmSelsetPlaceholder
  3
AcMechDwgViewMgmt
 90
        0
280
     0
281
     0
  0
CLASS
  1
ACMSTANDARDISO
  2
AcmStandardISO
  3
"Amdt_StdImp|Product Description: AutoCAD Mechanical 2004 DX|Company: Autodesk"
 90
        0
280
     0
281
     0
  0
CLASS
  1
AMGOBJPROPCFG
  2
AmgObjPropCfg
  3
"AmgLay|Product Description: AutoCAD Mechanical 2000|Company: Autodesk"
 90
        1
280
     0
281
     0
  0
CLASS
  1
AMDTEDGESTANDARDISO13715
  2
AmdtEdgeStdISO13715
  3
"Amdt_StdImp|Product Description: AutoCAD Mechanical 2004 DX|Company: Autodesk"
 90
        0
280
     0
281
     0
  0
CLASS
  1
ACMSURFSTANDARDISO
  2
AcmSurfTextStdISO
  3
"Amdt_StdImp|Product Description: AutoCAD Mechanical 2004 DX|Company: Autodesk"
 90
        0
280
     0
281
     0
  0
CLASS
  1
ACMFCFSTANDARDISO
  2
AcmFCFStdISO
  3
"Amdt_StdImp|Product Description: AutoCAD Mechanical 2004 DX|Company: Autodesk"
 90
        0
280
     0
281
     0
  0
CLASS
  1
ACMWELDSTANDARDISO
  2
AcmWeldingStdISO
  3
"Amdt_StdImp|Product Description: AutoCAD Mechanical 2004 DX|Company: Autodesk"
 90
        0
280
     0
281
     0
  0
CLASS
  1
ACMIDSTANDARDISO
  2
AcmIdStdISO
  3
"Amdt_StdImp|Product Description: AutoCAD Mechanical 2004 DX|Company: Autodesk"
 90
        0
280
     0
281
     0
  0
CLASS
  1
ACMDATUMSTANDARDISO
  2
AcmDatumStdISO
  3
"Amdt_StdImp|Product Description: AutoCAD Mechanical 2004 DX|Company: Autodesk"
 90
        0
280
     0
281
     0
  0
CLASS
  1
ACMBOMSTANDARDISO
  2
AcmBOMStdISO
  3
"Amdt_StdImp|Product Description: AutoCAD Mechanical 2004 DX|Company: Autodesk"
 90
        0
280
     0
281
     0
  0
CLASS
  1
ACMDETAILSTANDARDISO
  2
AmdtDetailSymStdISO
  3
"Amdt_StdImp|Product Description: AutoCAD Mechanical 2004 DX|Company: Autodesk"
 90
        0
280
     0
281
     0
  0
CLASS
  1
ACMSECTIONSTANDARDISO
  2
AmdtSectionSymStdISO
  3
"Amdt_StdImp|Product Description: AutoCAD Mechanical 2004 DX|Company: Autodesk"
 90
        0
280
     0
281
     0
  0
CLASS
  1
ACMCENTERLINESTANDARDISO
  2
AmdtCenterLineStdISO
  3
"Amdt_StdImp|Product Description: AutoCAD Mechanical 2004 DX|Company: Autodesk"
 90
        0
280
     0
281
     0
  0
CLASS
  1
ACMTHREADLINESTANDARDISO
  2
AmdtThreadLineStdISO
  3
"Amdt_StdImp|Product Description: AutoCAD Mechanical 2004 DX|Company: Autodesk"
 90
        0
280
     0
281
     0
  0
CLASS
  1
ACMNOTESTANDARDISO
  2
AmdtNoteStdISO
  3
"Amdt_StdImp|Product Description: AutoCAD Mechanical 2004 DX|Company: Autodesk"
 90
        0
280
     0
281
     0
  0
CLASS
  1
AMDTNOTETEMPLATEDB
  2
AmdtNoteTemplateDB
  3
AMDT_STDIMP_MODULE_NAME
 90
        0
280
     0
281
     0
  0
CLASS
  1
ACAMGLAYSTD
  2
AcAmgLayStd
  3
"AcAmgLayStd|Product Description: AutoCAD Mechanical 2000|Company: Autodesk"
 90
        0
280
     0
281
     0
  0
CLASS
  1
ACAMGDIMSTD
  2
AcAmgDimStd
  3
"AcAmgDimStd|Product Description: AutoCAD Mechanical 2000|Company: Autodesk"
 90
        0
280
     0
281
     0
  0
CLASS
  1
ACAMGHOLECHARTSTDISO
  2
AcAmgHoleChartStdISO
  3
ACMSYMBB_MODULE_NAME
 90
        0
280
     0
281
     0
  0
CLASS
  1
ACAMGTITLESTD
  2
AcAmgTitleStd
  3
"TITLEAPP"
 90
        0
280
     0
281
     0
  0
CLASS
  1
ACAMGFILTERDAT
  2
AcAmgFilterDat
  3
"AcadM|Product Description: AutoCAD Mechanical 2000|Company: Autodesk"
 90
        0
280
     0
281
     0
  0
ENDSEC
  0
SECTION
  2
TABLES
  0
TABLE
  2
VPORT
  5
7
330
0
100
AcDbSymbolTable
 70
     3
  0
VPORT
  5
577
330
7
100
AcDbSymbolTableRecord
100
AcDbViewportTableRecord
  2
*Active
 70
     0
 10
0.0
 20
0.0
 11
1.0
 21
1.0
 12
89.90415251443796
 22
4053.568626752045
 13
0.0
 23
0.0
 14
1.0
 24
1.0
 15
0.0
 25
0.0
 16
0.0
 26
0.0
 36
1.0
 17
8.53664292203609
 27
4.579183999999999
 37
0.0
 40
304.5391117886484
 41
1.113389626055488
 42
50.0
 43
0.0
 44
0.0
 50
0.0
 51
0.0
 71
     0
 72
   100
 73
     1
 74
     1
 75
     0
 76
     0
 77
     0
 78
     0
281
     0
 65
     0
110
0.0
120
0.0
130
0.0
111
1.0
121
0.0
131
0.0
112
0.0
122
1.0
132
0.0
 79
     0
146
0.0
  0
ENDTAB
  0
TABLE
  2
LTYPE
  5
4
330
0
100
AcDbSymbolTable
 70
    23
  0
LTYPE
  5
11
330
4
100
AcDbSymbolTableRecord
100
AcDbLinetypeTableRecord
  2
BYBLOCK
 70
     0
  3

 72
    65
 73
     0
 40
0.0
  0
LTYPE
  5
12
330
4
100
AcDbSymbolTableRecord
100
AcDbLinetypeTableRecord
  2
BYLAYER
 70
     0
  3

 72
    65
 73
     0
 40
0.0
  0
LTYPE
  5
13
330
4
100
AcDbSymbolTableRecord
100
AcDbLinetypeTableRecord
  2
CONTINUOUS
 70
     0
  3
Solid line
 72
    65
 73
     0
 40
0.0
  0
LTYPE
  5
1D
330
4
100
AcDbSymbolTableRecord
100
AcDbLinetypeTableRecord
  2
DASHED
 70
     0
  3
Dashed
 72
    65
 73
     2
 40
15.0
 49
12.0
 74
     0
 49
-3.0
 74
     0
  0
LTYPE
  5
1E
330
4
100
AcDbSymbolTableRecord
100
AcDbLinetypeTableRecord
  2
DOTTED
 70
     0
  3
Dotted
 72
    65
 73
     2
 40
3.5
 49
0.5
 74
     0
 49
-3.0
 74
     0
  0
LTYPE
  5
1F
330
4
100
AcDbSymbolTableRecord
100
AcDbLinetypeTableRecord
  2
DOT_CENTER
 70
     0
  3
Dot_Center
 72
    65
 73
     4
 40
2.0
 49
1.25
 74
     0
 49
-0.25
 74
     0
 49
0.25
 74
     0
 49
-0.25
 74
     0
  0
LTYPE
  5
20
330
4
100
AcDbSymbolTableRecord
100
AcDbLinetypeTableRecord
  2
LONG_DASHED
 70
     0
  3
Long_Dashed
 72
    65
 73
     2
 40
2.0
 49
1.5
 74
     0
 49
-0.5
 74
     0
  0
LTYPE
  5
21
330
4
100
AcDbSymbolTableRecord
100
AcDbLinetypeTableRecord
  2
DASH_CENTER
 70
     0
  3
Dash_Center
 72
    65
 73
     4
 40
36.0
 49
24.0
 74
     0
 49
-3.0
 74
     0
 49
6.0
 74
     0
 49
-3.0
 74
     0
  0
LTYPE
  5
22
330
4
100
AcDbSymbolTableRecord
100
AcDbLinetypeTableRecord
  2
PHANTOM
 70
     0
  3
Phantom
 72
    65
 73
     6
 40
2.5
 49
1.25
 74
     0
 49
-0.25
 74
     0
 49
0.25
 74
     0
 49
-0.25
 74
     0
 49
0.25
 74
     0
 49
-0.25
 74
     0
  0
LTYPE
  5
23
330
4
100
AcDbSymbolTableRecord
100
AcDbLinetypeTableRecord
  2
CENTER_DASH_DASH
 70
     0
  3
Center_Dash_Dash
 72
    65
 73
     6
 40
22.0
 49
12.0
 74
     0
 49
-3.0
 74
     0
 49
0.5
 74
     0
 49
-3.0
 74
     0
 49
0.5
 74
     0
 49
-3.0
 74
     0
  0
LTYPE
  5
482
330
4
100
AcDbSymbolTableRecord
100
AcDbLinetypeTableRecord
  2
HIDDEN
 70
     0
  3
Hidden __ __ __ __ __ __ __ __ __ __ __ __ __ _
 72
    65
 73
     2
 40
9.524999999999998
 49
6.349999999999999
 74
     0
 49
-3.174999999999999
 74
     0
  0
LTYPE
  5
483
330
4
100
AcDbSymbolTableRecord
100
AcDbLinetypeTableRecord
  2
PHANTOM2
 70
     0
  3
Phantom (.5x) ___ _ _ ___ _ _ ___ _ _ ___ _ _
 72
    65
 73
     6
 40
31.75
 49
15.875
 74
     0
 49
-3.174999999999999
 74
     0
 49
3.174999999999999
 74
     0
 49
-3.174999999999999
 74
     0
 49
3.174999999999999
 74
     0
 49
-3.174999999999999
 74
     0
  0
LTYPE
  5
484
330
4
100
AcDbSymbolTableRecord
100
AcDbLinetypeTableRecord
  2
CENTER
 70
     0
  3
Center ____ _ ____ _ ____ _ ____ _ ____ _ ____
 72
    65
 73
     4
 40
50.8
 49
31.75
 74
     0
 49
-6.349999999999999
 74
     0
 49
6.349999999999999
 74
     0
 49
-6.349999999999999
 74
     0
  0
LTYPE
  5
4D3
330
4
100
AcDbSymbolTableRecord
100
AcDbLinetypeTableRecord
  2
ASULTYPE
 70
     0
  3
実線
 72
    65
 73
     2
 40
3.0
 49
2.5
 74
     0
 49
0.5
 74
     0
  0
LTYPE
  5
4D4
330
4
100
AcDbSymbolTableRecord
100
AcDbLinetypeTableRecord
  2
ASVLTYPE
 70
     0
  3
__ __ __ __ __ __ __ __ __ __ __ __ __ __ __ __ __ __ __ __ __
 72
    65
 73
     2
 40
0.75
 49
0.5
 74
     0
 49
-0.25
 74
     0
  0
LTYPE
  5
51B
330
4
100
AcDbSymbolTableRecord
100
AcDbLinetypeTableRecord
  2
AM_ISO02W050
 70
     0
  3
__ __ __ __ __ __ __ __ __ __ __ __ __ __ __
 72
    65
 73
     2
 40
7.5
 49
6.0
 74
     0
 49
-1.5
 74
     0
  0
LTYPE
  5
51C
330
4
100
AcDbSymbolTableRecord
100
AcDbLinetypeTableRecord
  2
AM_ISO08W050
 70
     0
  3
____ . ____ . ____ . ____ . ____ . ____ . ____
 72
    65
 73
     4
 40
18.0
 49
12.0
 74
     0
 49
-1.5
 74
     0
 49
3.0
 74
     0
 49
-1.5
 74
     0
  0
LTYPE
  5
51D
330
4
100
AcDbSymbolTableRecord
100
AcDbLinetypeTableRecord
  2
AM_ISO09W050
 70
     0
  3
_____ . . _____ . . _____ . . ____ .. ____
 72
    65
 73
     6
 40
22.5
 49
12.0
 74
     0
 49
-1.5
 74
     0
 49
3.0
 74
     0
 49
-1.5
 74
     0
 49
3.0
 74
     0
 49
-1.5
 74
     0
  0
LTYPE
  5
51E
330
4
100
AcDbSymbolTableRecord
100
AcDbLinetypeTableRecord
  2
Amconstr
 70
     0
  3
_______________________
 72
    65
 73
     2
 40
9999.0
 49
9999.0
 74
     0
 49
0.0
 74
     0
  0
LTYPE
  5
51F
330
4
100
AcDbSymbolTableRecord
100
AcDbLinetypeTableRecord
  2
AM_ISO08W050x2
 70
     0
  3
__ . __ . __ . __ . __ . __
 72
    65
 73
     4
 40
9.0
 49
6.0
 74
     0
 49
-0.75
 74
     0
 49
1.5
 74
     0
 49
-0.75
 74
     0
  0
LTYPE
  5
520
330
4
100
AcDbSymbolTableRecord
100
AcDbLinetypeTableRecord
  2
AM_ISO02W050x2
 70
     0
  3
 _ _ _ _ _ _ _ _ _ _ _ _
 72
    65
 73
     2
 40
3.75
 49
3.0
 74
     0
 49
-0.75
 74
     0
  0
LTYPE
  5
523
330
4
100
AcDbSymbolTableRecord
100
AcDbLinetypeTableRecord
  2
Amzigzag
 70
     0
  3
/\/-/\/-/\/-/\/-/\/-/\/
 72
    65
 73
     2
 40
11.0001
 49
0.0001
 74
     4
 75
   136
340
522
 46
0.04
 50
0.0
 44
0.0
 45
0.0
 49
-11.0
 74
     0
  0
LTYPE
  5
532
330
4
100
AcDbSymbolTableRecord
100
AcDbLinetypeTableRecord
  2
ACISOWELD
 70
     0
  3
_ _ _ _ _
 72
    65
 73
     2
 40
2.0
 49
2.0
 74
     0
 49
-1.0
 74
     0
  0
LTYPE
  5
533
330
4
100
AcDbSymbolTableRecord
100
AcDbLinetypeTableRecord
  2
ACISOTGB
 70
     0
  3
__ . . __ . .
 72
    65
 73
     6
 40
9.0
 49
4.0
 74
     0
 49
-1.0
 74
     0
 49
1.0
 74
     0
 49
-1.0
 74
     0
 49
1.0
 74
     0
 49
-1.0
 74
     0
  0
LTYPE
  5
534
330
4
100
AcDbSymbolTableRecord
100
AcDbLinetypeTableRecord
  2
ACISOTGL
 70
     0
  3
_ _ _ _ _
 72
    65
 73
     2
 40
3.0
 49
2.0
 74
     0
 49
-1.0
 74
     0
  0
ENDTAB
  0
TABLE
  2
LAYER
  5
2
330
0
100
AcDbSymbolTable
 70
     2
  0
LAYER
  5
14
330
2
100
AcDbSymbolTableRecord
100
AcDbLayerTableRecord
  2
0
 70
     0
 62
     7
  6
CONTINUOUS
370
    -3
390
38C
  0
LAYER
  5
24
330
2
100
AcDbSymbolTableRecord
100
AcDbLayerTableRecord
  2
1
 70
     0
 62
     7
  6
CONTINUOUS
370
    -3
390
38C
  0
ENDTAB
  0
TABLE
  2
STYLE
  5
3
330
0
100
AcDbSymbolTable
 70
     7
  0
STYLE
  5
17
330
3
100
AcDbSymbolTableRecord
100
AcDbTextStyleTableRecord
  2
STANDARD
 70
     0
 40
0.0
 41
1.0
 50
0.0
 71
     0
 42
0.0
  3
txt
  4

  0
STYLE
  5
36E
330
3
100
AcDbSymbolTableRecord
100
AcDbTextStyleTableRecord
  2
CONVERTER_1
 70
     0
 40
0.0
 41
0.95
 50
10.0
 71
     0
 42
0.0
  3
txt
  4

  0
STYLE
  5
370
330
3
100
AcDbSymbolTableRecord
100
AcDbTextStyleTableRecord
  2
CONVERTER_2
 70
     0
 40
0.0
 41
0.72
 50
0.0
 71
     0
 42
0.0
  3
MS Gothic
  4

1001
ACAD
1000
MS Gothic
1071
    32785
  0
STYLE
  5
385
330
3
100
AcDbSymbolTableRecord
100
AcDbTextStyleTableRecord
  2
CONVERTER_3
 70
     0
 40
0.0
 41
0.95
 50
0.0
 71
     0
 42
0.0
  3
txt
  4

  0
STYLE
  5
522
330
3
100
AcDbSymbolTableRecord
100
AcDbTextStyleTableRecord
  2

 70
     1
 40
0.0
 41
1.0
 50
0.0
 71
     0
 42
0.2
  3
genltshp.shx
  4

  0
STYLE
  5
524
330
3
100
AcDbSymbolTableRecord
100
AcDbTextStyleTableRecord
  2
ACISOTS
 70
     0
 40
1.0
 41
1.0
 50
0.0
 71
     0
 42
0.2
  3
isocp.shx
  4
extfont.shx
  0
STYLE
  5
531
330
3
100
AcDbSymbolTableRecord
100
AcDbTextStyleTableRecord
  2
ACISOGDT
 70
     0
 40
0.0
 41
1.0
 50
0.0
 71
     0
 42
0.2
  3
AMGDT
  4

  0
ENDTAB
  0
TABLE
  2
VIEW
  5
5
330
0
100
AcDbSymbolTable
 70
     0
  0
ENDTAB
  0
TABLE
  2
UCS
  5
6
330
0
100
AcDbSymbolTable
 70
     0
  0
ENDTAB
  0
TABLE
  2
APPID
  5
8
330
0
100
AcDbSymbolTable
 70
    16
  0
APPID
  5
16
330
8
100
AcDbSymbolTableRecord
100
AcDbRegAppTableRecord
  2
ACAD
 70
     0
  0
APPID
  5
44E
330
8
100
AcDbSymbolTableRecord
100
AcDbRegAppTableRecord
  2
GENIUS_GENDIM_13
 70
     0
  0
APPID
  5
44F
330
8
100
AcDbSymbolTableRecord
100
AcDbRegAppTableRecord
  2
GENIUS_GENDTOL_13
 70
     0
  0
APPID
  5
450
330
8
100
AcDbSymbolTableRecord
100
AcDbRegAppTableRecord
  2
GENIUS_GE3DTOL_13
 70
     0
  0
APPID
  5
453
330
8
100
AcDbSymbolTableRecord
100
AcDbRegAppTableRecord
  2
MCAD_NO_VIS
 70
     0
  0
APPID
  5
454
330
8
100
AcDbSymbolTableRecord
100
AcDbRegAppTableRecord
  2
ACAD_TEMP_GRAPHIC
 70
     0
  0
APPID
  5
486
330
8
100
AcDbSymbolTableRecord
100
AcDbRegAppTableRecord
  2
AD_DRAW
 70
     0
  0
APPID
  5
489
330
8
100
AcDbSymbolTableRecord
100
AcDbRegAppTableRecord
  2
ACATTRIBSERVICES
 70
     0
  0
APPID
  5
4D5
330
8
100
AcDbSymbolTableRecord
100
AcDbRegAppTableRecord
  2
ASURF_PCURVE_APPNAME
 70
     0
  0
APPID
  5
4DA
330
8
100
AcDbSymbolTableRecord
100
AcDbRegAppTableRecord
  2
AMG_3D2D_5.0
 70
     0
  0
APPID
  5
50B
330
8
100
AcDbSymbolTableRecord
100
AcDbRegAppTableRecord
  2
DESIGNERASSEMBLIES
 70
     0
  0
APPID
  5
512
330
8
100
AcDbSymbolTableRecord
100
AcDbRegAppTableRecord
  2
ACADM_DIM_EDIT
 70
     0
  0
APPID
  5
513
330
8
100
AcDbSymbolTableRecord
100
AcDbRegAppTableRecord
  2
AMDT_DM_ADJ
 70
     0
  0
APPID
  5
541
330
8
100
AcDbSymbolTableRecord
100
AcDbRegAppTableRecord
  2
ACAD_DSTYLE_DIMARC_LENGTH_SYMBOL
 70
     0
  0
APPID
  5
542
330
8
100
AcDbSymbolTableRecord
100
AcDbRegAppTableRecord
  2
ACAD_DSTYLE_DIMJOGGED_JOGANGLE_SYMBOL
 70
     0
  0
APPID
  5
56B
330
8
100
AcDbSymbolTableRecord
100
AcDbRegAppTableRecord
  2
DCO15
 70
     0
  0
ENDTAB
  0
TABLE
  2
DIMSTYLE
  5
9
330
0
100
AcDbSymbolTable
 70
     8
100
AcDbDimStyleTable
 71
     0
  0
DIMSTYLE
105
18
330
9
100
AcDbSymbolTableRecord
100
AcDbDimStyleTableRecord
  2
STANDARD
 70
     0
340
17
  0
DIMSTYLE
105
540
330
9
100
AcDbSymbolTableRecord
100
AcDbDimStyleTableRecord
  2
AM_ISO
 70
     0
  4
"
 41
2.5
 42
1.0
 43
10.0
 44
1.0
 47
0.1
 48
0.1
 73
     0
 74
     0
 77
     1
 78
     8
 79
     2
140
3.5
141
0.0
143
0.0393701
146
0.71
147
1.5
172
     1
176
   256
177
   256
178
     2
271
     2
272
     3
274
     4
283
     0
284
     8
340
17
371
    -1
372
    -1
1001
ACAD_DSTYLE_DIMARC_LENGTH_SYMBOL
1070
   379
1070
     1
1001
ACAD_DSTYLE_DIMJOGGED_JOGANGLE_SYMBOL
1070
   384
1040
0.7853981633974483
  0
DIMSTYLE
105
549
330
9
100
AcDbSymbolTableRecord
100
AcDbDimStyleTableRecord
  2
AM_ISO$3
 70
     0
  4
"
 41
2.5
 42
1.0
 43
10.0
 44
1.0
 47
0.1
 48
0.1
 73
     0
 77
     1
 78
     8
 79
     2
140
3.5
141
0.0
143
0.0393701
146
0.71
147
1.5
176
   256
177
   256
178
     2
271
     2
272
     3
274
     4
283
     0
284
     8
288
     1
289
     0
340
17
371
    -1
372
    -1
1001
ACAD_DSTYLE_DIMARC_LENGTH_SYMBOL
1070
   379
1070
     1
1001
ACAD_DSTYLE_DIMJOGGED_JOGANGLE_SYMBOL
1070
   384
1040
0.7853981633974483
  0
DIMSTYLE
105
54C
330
9
100
AcDbSymbolTableRecord
100
AcDbDimStyleTableRecord
  2
AM_ISO$4
 70
     0
  4
"
 41
2.5
 42
1.0
 43
10.0
 44
1.0
 47
0.1
 48
0.1
 73
     0
 77
     1
 78
     8
 79
     2
140
3.5
141
0.0
143
0.0393701
146
0.71
147
1.5
176
   256
177
   256
178
     2
271
     2
272
     3
274
     4
283
     0
284
     8
288
     1
289
     0
340
17
371
    -1
372
    -1
1001
ACAD_DSTYLE_DIMARC_LENGTH_SYMBOL
1070
   379
1070
     1
1001
ACAD_DSTYLE_DIMJOGGED_JOGANGLE_SYMBOL
1070
   384
1040
0.7853981633974483
  0
DIMSTYLE
105
54F
330
9
100
AcDbSymbolTableRecord
100
AcDbDimStyleTableRecord
  2
AM_ISO$6
 70
     0
  4
"
 41
2.5
 42
1.0
 43
10.0
 44
1.0
 47
0.1
 48
0.1
 73
     0
 74
     0
 78
     8
 79
     2
140
3.5
141
0.0
143
0.0393701
146
0.71
147
1.5
172
     1
176
   256
177
   256
178
     2
271
     2
272
     3
274
     4
283
     0
284
     8
340
17
371
    -1
372
    -1
1001
ACAD_DSTYLE_DIMARC_LENGTH_SYMBOL
1070
   379
1070
     1
1001
ACAD_DSTYLE_DIMJOGGED_JOGANGLE_SYMBOL
1070
   384
1040
0.7853981633974483
  0
DIMSTYLE
105
552
330
9
100
AcDbSymbolTableRecord
100
AcDbDimStyleTableRecord
  2
AM_ISO$7
 70
     0
  4
"
 41
2.5
 42
1.0
 43
10.0
 44
1.0
 47
0.1
 48
0.1
 73
     0
 74
     0
 77
     1
 78
     8
 79
     2
140
5.0
141
0.0
143
0.0393701
146
0.71
147
1.5
172
     1
176
   256
177
   256
178
     2
271
     2
272
     3
274
     4
283
     0
284
     8
340
17
371
    -1
372
    -1
1001
ACAD_DSTYLE_DIMARC_LENGTH_SYMBOL
1070
   379
1070
     1
1001
ACAD_DSTYLE_DIMJOGGED_JOGANGLE_SYMBOL
1070
   384
1040
0.7853981633974483
  0
DIMSTYLE
105
555
330
9
100
AcDbSymbolTableRecord
100
AcDbDimStyleTableRecord
  2
AM_ISO$SF
 70
     0
  4
"
 41
2.5
 42
1.0
 43
10.0
 44
1.0
 47
0.1
 48
0.1
 73
     0
 74
     0
 75
     1
 76
     1
 77
     1
 78
     8
 79
     2
140
3.5
141
0.0
143
0.0393701
146
0.71
147
1.5
172
     1
176
   256
177
   256
178
     2
271
     2
272
     3
274
     4
283
     0
284
     8
340
17
371
    -1
372
    -1
1001
ACAD_DSTYLE_DIMARC_LENGTH_SYMBOL
1070
   379
1070
     1
1001
ACAD_DSTYLE_DIMJOGGED_JOGANGLE_SYMBOL
1070
   384
1040
0.7853981633974483
  0
DIMSTYLE
105
55C
330
9
100
AcDbSymbolTableRecord
100
AcDbDimStyleTableRecord
  2
AM_ISO$SH
 70
     0
  4
"
 41
2.5
 42
1.0
 43
10.0
 44
1.0
 47
0.1
 48
0.1
 73
     0
 74
     0
 75
     1
 76
     1
 77
     1
 78
     8
 79
     2
140
3.5
141
0.0
143
0.0393701
144
2.0
146
0.71
147
1.5
172
     1
173
     1
176
   256
177
   256
178
     2
271
     2
272
     3
274
     4
283
     0
284
     8
340
17
343
556
371
    -1
372
    -1
1001
ACAD_DSTYLE_DIMARC_LENGTH_SYMBOL
1070
   379
1070
     1
1001
ACAD_DSTYLE_DIMJOGGED_JOGANGLE_SYMBOL
1070
   384
1040
0.7853981633974483
  0
ENDTAB
  0
TABLE
  2
BLOCK_RECORD
  5
1
330
0
100
AcDbSymbolTable
 70
     2
  0
BLOCK_RECORD
  5
A
102
{ACAD_XDICTIONARY
360
56D
102
}
330
1
100
AcDbSymbolTableRecord
100
AcDbBlockTableRecord
  2
*MODEL_SPACE
340
393
  0
BLOCK_RECORD
  5
B
330
1
100
AcDbSymbolTableRecord
100
AcDbBlockTableRecord
  2
*PAPER_SPACE
340
394
  0
BLOCK_RECORD
  5
556
330
1
100
AcDbSymbolTableRecord
100
AcDbBlockTableRecord
  2
GENAXEH
340
0
  0
ENDTAB
  0
ENDSEC
  0
SECTION
  2
BLOCKS
  0
BLOCK
  5
D
330
A
100
AcDbEntity
  8
0
100
AcDbBlockBegin
  2
*MODEL_SPACE
 70
     0
 10
0.0
 20
0.0
 30
0.0
  3
*MODEL_SPACE
  1

  0
ENDBLK
  5
E
330
A
100
AcDbEntity
  8
0
100
AcDbBlockEnd
  0
BLOCK
  5
F
330
B
100
AcDbEntity
 67
     1
  8
0
100
AcDbBlockBegin
  2
*PAPER_SPACE
 70
     0
 10
0.0
 20
0.0
 30
0.0
  3
*PAPER_SPACE
  1

  0
ENDBLK
  5
10
330
B
100
AcDbEntity
 67
     1
  8
0
100
AcDbBlockEnd
  0
BLOCK
  5
558
330
556
100
AcDbEntity
  8
0
100
AcDbBlockBegin
  2
GENAXEH
 70
     0
 10
0.0
 20
0.0
 30
0.0
  3
GENAXEH
  1

  0
LINE
  5
557
330
556
100
AcDbEntity
  8
0
100
AcDbLine
 10
-1.0
 20
0.0
 30
0.0
 11
1.0
 21
0.0
 31
0.0
  0
ENDBLK
  5
559
330
556
100
AcDbEntity
  8
0
100
AcDbBlockEnd
  0
ENDSEC
  0
SECTION
  2
ENTITIES
  0
TEXT
  5
386
330
A
100
AcDbEntity
  8
1
 62
     1
100
AcDbText
 10
-68.582982346403
 20
4165.359050555077
 30
0.0
 40
3.0
  1
HCZ-2DY
 41
0.95
  7
CONVERTER_3
100
AcDbText
  0
MTEXT
  5
384
330
A
100
AcDbEntity
  8
1
 62
     1
100
AcDbMText
 10
2.83223159441
 20
4042.930868077624
 30
0.0
 40
1.496537855999999
 41
0.0
 71
     5
 72
     1
  1
\U+5de6
  7
CONVERTER_2
 73
     1
 44
1.0
1001
ACAD
1000
MTEXTBEGIN
1070
    73
1070
     1
1070
    44
1040
1.0
1070
    74
1070
     0
1000
MTEXTEND
  0
MTEXT
  5
383
330
A
100
AcDbEntity
  8
1
 62
     1
100
AcDbMText
 10
9.070287767749999
 20
4042.930868077624
 30
0.0
 40
1.496537855999999
 41
0.0
 71
     5
 72
     1
  1
\U+53f3
  7
CONVERTER_2
 73
     1
 44
1.0
1001
ACAD
1000
MTEXTBEGIN
1070
    73
1070
     1
1070
    44
1040
1.0
1070
    74
1070
     0
1000
MTEXTEND
  0
MTEXT
  5
382
330
A
100
AcDbEntity
  8
1
 62
     1
100
AcDbMText
 10
11.250034656129
 20
4068.930868077623
 30
0.0
 40
1.496537855999999
 41
0.0
 71
     5
 72
     1
  1
\U+4e0b
  7
CONVERTER_2
 73
     1
 44
1.0
1001
ACAD
1000
MTEXTBEGIN
1070
    73
1070
     1
1070
    44
1040
1.0
1070
    74
1070
     0
1000
MTEXTEND
  0
MTEXT
  5
381
330
A
100
AcDbEntity
  8
1
 62
     1
100
AcDbMText
 10
0.643742596385
 20
4068.930868077623
 30
0.0
 40
1.496537855999999
 41
0.0
 71
     5
 72
     1
  1
\U+4e0a
  7
CONVERTER_2
 73
     1
 44
1.0
1001
ACAD
1000
MTEXTBEGIN
1070
    73
1070
     1
1070
    44
1040
1.0
1070
    74
1070
     0
1000
MTEXTEND
  0
MTEXT
  5
380
330
A
100
AcDbEntity
  8
1
 62
     1
100
AcDbMText
 10
61.13862335327
 20
4068.930868077623
 30
0.0
 40
1.496537855999999
 41
0.0
 71
     5
 72
     1
  1
\U+4e0a
  7
CONVERTER_2
 73
     1
 44
1.0
1001
ACAD
1000
MTEXTBEGIN
1070
    73
1070
     1
1070
    44
1040
1.0
1070
    74
1070
     0
1000
MTEXTEND
  0
MTEXT
  5
37F
330
A
100
AcDbEntity
  8
1
 62
     1
100
AcDbMText
 10
71.744915413013
 20
4068.930868077623
 30
0.0
 40
1.496537855999999
 41
0.0
 71
     5
 72
     1
  1
\U+4e0b
  7
CONVERTER_2
 73
     1
 44
1.0
1001
ACAD
1000
MTEXTBEGIN
1070
    73
1070
     1
1070
    44
1040
1.0
1070
    74
1070
     0
1000
MTEXTEND
  0
MTEXT
  5
37E
330
A
100
AcDbEntity
  8
1
 62
     1
100
AcDbMText
 10
69.565168524634
 20
4042.930868077624
 30
0.0
 40
1.496537855999999
 41
0.0
 71
     5
 72
     1
  1
\U+53f3
  7
CONVERTER_2
 73
     1
 44
1.0
1001
ACAD
1000
MTEXTBEGIN
1070
    73
1070
     1
1070
    44
1040
1.0
1070
    74
1070
     0
1000
MTEXTEND
  0
MTEXT
  5
37D
330
A
100
AcDbEntity
  8
1
 62
     1
100
AcDbMText
 10
63.32711235129501
 20
4042.930868077624
 30
0.0
 40
1.496537855999999
 41
0.0
 71
     5
 72
     1
  1
\U+5de6
  7
CONVERTER_2
 73
     1
 44
1.0
1001
ACAD
1000
MTEXTBEGIN
1070
    73
1070
     1
1070
    44
1040
1.0
1070
    74
1070
     0
1000
MTEXTEND
  0
MTEXT
  5
37C
330
A
100
AcDbEntity
  8
1
 62
     1
100
AcDbMText
 10
-59.8511381605
 20
4068.930868077623
 30
0.0
 40
1.496537855999999
 41
0.0
 71
     5
 72
     1
  1
\U+4e0a
  7
CONVERTER_2
 73
     1
 44
1.0
1001
ACAD
1000
MTEXTBEGIN
1070
    73
1070
     1
1070
    44
1040
1.0
1070
    74
1070
     0
1000
MTEXTEND
  0
MTEXT
  5
37B
330
A
100
AcDbEntity
  8
1
 62
     1
100
AcDbMText
 10
-49.244846100756
 20
4068.930868077623
 30
0.0
 40
1.496537855999999
 41
0.0
 71
     5
 72
     1
  1
\U+4e0b
  7
CONVERTER_2
 73
     1
 44
1.0
1001
ACAD
1000
MTEXTBEGIN
1070
    73
1070
     1
1070
    44
1040
1.0
1070
    74
1070
     0
1000
MTEXTEND
  0
MTEXT
  5
37A
330
A
100
AcDbEntity
  8
1
 62
     1
100
AcDbMText
 10
-51.424592989135
 20
4042.930868077624
 30
0.0
 40
1.496537855999999
 41
0.0
 71
     5
 72
     1
  1
\U+53f3
  7
CONVERTER_2
 73
     1
 44
1.0
1001
ACAD
1000
MTEXTBEGIN
1070
    73
1070
     1
1070
    44
1040
1.0
1070
    74
1070
     0
1000
MTEXTEND
  0
MTEXT
  5
379
330
A
100
AcDbEntity
  8
1
 62
     1
100
AcDbMText
 10
-57.66264916247401
 20
4042.930868077624
 30
0.0
 40
1.496537855999999
 41
0.0
 71
     5
 72
     1
  1
\U+5de6
  7
CONVERTER_2
 73
     1
 44
1.0
1001
ACAD
1000
MTEXTBEGIN
1070
    73
1070
     1
1070
    44
1040
1.0
1070
    74
1070
     0
1000
MTEXTEND
  0
MTEXT
  5
378
330
A
100
AcDbEntity
  8
1
 62
     1
100
AcDbMText
 10
0.643742596385
 20
4150.129483931053
 30
0.0
 40
1.496537855999999
 41
0.0
 71
     5
 72
     1
  1
\U+4e0a
  7
CONVERTER_2
 73
     1
 44
1.0
1001
ACAD
1000
MTEXTBEGIN
1070
    73
1070
     1
1070
    44
1040
1.0
1070
    74
1070
     0
1000
MTEXTEND
  0
MTEXT
  5
377
330
A
100
AcDbEntity
  8
1
 62
     1
100
AcDbMText
 10
11.250034656129
 20
4150.129483931053
 30
0.0
 40
1.496537855999999
 41
0.0
 71
     5
 72
     1
  1
\U+4e0b
  7
CONVERTER_2
 73
     1
 44
1.0
1001
ACAD
1000
MTEXTBEGIN
1070
    73
1070
     1
1070
    44
1040
1.0
1070
    74
1070
     0
1000
MTEXTEND
  0
MTEXT
  5
376
330
A
100
AcDbEntity
  8
1
 62
     1
100
AcDbMText
 10
9.070287767749999
 20
4124.129483931053
 30
0.0
 40
1.496537855999999
 41
0.0
 71
     5
 72
     1
  1
\U+53f3
  7
CONVERTER_2
 73
     1
 44
1.0
1001
ACAD
1000
MTEXTBEGIN
1070
    73
1070
     1
1070
    44
1040
1.0
1070
    74
1070
     0
1000
MTEXTEND
  0
MTEXT
  5
375
330
A
100
AcDbEntity
  8
1
 62
     1
100
AcDbMText
 10
2.83223159441
 20
4124.129483931053
 30
0.0
 40
1.496537855999999
 41
0.0
 71
     5
 72
     1
  1
\U+5de6
  7
CONVERTER_2
 73
     1
 44
1.0
1001
ACAD
1000
MTEXTBEGIN
1070
    73
1070
     1
1070
    44
1040
1.0
1070
    74
1070
     0
1000
MTEXTEND
  0
MTEXT
  5
374
330
A
100
AcDbEntity
  8
1
 62
     1
100
AcDbMText
 10
0.643742596385
 20
3987.732252224194
 30
0.0
 40
1.496537855999999
 41
0.0
 71
     5
 72
     1
  1
\U+4e0a
  7
CONVERTER_2
 73
     1
 44
1.0
1001
ACAD
1000
MTEXTBEGIN
1070
    73
1070
     1
1070
    44
1040
1.0
1070
    74
1070
     0
1000
MTEXTEND
  0
MTEXT
  5
373
330
A
100
AcDbEntity
  8
1
 62
     1
100
AcDbMText
 10
11.250034656129
 20
3987.732252224194
 30
0.0
 40
1.496537855999999
 41
0.0
 71
     5
 72
     1
  1
\U+4e0b
  7
CONVERTER_2
 73
     1
 44
1.0
1001
ACAD
1000
MTEXTBEGIN
1070
    73
1070
     1
1070
    44
1040
1.0
1070
    74
1070
     0
1000
MTEXTEND
  0
MTEXT
  5
372
330
A
100
AcDbEntity
  8
1
 62
     1
100
AcDbMText
 10
9.070287767749999
 20
3961.732252224194
 30
0.0
 40
1.496537855999999
 41
0.0
 71
     5
 72
     1
  1
\U+53f3
  7
CONVERTER_2
 73
     1
 44
1.0
1001
ACAD
1000
MTEXTBEGIN
1070
    73
1070
     1
1070
    44
1040
1.0
1070
    74
1070
     0
1000
MTEXTEND
  0
MTEXT
  5
371
330
A
100
AcDbEntity
  8
1
 62
     1
100
AcDbMText
 10
2.83223159441
 20
3961.732252224194
 30
0.0
 40
1.496537855999999
 41
0.0
 71
     5
 72
     1
  1
\U+5de6
  7
CONVERTER_2
 73
     1
 44
1.0
1001
ACAD
1000
MTEXTBEGIN
1070
    73
1070
     1
1070
    44
1040
1.0
1070
    74
1070
     0
1000
MTEXTEND
  0
TEXT
  5
36F
330
A
100
AcDbEntity
  8
1
 62
     6
100
AcDbText
 10
254.387487350977
 20
4065.71202011641
 30
0.0
 40
2.5
  1
WDM11
 41
0.95
  7
CONVERTER_1
100
AcDbText
  0
LEADER
  5
36D
330
A
100
AcDbEntity
  8
1
  6
Continuous
 62
     1
100
AcDbLeader
  3
STANDARD
 71
     0
 76
     3
 10
245.748862813465
 20
4056.988669420089
 30
0.0
 10
253.405830948164
 20
4064.237481824149
 30
0.0
 10
266.882496262751
 20
4064.237481824149
 30
0.0
  0
ARC
  5
36B
330
A
100
AcDbEntity
  8
1
  6
Continuous
 62
     3
100
AcDbCircle
 10
5.065662167791
 20
4066.799999999999
 30
0.0
 40
0.5
100
AcDbArc
 50
-90.0
 51
0.0
  0
ARC
  5
36A
330
A
100
AcDbEntity
  8
1
  6
Continuous
 62
     3
100
AcDbCircle
 10
5.065662167791
 20
4064.8
 30
0.0
 40
0.5
100
AcDbArc
 50
0.0
 51
90.0
  0
ARC
  5
369
330
A
100
AcDbEntity
  8
1
  6
Continuous
 62
     3
100
AcDbCircle
 10
7.065662167790999
 20
4064.8
 30
0.0
 40
0.5
100
AcDbArc
 50
90.0
 51
180.0
  0
ARC
  5
368
330
A
100
AcDbEntity
  8
1
  6
Continuous
 62
     3
100
AcDbCircle
 10
7.065662167790999
 20
4066.799999999999
 30
0.0
 40
0.5
100
AcDbArc
 50
180.0
 51
-90.0
  0
ARC
  5
367
330
A
100
AcDbEntity
  8
1
  6
Continuous
 62
     3
100
AcDbCircle
 10
7.065662167790999
 20
4052.3
 30
0.0
 40
0.5
100
AcDbArc
 50
180.0
 51
-90.0
  0
ARC
  5
366
330
A
100
AcDbEntity
  8
1
  6
Continuous
 62
     3
100
AcDbCircle
 10
7.065662167790999
 20
4050.3
 30
0.0
 40
0.5
100
AcDbArc
 50
90.0
 51
180.0
  0
ARC
  5
365
330
A
100
AcDbEntity
  8
1
  6
Continuous
 62
     3
100
AcDbCircle
 10
5.065662167791
 20
4050.3
 30
0.0
 40
0.5
100
AcDbArc
 50
0.0
 51
90.0
  0
ARC
  5
364
330
A
100
AcDbEntity
  8
1
  6
Continuous
 62
     3
100
AcDbCircle
 10
5.065662167791
 20
4052.3
 30
0.0
 40
0.5
100
AcDbArc
 50
-90.0
 51
0.0
  0
ARC
  5
363
330
A
100
AcDbEntity
  8
1
  6
Continuous
 62
     3
100
AcDbCircle
 10
65.56054292467499
 20
4052.3
 30
0.0
 40
0.5
100
AcDbArc
 50
-90.0
 51
0.0
  0
ARC
  5
362
330
A
100
AcDbEntity
  8
1
  6
Continuous
 62
     3
100
AcDbCircle
 10
65.56054292467499
 20
4050.3
 30
0.0
 40
0.5
100
AcDbArc
 50
0.0
 51
90.0
  0
ARC
  5
361
330
A
100
AcDbEntity
  8
1
  6
Continuous
 62
     3
100
AcDbCircle
 10
67.56054292467499
 20
4050.3
 30
0.0
 40
0.5
100
AcDbArc
 50
90.0
 51
180.0
  0
ARC
  5
360
330
A
100
AcDbEntity
  8
1
  6
Continuous
 62
     3
100
AcDbCircle
 10
67.56054292467499
 20
4052.3
 30
0.0
 40
0.5
100
AcDbArc
 50
180.0
 51
-90.0
  0
ARC
  5
35F
330
A
100
AcDbEntity
  8
1
  6
Continuous
 62
     3
100
AcDbCircle
 10
67.56054292467499
 20
4066.799999999999
 30
0.0
 40
0.5
100
AcDbArc
 50
180.0
 51
-90.0
  0
ARC
  5
35E
330
A
100
AcDbEntity
  8
1
  6
Continuous
 62
     3
100
AcDbCircle
 10
67.56054292467499
 20
4064.8
 30
0.0
 40
0.5
100
AcDbArc
 50
90.0
 51
180.0
  0
ARC
  5
35D
330
A
100
AcDbEntity
  8
1
  6
Continuous
 62
     3
100
AcDbCircle
 10
65.56054292467499
 20
4064.8
 30
0.0
 40
0.5
100
AcDbArc
 50
0.0
 51
90.0
  0
ARC
  5
35C
330
A
100
AcDbEntity
  8
1
  6
Continuous
 62
     3
100
AcDbCircle
 10
65.56054292467499
 20
4066.799999999999
 30
0.0
 40
0.5
100
AcDbArc
 50
-90.0
 51
0.0
  0
ARC
  5
35B
330
A
100
AcDbEntity
  8
1
  6
Continuous
 62
     3
100
AcDbCircle
 10
-55.429218589094
 20
4052.3
 30
0.0
 40
0.5
100
AcDbArc
 50
-90.0
 51
0.0
  0
ARC
  5
35A
330
A
100
AcDbEntity
  8
1
  6
Continuous
 62
     3
100
AcDbCircle
 10
-55.429218589094
 20
4050.3
 30
0.0
 40
0.5
100
AcDbArc
 50
0.0
 51
90.0
  0
ARC
  5
359
330
A
100
AcDbEntity
  8
1
  6
Continuous
 62
     3
100
AcDbCircle
 10
-53.429218589094
 20
4050.3
 30
0.0
 40
0.5
100
AcDbArc
 50
90.0
 51
180.0
  0
ARC
  5
358
330
A
100
AcDbEntity
  8
1
  6
Continuous
 62
     3
100
AcDbCircle
 10
-53.429218589094
 20
4052.3
 30
0.0
 40
0.5
100
AcDbArc
 50
180.0
 51
-90.0
  0
ARC
  5
357
330
A
100
AcDbEntity
  8
1
  6
Continuous
 62
     3
100
AcDbCircle
 10
-53.429218589094
 20
4066.799999999999
 30
0.0
 40
0.5
100
AcDbArc
 50
180.0
 51
-90.0
  0
ARC
  5
356
330
A
100
AcDbEntity
  8
1
  6
Continuous
 62
     3
100
AcDbCircle
 10
-53.429218589094
 20
4064.8
 30
0.0
 40
0.5
100
AcDbArc
 50
90.0
 51
180.0
  0
ARC
  5
355
330
A
100
AcDbEntity
  8
1
  6
Continuous
 62
     3
100
AcDbCircle
 10
-55.429218589094
 20
4064.8
 30
0.0
 40
0.5
100
AcDbArc
 50
0.0
 51
90.0
  0
ARC
  5
354
330
A
100
AcDbEntity
  8
1
  6
Continuous
 62
     3
100
AcDbCircle
 10
-55.429218589094
 20
4066.799999999999
 30
0.0
 40
0.5
100
AcDbArc
 50
-90.0
 51
0.0
  0
ARC
  5
353
330
A
100
AcDbEntity
  8
1
  6
Continuous
 62
     3
100
AcDbCircle
 10
5.065662167791
 20
4133.498615853429
 30
0.0
 40
0.5
100
AcDbArc
 50
-90.0
 51
0.0
  0
ARC
  5
352
330
A
100
AcDbEntity
  8
1
  6
Continuous
 62
     3
100
AcDbCircle
 10
5.065662167791
 20
4131.49861585343
 30
0.0
 40
0.5
100
AcDbArc
 50
0.0
 51
90.0
  0
ARC
  5
351
330
A
100
AcDbEntity
  8
1
  6
Continuous
 62
     3
100
AcDbCircle
 10
7.065662167790999
 20
4131.49861585343
 30
0.0
 40
0.5
100
AcDbArc
 50
90.0
 51
180.0
  0
ARC
  5
350
330
A
100
AcDbEntity
  8
1
  6
Continuous
 62
     3
100
AcDbCircle
 10
7.065662167790999
 20
4133.498615853429
 30
0.0
 40
0.5
100
AcDbArc
 50
180.0
 51
-90.0
  0
ARC
  5
34F
330
A
100
AcDbEntity
  8
1
  6
Continuous
 62
     3
100
AcDbCircle
 10
7.065662167790999
 20
4147.998615853429
 30
0.0
 40
0.5
100
AcDbArc
 50
180.0
 51
-90.0
  0
ARC
  5
34E
330
A
100
AcDbEntity
  8
1
  6
Continuous
 62
     3
100
AcDbCircle
 10
7.065662167790999
 20
4145.998615853429
 30
0.0
 40
0.5
100
AcDbArc
 50
90.0
 51
180.0
  0
ARC
  5
34D
330
A
100
AcDbEntity
  8
1
  6
Continuous
 62
     3
100
AcDbCircle
 10
5.065662167791
 20
4145.998615853429
 30
0.0
 40
0.5
100
AcDbArc
 50
0.0
 51
90.0
  0
ARC
  5
34C
330
A
100
AcDbEntity
  8
1
  6
Continuous
 62
     3
100
AcDbCircle
 10
5.065662167791
 20
4147.998615853429
 30
0.0
 40
0.5
100
AcDbArc
 50
-90.0
 51
0.0
  0
ARC
  5
34B
330
A
100
AcDbEntity
  8
1
  6
Continuous
 62
     3
100
AcDbCircle
 10
5.065662167791
 20
3971.101384146571
 30
0.0
 40
0.5
100
AcDbArc
 50
-90.0
 51
0.0
  0
ARC
  5
34A
330
A
100
AcDbEntity
  8
1
  6
Continuous
 62
     3
100
AcDbCircle
 10
5.065662167791
 20
3969.101384146571
 30
0.0
 40
0.5
100
AcDbArc
 50
0.0
 51
90.0
  0
ARC
  5
349
330
A
100
AcDbEntity
  8
1
  6
Continuous
 62
     3
100
AcDbCircle
 10
7.065662167790999
 20
3969.101384146571
 30
0.0
 40
0.5
100
AcDbArc
 50
90.0
 51
180.0
  0
ARC
  5
348
330
A
100
AcDbEntity
  8
1
  6
Continuous
 62
     3
100
AcDbCircle
 10
7.065662167790999
 20
3971.101384146571
 30
0.0
 40
0.5
100
AcDbArc
 50
180.0
 51
-90.0
  0
ARC
  5
347
330
A
100
AcDbEntity
  8
1
  6
Continuous
 62
     3
100
AcDbCircle
 10
7.065662167790999
 20
3985.601384146571
 30
0.0
 40
0.5
100
AcDbArc
 50
180.0
 51
-90.0
  0
ARC
  5
346
330
A
100
AcDbEntity
  8
1
  6
Continuous
 62
     3
100
AcDbCircle
 10
7.065662167790999
 20
3983.601384146572
 30
0.0
 40
0.5
100
AcDbArc
 50
90.0
 51
180.0
  0
ARC
  5
345
330
A
100
AcDbEntity
  8
1
  6
Continuous
 62
     3
100
AcDbCircle
 10
5.065662167791
 20
3983.601384146572
 30
0.0
 40
0.5
100
AcDbArc
 50
0.0
 51
90.0
  0
ARC
  5
344
330
A
100
AcDbEntity
  8
1
  6
Continuous
 62
     3
100
AcDbCircle
 10
5.065662167791
 20
3985.601384146571
 30
0.0
 40
0.5
100
AcDbArc
 50
-90.0
 51
0.0
  0
ARC
  5
343
330
A
100
AcDbEntity
  8
1
  6
Continuous
 62
     3
100
AcDbCircle
 10
2.665662167790999
 20
4032.019804218282
 30
0.0
 40
0.3
100
AcDbArc
 50
180.0
 51
-110.000000000047
  0
ARC
  5
342
330
A
100
AcDbEntity
  8
1
  6
Continuous
 62
     3
100
AcDbCircle
 10
4.796617132065
 20
4030.1
 30
0.0
 40
0.3
100
AcDbArc
 50
-170.000000000012
 51
-90.0
  0
ARC
  5
341
330
A
100
AcDbEntity
  8
1
  6
Continuous
 62
     3
100
AcDbCircle
 10
7.334707203516
 20
4030.1
 30
0.0
 40
0.3
100
AcDbArc
 50
-90.0
 51
-9.999999999988
  0
ARC
  5
340
330
A
100
AcDbEntity
  8
1
  6
Continuous
 62
     3
100
AcDbCircle
 10
9.465662167790998
 20
4032.019804218282
 30
0.0
 40
0.2999999999989999
100
AcDbArc
 50
-69.999999999952
 51
0.0
  0
ARC
  5
33F
330
A
100
AcDbEntity
  8
1
  6
Continuous
 62
     3
100
AcDbCircle
 10
65.160542924675
 20
4032.019804218282
 30
0.0
 40
0.3
100
AcDbArc
 50
180.0
 51
-110.000000000045
  0
ARC
  5
33E
330
A
100
AcDbEntity
  8
1
  6
Continuous
 62
     3
100
AcDbCircle
 10
67.29149788895
 20
4030.1
 30
0.0
 40
0.3
100
AcDbArc
 50
-170.000000000012
 51
-90.0
  0
ARC
  5
33D
330
A
100
AcDbEntity
  8
1
  6
Continuous
 62
     3
100
AcDbCircle
 10
69.829587960401
 20
4030.1
 30
0.0
 40
0.3
100
AcDbArc
 50
-90.0
 51
-9.999999999988
  0
ARC
  5
33C
330
A
100
AcDbEntity
  8
1
  6
Continuous
 62
     3
100
AcDbCircle
 10
71.960542924675
 20
4032.019804218282
 30
0.0
 40
0.2999999999989999
100
AcDbArc
 50
-69.999999999952
 51
0.0
  0
ARC
  5
33B
330
A
100
AcDbEntity
  8
1
  6
Continuous
 62
     3
100
AcDbCircle
 10
-59.82921858909399
 20
4032.019804218282
 30
0.0
 40
0.3
100
AcDbArc
 50
180.0
 51
-110.000000000048
  0
ARC
  5
33A
330
A
100
AcDbEntity
  8
1
  6
Continuous
 62
     3
100
AcDbCircle
 10
-57.69826362482
 20
4030.1
 30
0.0
 40
0.3
100
AcDbArc
 50
-170.000000000012
 51
-90.0
  0
ARC
  5
339
330
A
100
AcDbEntity
  8
1
  6
Continuous
 62
     3
100
AcDbCircle
 10
-55.16017355336799
 20
4030.1
 30
0.0
 40
0.3
100
AcDbArc
 50
-90.0
 51
-9.999999999988
  0
ARC
  5
338
330
A
100
AcDbEntity
  8
1
  6
Continuous
 62
     3
100
AcDbCircle
 10
-53.029218589094
 20
4032.019804218282
 30
0.0
 40
0.2999999999989999
100
AcDbArc
 50
-69.999999999954
 51
0.0
  0
ARC
  5
337
330
A
100
AcDbEntity
  8
1
  6
Continuous
 62
     3
100
AcDbCircle
 10
9.465662167790998
 20
4110.718420071711
 30
0.0
 40
0.2999999999989999
100
AcDbArc
 50
-69.999999999952
 51
0.0
  0
ARC
  5
336
330
A
100
AcDbEntity
  8
1
  6
Continuous
 62
     3
100
AcDbCircle
 10
7.334707203516
 20
4108.798615853429
 30
0.0
 40
0.3
100
AcDbArc
 50
-32.954835326817
 51
-9.999999999988
  0
ARC
  5
335
330
A
100
AcDbEntity
  8
1
  6
Continuous
 62
     3
100
AcDbCircle
 10
4.796617132065
 20
4108.798615853429
 30
0.0
 40
0.300000000001
100
AcDbArc
 50
-147.045164673036
 51
-90.0
  0
ARC
  5
334
330
A
100
AcDbEntity
  8
1
  6
Continuous
 62
     3
100
AcDbCircle
 10
2.665662167790999
 20
4110.718420071711
 30
0.0
 40
0.3
100
AcDbArc
 50
180.0
 51
-110.000000000047
  0
ARC
  5
333
330
A
100
AcDbEntity
  8
1
  6
Continuous
 62
     3
100
AcDbCircle
 10
9.465662167790998
 20
3953.321188364853
 30
0.0
 40
0.3
100
AcDbArc
 50
-70.00000000001199
 51
0.0
  0
ARC
  5
332
330
A
100
AcDbEntity
  8
1
  6
Continuous
 62
     3
100
AcDbCircle
 10
7.334707203516
 20
3951.401384146571
 30
0.0
 40
0.3
100
AcDbArc
 50
-32.954835326817
 51
-9.999999999988
  0
ARC
  5
331
330
A
100
AcDbEntity
  8
1
  6
Continuous
 62
     3
100
AcDbCircle
 10
4.796617132065
 20
3951.401384146571
 30
0.0
 40
0.3
100
AcDbArc
 50
-147.045164673182
 51
-90.0
  0
ARC
  5
330
330
A
100
AcDbEntity
  8
1
  6
Continuous
 62
     3
100
AcDbCircle
 10
2.665662167790999
 20
3953.321188364853
 30
0.0
 40
0.3
100
AcDbArc
 50
180.0
 51
-109.999999999988
  0
ARC
  5
32F
330
A
100
AcDbEntity
  8
1
  6
Continuous
 62
     3
100
AcDbCircle
 10
7.334707203516
 20
3951.401384146571
 30
0.0
 40
0.3
100
AcDbArc
 50
-90.0
 51
-32.954835326817
  0
ARC
  5
32E
330
A
100
AcDbEntity
  8
1
  6
Continuous
 62
     3
100
AcDbCircle
 10
4.796617132065
 20
3951.401384146571
 30
0.0
 40
0.3
100
AcDbArc
 50
-170.000000000012
 51
-147.045164673182
  0
ARC
  5
32D
330
A
100
AcDbEntity
  8
1
  6
Continuous
 62
     3
100
AcDbCircle
 10
7.334707203516
 20
4108.798615853429
 30
0.0
 40
0.300000000001
100
AcDbArc
 50
-90.0
 51
-32.954835326817
  0
ARC
  5
32C
330
A
100
AcDbEntity
  8
1
  6
Continuous
 62
     3
100
AcDbCircle
 10
4.796617132065
 20
4108.798615853429
 30
0.0
 40
0.3
100
AcDbArc
 50
-170.000000000012
 51
-147.045164673036
  0
CIRCLE
  5
32B
330
A
100
AcDbEntity
  8
1
  6
Continuous
 62
     3
100
AcDbCircle
 10
6.065662167790999
 20
4075.8
 30
0.0
 40
2.0
  0
CIRCLE
  5
32A
330
A
100
AcDbEntity
  8
1
  6
Continuous
 62
     3
100
AcDbCircle
 10
6.065662167790999
 20
4075.8
 30
0.0
 40
3.95
  0
CIRCLE
  5
329
330
A
100
AcDbEntity
  8
1
  6
Continuous
 62
     1
100
AcDbCircle
 10
6.065662167790999
 20
4075.8
 30
0.0
 40
4.45
  0
CIRCLE
  5
328
330
A
100
AcDbEntity
  8
1
  6
Continuous
 62
     3
100
AcDbCircle
 10
6.065662167790999
 20
4065.8
 30
0.0
 40
4.099999999999999
  0
CIRCLE
  5
327
330
A
100
AcDbEntity
  8
1
  6
Continuous
 62
     1
100
AcDbCircle
 10
6.065662167790999
 20
4065.8
 30
0.0
 40
4.599999999999999
  0
CIRCLE
  5
326
330
A
100
AcDbEntity
  8
1
  6
Continuous
 62
     3
100
AcDbCircle
 10
6.065662167790999
 20
4051.3
 30
0.0
 40
6.099999999999999
  0
CIRCLE
  5
325
330
A
100
AcDbEntity
  8
1
  6
Continuous
 62
     1
100
AcDbCircle
 10
6.065662167790999
 20
4051.3
 30
0.0
 40
6.599999999999999
  0
CIRCLE
  5
324
330
A
100
AcDbEntity
  8
1
  6
Continuous
 62
     3
100
AcDbCircle
 10
137.06708832512
 20
4075.8
 30
0.0
 40
1.5
  0
CIRCLE
  5
323
330
A
100
AcDbEntity
  8
1
  6
Continuous
 62
     3
100
AcDbCircle
 10
153.66708832512
 20
4070.800000000001
 30
0.0
 40
1.5
  0
CIRCLE
  5
322
330
A
100
AcDbEntity
  8
1
  6
Continuous
 62
     3
100
AcDbCircle
 10
126.16708832512
 20
4039.8
 30
0.0
 40
2.524999999999999
  0
CIRCLE
  5
321
330
A
100
AcDbEntity
  8
1
  6
Continuous
 62
     1
100
AcDbCircle
 10
126.16708832512
 20
4039.8
 30
0.0
 40
2.0
  0
CIRCLE
  5
320
330
A
100
AcDbEntity
  8
1
  6
Continuous
 62
     1
100
AcDbCircle
 10
66.56054292467499
 20
4051.3
 30
0.0
 40
6.599999999999999
  0
CIRCLE
  5
31F
330
A
100
AcDbEntity
  8
1
  6
Continuous
 62
     3
100
AcDbCircle
 10
66.56054292467499
 20
4051.3
 30
0.0
 40
6.099999999999999
  0
CIRCLE
  5
31E
330
A
100
AcDbEntity
  8
1
  6
Continuous
 62
     1
100
AcDbCircle
 10
66.56054292467499
 20
4065.8
 30
0.0
 40
4.599999999999999
  0
CIRCLE
  5
31D
330
A
100
AcDbEntity
  8
1
  6
Continuous
 62
     3
100
AcDbCircle
 10
66.56054292467499
 20
4065.8
 30
0.0
 40
4.099999999999999
  0
CIRCLE
  5
31C
330
A
100
AcDbEntity
  8
1
  6
Continuous
 62
     1
100
AcDbCircle
 10
66.56054292467499
 20
4075.8
 30
0.0
 40
4.45
  0
CIRCLE
  5
31B
330
A
100
AcDbEntity
  8
1
  6
Continuous
 62
     3
100
AcDbCircle
 10
66.56054292467499
 20
4075.8
 30
0.0
 40
3.95
  0
CIRCLE
  5
31A
330
A
100
AcDbEntity
  8
1
  6
Continuous
 62
     3
100
AcDbCircle
 10
66.56054292467499
 20
4075.8
 30
0.0
 40
2.0
  0
CIRCLE
  5
319
330
A
100
AcDbEntity
  8
1
  6
Continuous
 62
     1
100
AcDbCircle
 10
-54.429218589094
 20
4051.3
 30
0.0
 40
6.599999999999999
  0
CIRCLE
  5
318
330
A
100
AcDbEntity
  8
1
  6
Continuous
 62
     3
100
AcDbCircle
 10
-54.429218589094
 20
4051.3
 30
0.0
 40
6.099999999999999
  0
CIRCLE
  5
317
330
A
100
AcDbEntity
  8
1
  6
Continuous
 62
     1
100
AcDbCircle
 10
-54.429218589094
 20
4065.8
 30
0.0
 40
4.599999999999999
  0
CIRCLE
  5
316
330
A
100
AcDbEntity
  8
1
  6
Continuous
 62
     3
100
AcDbCircle
 10
-54.429218589094
 20
4065.8
 30
0.0
 40
4.099999999999999
  0
CIRCLE
  5
315
330
A
100
AcDbEntity
  8
1
  6
Continuous
 62
     1
100
AcDbCircle
 10
-54.429218589094
 20
4075.8
 30
0.0
 40
4.45
  0
CIRCLE
  5
314
330
A
100
AcDbEntity
  8
1
  6
Continuous
 62
     3
100
AcDbCircle
 10
-54.429218589094
 20
4075.8
 30
0.0
 40
3.95
  0
CIRCLE
  5
313
330
A
100
AcDbEntity
  8
1
  6
Continuous
 62
     3
100
AcDbCircle
 10
-54.429218589094
 20
4075.8
 30
0.0
 40
2.0
  0
CIRCLE
  5
312
330
A
100
AcDbEntity
  8
1
  6
Continuous
 62
     1
100
AcDbCircle
 10
6.065662167790999
 20
4132.498615853429
 30
0.0
 40
6.599999999999999
  0
CIRCLE
  5
311
330
A
100
AcDbEntity
  8
1
  6
Continuous
 62
     3
100
AcDbCircle
 10
6.065662167790999
 20
4132.498615853429
 30
0.0
 40
6.099999999999999
  0
CIRCLE
  5
310
330
A
100
AcDbEntity
  8
1
  6
Continuous
 62
     1
100
AcDbCircle
 10
6.065662167790999
 20
4146.998615853429
 30
0.0
 40
4.599999999999999
  0
CIRCLE
  5
30F
330
A
100
AcDbEntity
  8
1
  6
Continuous
 62
     3
100
AcDbCircle
 10
6.065662167790999
 20
4146.998615853429
 30
0.0
 40
4.099999999999999
  0
CIRCLE
  5
30E
330
A
100
AcDbEntity
  8
1
  6
Continuous
 62
     1
100
AcDbCircle
 10
6.065662167790999
 20
4156.998615853429
 30
0.0
 40
4.45
  0
CIRCLE
  5
30D
330
A
100
AcDbEntity
  8
1
  6
Continuous
 62
     3
100
AcDbCircle
 10
6.065662167790999
 20
4156.998615853429
 30
0.0
 40
3.95
  0
CIRCLE
  5
30C
330
A
100
AcDbEntity
  8
1
  6
Continuous
 62
     3
100
AcDbCircle
 10
6.065662167790999
 20
4156.998615853429
 30
0.0
 40
2.0
  0
CIRCLE
  5
30B
330
A
100
AcDbEntity
  8
1
  6
Continuous
 62
     1
100
AcDbCircle
 10
6.065662167790999
 20
3970.101384146571
 30
0.0
 40
6.599999999999999
  0
CIRCLE
  5
30A
330
A
100
AcDbEntity
  8
1
  6
Continuous
 62
     3
100
AcDbCircle
 10
6.065662167790999
 20
3970.101384146571
 30
0.0
 40
6.099999999999999
  0
CIRCLE
  5
309
330
A
100
AcDbEntity
  8
1
  6
Continuous
 62
     1
100
AcDbCircle
 10
6.065662167790999
 20
3984.601384146571
 30
0.0
 40
4.599999999999999
  0
CIRCLE
  5
308
330
A
100
AcDbEntity
  8
1
  6
Continuous
 62
     3
100
AcDbCircle
 10
6.065662167790999
 20
3984.601384146571
 30
0.0
 40
4.099999999999999
  0
CIRCLE
  5
307
330
A
100
AcDbEntity
  8
1
  6
Continuous
 62
     1
100
AcDbCircle
 10
6.065662167790999
 20
3994.601384146572
 30
0.0
 40
4.45
  0
CIRCLE
  5
306
330
A
100
AcDbEntity
  8
1
  6
Continuous
 62
     3
100
AcDbCircle
 10
6.065662167790999
 20
3994.601384146572
 30
0.0
 40
3.95
  0
CIRCLE
  5
305
330
A
100
AcDbEntity
  8
1
  6
Continuous
 62
     3
100
AcDbCircle
 10
6.065662167790999
 20
3994.601384146572
 30
0.0
 40
2.0
  0
CIRCLE
  5
304
330
A
100
AcDbEntity
  8
1
  6
Continuous
 62
     1
100
AcDbCircle
 10
126.16708832512
 20
4120.998615853429
 30
0.0
 40
2.0
  0
CIRCLE
  5
303
330
A
100
AcDbEntity
  8
1
  6
Continuous
 62
     3
100
AcDbCircle
 10
126.16708832512
 20
4120.998615853429
 30
0.0
 40
2.524999999999999
  0
CIRCLE
  5
302
330
A
100
AcDbEntity
  8
1
  6
Continuous
 62
     3
100
AcDbCircle
 10
153.66708832512
 20
4151.998615853429
 30
0.0
 40
1.5
  0
CIRCLE
  5
301
330
A
100
AcDbEntity
  8
1
  6
Continuous
 62
     3
100
AcDbCircle
 10
137.06708832512
 20
4156.998615853429
 30
0.0
 40
1.5
  0
CIRCLE
  5
300
330
A
100
AcDbEntity
  8
1
  6
Continuous
 62
     1
100
AcDbCircle
 10
126.16708832512
 20
3958.601384146572
 30
0.0
 40
2.0
  0
CIRCLE
  5
2FF
330
A
100
AcDbEntity
  8
1
  6
Continuous
 62
     3
100
AcDbCircle
 10
126.16708832512
 20
3958.601384146572
 30
0.0
 40
2.524999999999999
  0
CIRCLE
  5
2FE
330
A
100
AcDbEntity
  8
1
  6
Continuous
 62
     3
100
AcDbCircle
 10
153.66708832512
 20
3989.601384146571
 30
0.0
 40
1.5
  0
CIRCLE
  5
2FD
330
A
100
AcDbEntity
  8
1
  6
Continuous
 62
     3
100
AcDbCircle
 10
137.06708832512
 20
3994.601384146572
 30
0.0
 40
1.5
  0
CIRCLE
  5
2FC
330
A
100
AcDbEntity
  8
1
  6
Continuous
 62
     3
100
AcDbCircle
 10
220.348862813465
 20
3994.601384146572
 30
0.0
 40
1.5
  0
CIRCLE
  5
2FB
330
A
100
AcDbEntity
  8
1
  6
Continuous
 62
     3
100
AcDbCircle
 10
236.948862813465
 20
3989.601384146571
 30
0.0
 40
1.5
  0
CIRCLE
  5
2FA
330
A
100
AcDbEntity
  8
1
  6
Continuous
 62
     3
100
AcDbCircle
 10
209.448862813465
 20
3958.601384146572
 30
0.0
 40
2.524999999999999
  0
CIRCLE
  5
2F9
330
A
100
AcDbEntity
  8
1
  6
Continuous
 62
     1
100
AcDbCircle
 10
209.448862813465
 20
3958.601384146572
 30
0.0
 40
2.0
  0
CIRCLE
  5
2F8
330
A
100
AcDbEntity
  8
1
  6
Continuous
 62
     3
100
AcDbCircle
 10
220.348862813465
 20
4156.998615853429
 30
0.0
 40
1.5
  0
CIRCLE
  5
2F7
330
A
100
AcDbEntity
  8
1
  6
Continuous
 62
     3
100
AcDbCircle
 10
236.948862813465
 20
4151.998615853429
 30
0.0
 40
1.5
  0
CIRCLE
  5
2F6
330
A
100
AcDbEntity
  8
1
  6
Continuous
 62
     3
100
AcDbCircle
 10
209.448862813465
 20
4120.998615853429
 30
0.0
 40
2.524999999999999
  0
CIRCLE
  5
2F5
330
A
100
AcDbEntity
  8
1
  6
Continuous
 62
     1
100
AcDbCircle
 10
209.448862813465
 20
4120.998615853429
 30
0.0
 40
2.0
  0
CIRCLE
  5
2F4
330
A
100
AcDbEntity
  8
1
  6
Continuous
 62
     1
100
AcDbCircle
 10
209.448862813465
 20
4039.8
 30
0.0
 40
2.0
  0
CIRCLE
  5
2F3
330
A
100
AcDbEntity
  8
1
  6
Continuous
 62
     3
100
AcDbCircle
 10
209.448862813465
 20
4039.8
 30
0.0
 40
2.524999999999999
  0
CIRCLE
  5
2F2
330
A
100
AcDbEntity
  8
1
  6
Continuous
 62
     3
100
AcDbCircle
 10
236.948862813465
 20
4070.800000000001
 30
0.0
 40
1.5
  0
CIRCLE
  5
2F1
330
A
100
AcDbEntity
  8
1
  6
Continuous
 62
     3
100
AcDbCircle
 10
220.348862813465
 20
4075.8
 30
0.0
 40
1.5
  0
ARC
  5
2F0
330
A
100
AcDbEntity
  8
1
  6
Continuous
 62
     3
100
AcDbCircle
 10
6.065662167790999
 20
4075.8
 30
0.0
 40
7.9
100
AcDbArc
 50
0.0
 51
180.0
  0
ARC
  5
2EF
330
A
100
AcDbEntity
  8
1
  6
Continuous
 62
     1
100
AcDbCircle
 10
6.065662167790999
 20
4075.8
 30
0.0
 40
7.4
100
AcDbArc
 50
0.0
 51
180.0
  0
ARC
  5
2EE
330
A
100
AcDbEntity
  8
1
  6
Continuous
 62
     6
100
AcDbCircle
 10
6.065662167790999
 20
4065.8
 30
0.0
 40
5.5
100
AcDbArc
 50
180.0
 51
0.0
  0
ARC
  5
2ED
330
A
100
AcDbEntity
  8
1
  6
Continuous
 62
     3
100
AcDbCircle
 10
137.06708832512
 20
4075.8
 30
0.0
 40
3.5
100
AcDbArc
 50
0.0
 51
180.0
  0
ARC
  5
2EC
330
A
100
AcDbEntity
  8
1
  6
Continuous
 62
     6
100
AcDbCircle
 10
66.56054292467499
 20
4065.8
 30
0.0
 40
5.5
100
AcDbArc
 50
180.0
 51
0.0
  0
ARC
  5
2EB
330
A
100
AcDbEntity
  8
1
  6
Continuous
 62
     1
100
AcDbCircle
 10
66.56054292467499
 20
4075.8
 30
0.0
 40
7.4
100
AcDbArc
 50
0.0
 51
180.0
  0
ARC
  5
2EA
330
A
100
AcDbEntity
  8
1
  6
Continuous
 62
     3
100
AcDbCircle
 10
66.56054292467499
 20
4075.8
 30
0.0
 40
7.9
100
AcDbArc
 50
0.0
 51
180.0
  0
ARC
  5
2E9
330
A
100
AcDbEntity
  8
1
  6
Continuous
 62
     6
100
AcDbCircle
 10
-54.429218589094
 20
4065.8
 30
0.0
 40
5.5
100
AcDbArc
 50
180.0
 51
0.0
  0
ARC
  5
2E8
330
A
100
AcDbEntity
  8
1
  6
Continuous
 62
     1
100
AcDbCircle
 10
-54.429218589094
 20
4075.8
 30
0.0
 40
7.4
100
AcDbArc
 50
0.0
 51
180.0
  0
ARC
  5
2E7
330
A
100
AcDbEntity
  8
1
  6
Continuous
 62
     3
100
AcDbCircle
 10
-54.429218589094
 20
4075.8
 30
0.0
 40
7.9
100
AcDbArc
 50
0.0
 51
180.0
  0
ARC
  5
2E6
330
A
100
AcDbEntity
  8
1
  6
Continuous
 62
     6
100
AcDbCircle
 10
6.065662167790999
 20
4146.998615853429
 30
0.0
 40
5.5
100
AcDbArc
 50
180.0
 51
0.0
  0
ARC
  5
2E5
330
A
100
AcDbEntity
  8
1
  6
Continuous
 62
     1
100
AcDbCircle
 10
6.065662167790999
 20
4156.998615853429
 30
0.0
 40
7.4
100
AcDbArc
 50
0.0
 51
180.0
  0
ARC
  5
2E4
330
A
100
AcDbEntity
  8
1
  6
Continuous
 62
     3
100
AcDbCircle
 10
6.065662167790999
 20
4156.998615853429
 30
0.0
 40
7.9
100
AcDbArc
 50
0.0
 51
180.0
  0
ARC
  5
2E3
330
A
100
AcDbEntity
  8
1
  6
Continuous
 62
     6
100
AcDbCircle
 10
6.065662167790999
 20
3984.601384146571
 30
0.0
 40
5.5
100
AcDbArc
 50
180.0
 51
0.0
  0
ARC
  5
2E2
330
A
100
AcDbEntity
  8
1
  6
Continuous
 62
     1
100
AcDbCircle
 10
6.065662167790999
 20
3994.601384146572
 30
0.0
 40
7.4
100
AcDbArc
 50
0.0
 51
180.0
  0
ARC
  5
2E1
330
A
100
AcDbEntity
  8
1
  6
Continuous
 62
     3
100
AcDbCircle
 10
6.065662167790999
 20
3994.601384146572
 30
0.0
 40
7.9
100
AcDbArc
 50
0.0
 51
180.0
  0
ARC
  5
2E0
330
A
100
AcDbEntity
  8
1
  6
Continuous
 62
     3
100
AcDbCircle
 10
137.06708832512
 20
4156.998615853429
 30
0.0
 40
3.5
100
AcDbArc
 50
0.0
 51
180.0
  0
ARC
  5
2DF
330
A
100
AcDbEntity
  8
1
  6
Continuous
 62
     3
100
AcDbCircle
 10
137.06708832512
 20
3994.601384146572
 30
0.0
 40
3.5
100
AcDbArc
 50
0.0
 51
180.0
  0
ARC
  5
2DE
330
A
100
AcDbEntity
  8
1
  6
DOTTED
 62
     1
100
AcDbCircle
 10
143.66708832512
 20
3964.101384146572
 30
0.0
 40
13.0
100
AcDbArc
 50
-46.95092019976401
 51
-133.049079800236
  0
ARC
  5
2DD
330
A
100
AcDbEntity
  8
1
  6
DOTTED
 62
     1
100
AcDbCircle
 10
144.264049395974
 20
4042.8
 30
0.0
 40
7.5
100
AcDbArc
 50
-111.039469781317
 51
-68.96053021868301
  0
ARC
  5
2DC
330
A
100
AcDbEntity
  8
1
  6
Continuous
 62
     3
100
AcDbCircle
 10
144.264049395974
 20
4042.8
 30
0.0
 40
13.0
100
AcDbArc
 50
-147.421029607195
 51
-32.578970392804
  0
ARC
  5
2DB
330
A
100
AcDbEntity
  8
1
  6
DOTTED
 62
     1
100
AcDbCircle
 10
144.264049395974
 20
4042.8
 30
0.0
 40
13.0
100
AcDbArc
 50
-32.578970392804
 51
-147.421029607195
  0
ARC
  5
2DA
330
A
100
AcDbEntity
  8
1
  6
Continuous
 62
     3
100
AcDbCircle
 10
144.504209146012
 20
4121.498615853429
 30
0.0
 40
6.9
100
AcDbArc
 50
-139.294293168957
 51
-40.705706831043
  0
ARC
  5
2D9
330
A
100
AcDbEntity
  8
1
  6
DOTTED
 62
     1
100
AcDbCircle
 10
144.504209146012
 20
4121.498615853429
 30
0.0
 40
7.5
100
AcDbArc
 50
-143.130102354156
 51
-36.869897645844
  0
ARC
  5
2D8
330
A
100
AcDbEntity
  8
1
  6
DOTTED
 62
     1
100
AcDbCircle
 10
144.504209146012
 20
4121.498615853429
 30
0.0
 40
13.0
100
AcDbArc
 50
-20.252246742188
 51
-159.747753257812
  0
ARC
  5
2D7
330
A
100
AcDbEntity
  8
1
  6
DOTTED
 62
     1
100
AcDbCircle
 10
227.785983634357
 20
4121.498615853429
 30
0.0
 40
13.0
100
AcDbArc
 50
-20.252246742188
 51
-159.747753257812
  0
ARC
  5
2D6
330
A
100
AcDbEntity
  8
1
  6
DOTTED
 62
     1
100
AcDbCircle
 10
227.545823884319
 20
4042.8
 30
0.0
 40
13.0
100
AcDbArc
 50
-32.578970392804
 51
-147.421029607196
  0
ARC
  5
2D5
330
A
100
AcDbEntity
  8
1
  6
Continuous
 62
     3
100
AcDbCircle
 10
227.545823884319
 20
4042.8
 30
0.0
 40
13.0
100
AcDbArc
 50
-147.421029607196
 51
-32.578970392804
  0
ARC
  5
2D4
330
A
100
AcDbEntity
  8
1
  6
DOTTED
 62
     1
100
AcDbCircle
 10
227.545823884319
 20
4042.8
 30
0.0
 40
7.5
100
AcDbArc
 50
-111.039469781317
 51
-68.96053021868301
  0
ARC
  5
2D3
330
A
100
AcDbEntity
  8
1
  6
DOTTED
 62
     1
100
AcDbCircle
 10
226.948862813465
 20
3964.101384146572
 30
0.0
 40
13.0
100
AcDbArc
 50
-46.95092019976401
 51
-133.049079800236
  0
ARC
  5
2D2
330
A
100
AcDbEntity
  8
1
  6
Continuous
 62
     3
100
AcDbCircle
 10
220.348862813465
 20
3994.601384146572
 30
0.0
 40
3.5
100
AcDbArc
 50
0.0
 51
180.0
  0
ARC
  5
2D1
330
A
100
AcDbEntity
  8
1
  6
Continuous
 62
     3
100
AcDbCircle
 10
220.348862813465
 20
4156.998615853429
 30
0.0
 40
3.5
100
AcDbArc
 50
0.0
 51
180.0
  0
ARC
  5
2D0
330
A
100
AcDbEntity
  8
1
  6
Continuous
 62
     3
100
AcDbCircle
 10
220.348862813465
 20
4075.8
 30
0.0
 40
3.5
100
AcDbArc
 50
0.0
 51
180.0
  0
ARC
  5
2CF
330
A
100
AcDbEntity
  8
1
  6
Continuous
 62
     6
100
AcDbCircle
 10
144.264049395974
 20
4042.8
 30
0.0
 40
10.990258043181
100
AcDbArc
 50
-140.436893046167
 51
-39.563106953833
  0
ARC
  5
2CE
330
A
100
AcDbEntity
  8
1
  6
Continuous
 62
     3
100
AcDbCircle
 10
144.264049395974
 20
4042.8
 30
0.0
 40
11.7
100
AcDbArc
 50
-143.252431384717
 51
-36.747568615283
  0
ARC
  5
2CD
330
A
100
AcDbEntity
  8
1
  6
Continuous
 62
     6
100
AcDbCircle
 10
227.545823884319
 20
4042.8
 30
0.0
 40
10.990258043181
100
AcDbArc
 50
-140.436893046167
 51
-39.563106953833
  0
ARC
  5
2CC
330
A
100
AcDbEntity
  8
1
  6
Continuous
 62
     3
100
AcDbCircle
 10
227.545823884319
 20
4042.8
 30
0.0
 40
11.7
100
AcDbArc
 50
-143.252431384717
 51
-36.747568615283
  0
ARC
  5
2CB
330
A
100
AcDbEntity
  8
1
  6
Continuous
 62
     3
100
AcDbCircle
 10
144.264049395974
 20
4121.498615853429
 30
0.0
 40
13.0
100
AcDbArc
 50
-159.747753257812
 51
-20.252246742188
  0
ARC
  5
2CA
330
A
100
AcDbEntity
  8
1
  6
Continuous
 62
     3
100
AcDbCircle
 10
144.264049395974
 20
4121.498615853429
 30
0.0
 40
11.7
100
AcDbArc
 50
-157.380135051959
 51
-22.619864948041
  0
ARC
  5
2C9
330
A
100
AcDbEntity
  8
1
  6
Continuous
 62
     6
100
AcDbCircle
 10
144.264049395974
 20
4121.498615853429
 30
0.0
 40
10.990258043181
100
AcDbArc
 50
-155.829488688132
 51
-24.17051131186801
  0
ARC
  5
2C8
330
A
100
AcDbEntity
  8
1
  6
Continuous
 62
     6
100
AcDbCircle
 10
227.545823884319
 20
4121.498615853429
 30
0.0
 40
10.990258043181
100
AcDbArc
 50
-155.829488688132
 51
-24.17051131186801
  0
ARC
  5
2C7
330
A
100
AcDbEntity
  8
1
  6
Continuous
 62
     3
100
AcDbCircle
 10
227.545823884319
 20
4121.498615853429
 30
0.0
 40
11.7
100
AcDbArc
 50
-157.380135051959
 51
-22.619864948041
  0
ARC
  5
2C6
330
A
100
AcDbEntity
  8
1
  6
Continuous
 62
     3
100
AcDbCircle
 10
227.545823884319
 20
4121.498615853429
 30
0.0
 40
13.0
100
AcDbArc
 50
-159.747753257812
 51
-20.252246742188
  0
ARC
  5
2C5
330
A
100
AcDbEntity
  8
1
  6
DOTTED
 62
     1
100
AcDbCircle
 10
227.785983634357
 20
4121.498615853429
 30
0.0
 40
7.5
100
AcDbArc
 50
-143.130102354156
 51
-36.869897645844
  0
ARC
  5
2C4
330
A
100
AcDbEntity
  8
1
  6
Continuous
 62
     3
100
AcDbCircle
 10
227.785983634357
 20
4121.498615853429
 30
0.0
 40
6.9
100
AcDbArc
 50
-139.294293168957
 51
-40.705706831043
  0
ARC
  5
2C3
330
A
100
AcDbEntity
  8
1
  6
Continuous
 62
     3
100
AcDbCircle
 10
143.66708832512
 20
3964.101384146572
 30
0.0
 40
13.0
100
AcDbArc
 50
-133.049079800236
 51
-46.95092019976401
  0
ARC
  5
2C2
330
A
100
AcDbEntity
  8
1
  6
Continuous
 62
     3
100
AcDbCircle
 10
143.66708832512
 20
3964.101384146572
 30
0.0
 40
11.7
100
AcDbArc
 50
-125.711556376692
 51
-54.28844362330799
  0
ARC
  5
2C1
330
A
100
AcDbEntity
  8
1
  6
Continuous
 62
     6
100
AcDbCircle
 10
143.66708832512
 20
3964.101384146572
 30
0.0
 40
10.990258043181
100
AcDbArc
 50
-120.185519247689
 51
-59.81448075231099
  0
ARC
  5
2C0
330
A
100
AcDbEntity
  8
1
  6
Continuous
 62
     6
100
AcDbCircle
 10
226.948862813465
 20
3964.101384146572
 30
0.0
 40
10.990258043181
100
AcDbArc
 50
-120.185519247689
 51
-59.81448075231099
  0
ARC
  5
2BF
330
A
100
AcDbEntity
  8
1
  6
Continuous
 62
     3
100
AcDbCircle
 10
226.948862813465
 20
3964.101384146572
 30
0.0
 40
11.7
100
AcDbArc
 50
-125.711556376692
 51
-54.28844362330799
  0
ARC
  5
2BE
330
A
100
AcDbEntity
  8
1
  6
Continuous
 62
     3
100
AcDbCircle
 10
226.948862813465
 20
3964.101384146572
 30
0.0
 40
13.0
100
AcDbArc
 50
-133.049079800236
 51
-46.95092019976401
  0
LINE
  5
2BD
330
A
100
AcDbEntity
  8
1
  6
Continuous
 62
     3
100
AcDbLine
 10
-1.834337832209
 20
4035.8
 30
0.0
 11
-1.834337832209
 21
4075.8
 31
0.0
  0
LINE
  5
2BC
330
A
100
AcDbEntity
  8
1
  6
Continuous
 62
     3
100
AcDbLine
 10
13.965662167791
 20
4075.8
 30
0.0
 11
13.965662167791
 21
4035.8
 31
0.0
  0
LINE
  5
2BB
330
A
100
AcDbEntity
  8
1
  6
DOT_CENTER
 62
     1
100
AcDbLine
 10
6.065662167790999
 20
4091.381223124579
 30
0.0
 11
6.065662167790999
 21
4024.91439837951
 31
0.0
  0
LINE
  5
2BA
330
A
100
AcDbEntity
  8
1
  6
DOT_CENTER
 62
     1
100
AcDbLine
 10
-9.506024632918
 20
4075.8
 30
0.0
 11
21.771669935035
 21
4075.8
 31
0.0
  0
LINE
  5
2B9
330
A
100
AcDbEntity
  8
1
  6
Continuous
 62
     1
100
AcDbLine
 10
-1.334337832209
 20
4035.8
 30
0.0
 11
-1.334337832209
 21
4075.8
 31
0.0
  0
LINE
  5
2B8
330
A
100
AcDbEntity
  8
1
  6
Continuous
 62
     1
100
AcDbLine
 10
13.465662167791
 20
4075.8
 30
0.0
 11
13.465662167791
 21
4035.8
 31
0.0
  0
LINE
  5
2B7
330
A
100
AcDbEntity
  8
1
  6
Continuous
 62
     3
100
AcDbLine
 10
5.565662167790999
 20
4067.8
 30
0.0
 11
6.565662167790999
 21
4067.8
 31
0.0
  0
LINE
  5
2B6
330
A
100
AcDbEntity
  8
1
  6
Continuous
 62
     3
100
AcDbLine
 10
6.565662167790999
 20
4067.8
 30
0.0
 11
6.565662167790999
 21
4066.799999999999
 31
0.0
  0
LINE
  5
2B5
330
A
100
AcDbEntity
  8
1
  6
Continuous
 62
     3
100
AcDbLine
 10
6.565662167790999
 20
4063.8
 30
0.0
 11
5.565662167790999
 21
4063.8
 31
0.0
  0
LINE
  5
2B4
330
A
100
AcDbEntity
  8
1
  6
Continuous
 62
     3
100
AcDbLine
 10
5.565662167790999
 20
4063.8
 30
0.0
 11
5.565662167790999
 21
4064.8
 31
0.0
  0
LINE
  5
2B3
330
A
100
AcDbEntity
  8
1
  6
Continuous
 62
     3
100
AcDbLine
 10
4.065662167791
 20
4066.3
 30
0.0
 11
5.065662167791
 21
4066.3
 31
0.0
  0
LINE
  5
2B2
330
A
100
AcDbEntity
  8
1
  6
Continuous
 62
     3
100
AcDbLine
 10
8.065662167790998
 20
4066.3
 30
0.0
 11
8.065662167790998
 21
4065.3
 31
0.0
  0
LINE
  5
2B1
330
A
100
AcDbEntity
  8
1
  6
Continuous
 62
     3
100
AcDbLine
 10
8.065662167790998
 20
4065.3
 30
0.0
 11
7.065662167790999
 21
4065.3
 31
0.0
  0
LINE
  5
2B0
330
A
100
AcDbEntity
  8
1
  6
Continuous
 62
     3
100
AcDbLine
 10
4.065662167791
 20
4065.3
 30
0.0
 11
4.065662167791
 21
4066.3
 31
0.0
  0
LINE
  5
2AF
330
A
100
AcDbEntity
  8
1
  6
Continuous
 62
     3
100
AcDbLine
 10
5.565662167790999
 20
4066.799999999999
 30
0.0
 11
5.565662167790999
 21
4067.8
 31
0.0
  0
LINE
  5
2AE
330
A
100
AcDbEntity
  8
1
  6
Continuous
 62
     3
100
AcDbLine
 10
7.065662167790999
 20
4066.3
 30
0.0
 11
8.065662167790998
 21
4066.3
 31
0.0
  0
LINE
  5
2AD
330
A
100
AcDbEntity
  8
1
  6
Continuous
 62
     3
100
AcDbLine
 10
5.065662167791
 20
4065.3
 30
0.0
 11
4.065662167791
 21
4065.3
 31
0.0
  0
LINE
  5
2AC
330
A
100
AcDbEntity
  8
1
  6
Continuous
 62
     3
100
AcDbLine
 10
6.565662167790999
 20
4064.8
 30
0.0
 11
6.565662167790999
 21
4063.8
 31
0.0
  0
LINE
  5
2AB
330
A
100
AcDbEntity
  8
1
  6
Continuous
 62
     3
100
AcDbLine
 10
9.065662167790998
 20
4037.3
 30
0.0
 11
9.065662167790998
 21
4035.8
 31
0.0
  0
LINE
  5
2AA
330
A
100
AcDbEntity
  8
1
  6
Continuous
 62
     3
100
AcDbLine
 10
3.065662167790999
 20
4035.8
 30
0.0
 11
3.065662167790999
 21
4037.3
 31
0.0
  0
LINE
  5
2A9
330
A
100
AcDbEntity
  8
1
  6
Continuous
 62
     3
100
AcDbLine
 10
6.565662167790999
 20
4050.3
 30
0.0
 11
6.565662167790999
 21
4048.799999999999
 31
0.0
  0
LINE
  5
2A8
330
A
100
AcDbEntity
  8
1
  6
Continuous
 62
     3
100
AcDbLine
 10
5.065662167791
 20
4050.8
 30
0.0
 11
3.565662167790999
 21
4050.8
 31
0.0
  0
LINE
  5
2A7
330
A
100
AcDbEntity
  8
1
  6
Continuous
 62
     3
100
AcDbLine
 10
7.065662167790999
 20
4051.8
 30
0.0
 11
8.565662167790998
 21
4051.8
 31
0.0
  0
LINE
  5
2A6
330
A
100
AcDbEntity
  8
1
  6
Continuous
 62
     3
100
AcDbLine
 10
5.565662167790999
 20
4052.3
 30
0.0
 11
5.565662167790999
 21
4053.8
 31
0.0
  0
LINE
  5
2A5
330
A
100
AcDbEntity
  8
1
  6
Continuous
 62
     3
100
AcDbLine
 10
3.565662167790999
 20
4050.8
 30
0.0
 11
3.565662167790999
 21
4051.8
 31
0.0
  0
LINE
  5
2A4
330
A
100
AcDbEntity
  8
1
  6
Continuous
 62
     3
100
AcDbLine
 10
8.565662167790998
 20
4050.8
 30
0.0
 11
7.065662167790999
 21
4050.8
 31
0.0
  0
LINE
  5
2A3
330
A
100
AcDbEntity
  8
1
  6
Continuous
 62
     3
100
AcDbLine
 10
8.565662167790998
 20
4051.8
 30
0.0
 11
8.565662167790998
 21
4050.8
 31
0.0
  0
LINE
  5
2A2
330
A
100
AcDbEntity
  8
1
  6
Continuous
 62
     3
100
AcDbLine
 10
3.565662167790999
 20
4051.8
 30
0.0
 11
5.065662167791
 21
4051.8
 31
0.0
  0
LINE
  5
2A1
330
A
100
AcDbEntity
  8
1
  6
Continuous
 62
     3
100
AcDbLine
 10
5.565662167790999
 20
4048.799999999999
 30
0.0
 11
5.565662167790999
 21
4050.3
 31
0.0
  0
LINE
  5
2A0
330
A
100
AcDbEntity
  8
1
  6
Continuous
 62
     3
100
AcDbLine
 10
6.565662167790999
 20
4048.799999999999
 30
0.0
 11
5.565662167790999
 21
4048.799999999999
 31
0.0
  0
LINE
  5
29F
330
A
100
AcDbEntity
  8
1
  6
Continuous
 62
     3
100
AcDbLine
 10
6.565662167790999
 20
4053.8
 30
0.0
 11
6.565662167790999
 21
4052.3
 31
0.0
  0
LINE
  5
29E
330
A
100
AcDbEntity
  8
1
  6
Continuous
 62
     3
100
AcDbLine
 10
5.565662167790999
 20
4053.8
 30
0.0
 11
6.565662167790999
 21
4053.8
 31
0.0
  0
LINE
  5
29D
330
A
100
AcDbEntity
  8
1
  6
DOT_CENTER
 62
     1
100
AcDbLine
 10
-3.36072181614
 20
4051.3
 30
0.0
 11
15.878095649192
 21
4051.3
 31
0.0
  0
LINE
  5
29C
330
A
100
AcDbEntity
  8
1
  6
Continuous
 62
     6
100
AcDbLine
 10
5.065662167791
 20
4054.8
 30
0.0
 11
6.065662167790999
 21
4056.532050807568
 31
0.0
  0
LINE
  5
29B
330
A
100
AcDbEntity
  8
1
  6
Continuous
 62
     6
100
AcDbLine
 10
6.065662167790999
 20
4056.532050807568
 30
0.0
 11
7.065662167790999
 21
4054.8
 31
0.0
  0
LINE
  5
29A
330
A
100
AcDbEntity
  8
1
  6
Continuous
 62
     6
100
AcDbLine
 10
7.065662167790999
 20
4054.8
 30
0.0
 11
5.065662167791
 21
4054.8
 31
0.0
  0
LINE
  5
299
330
A
100
AcDbEntity
  8
1
  6
Continuous
 62
     1
100
AcDbLine
 10
1.15149349091
 20
4041.8
 30
0.0
 11
-0.5805573166590001
 21
4042.8
 31
0.0
  0
LINE
  5
298
330
A
100
AcDbEntity
  8
1
  6
Continuous
 62
     1
100
AcDbLine
 10
-0.5805573166590001
 20
4042.8
 30
0.0
 11
1.15149349091
 21
4043.8
 31
0.0
  0
LINE
  5
297
330
A
100
AcDbEntity
  8
1
  6
Continuous
 62
     1
100
AcDbLine
 10
1.15149349091
 20
4043.8
 30
0.0
 11
1.15149349091
 21
4041.8
 31
0.0
  0
LINE
  5
296
330
A
100
AcDbEntity
  8
1
  6
Continuous
 62
     1
100
AcDbLine
 10
10.979830844672
 20
4041.8
 30
0.0
 11
10.979830844672
 21
4043.8
 31
0.0
  0
LINE
  5
295
330
A
100
AcDbEntity
  8
1
  6
Continuous
 62
     1
100
AcDbLine
 10
10.979830844672
 20
4043.8
 30
0.0
 11
12.711881652241
 21
4042.8
 31
0.0
  0
LINE
  5
294
330
A
100
AcDbEntity
  8
1
  6
Continuous
 62
     1
100
AcDbLine
 10
12.711881652241
 20
4042.8
 30
0.0
 11
10.979830844672
 21
4041.8
 31
0.0
  0
LINE
  5
293
330
A
100
AcDbEntity
  8
1
  6
Continuous
 62
     6
100
AcDbLine
 10
11.565662167791
 20
4065.8
 30
0.0
 11
10.875662167791
 21
4064.449999999999
 31
0.0
  0
LINE
  5
292
330
A
100
AcDbEntity
  8
1
  6
Continuous
 62
     6
100
AcDbLine
 10
11.565662167791
 20
4065.8
 30
0.0
 11
11.915662167791
 21
4064.379999999999
 31
0.0
  0
LINE
  5
291
330
A
100
AcDbEntity
  8
1
  6
Continuous
 62
     6
100
AcDbLine
 10
0.215662167791
 20
4064.379999999999
 30
0.0
 11
0.565662167791
 21
4065.8
 31
0.0
  0
LINE
  5
290
330
A
100
AcDbEntity
  8
1
  6
Continuous
 62
     6
100
AcDbLine
 10
1.255662167791
 20
4064.449999999999
 30
0.0
 11
0.565662167791
 21
4065.8
 31
0.0
  0
LINE
  5
28F
330
A
100
AcDbEntity
  8
1
  6
DOT_CENTER
 62
     1
100
AcDbLine
 10
-0.466260906603
 20
4065.8
 30
0.0
 11
12.719156731374
 21
4065.8
 31
0.0
  0
LINE
  5
28E
330
A
100
AcDbEntity
  8
1
  6
Continuous
 62
     6
100
AcDbLine
 10
5.065662167791
 20
4059.632050807569
 30
0.0
 11
7.065662167790999
 21
4059.632050807569
 31
0.0
  0
LINE
  5
28D
330
A
100
AcDbEntity
  8
1
  6
Continuous
 62
     6
100
AcDbLine
 10
7.065662167790999
 20
4059.632050807569
 30
0.0
 11
6.065662167790999
 21
4057.9
 31
0.0
  0
LINE
  5
28C
330
A
100
AcDbEntity
  8
1
  6
Continuous
 62
     6
100
AcDbLine
 10
6.065662167790999
 20
4057.9
 30
0.0
 11
5.065662167791
 21
4059.632050807569
 31
0.0
  0
LINE
  5
28B
330
A
100
AcDbEntity
  8
1
  6
DOT_CENTER
 62
     1
100
AcDbLine
 10
144.264049395974
 20
4059.292576550349
 30
0.0
 11
144.264049395974
 21
4026.315316124811
 31
0.0
  0
LINE
  5
28A
330
A
100
AcDbEntity
  8
1
  6
DOT_CENTER
 62
     1
100
AcDbLine
 10
127.660299458166
 20
4042.8
 30
0.0
 11
155.254307439155
 21
4042.8
 31
0.0
  0
LINE
  5
289
330
A
100
AcDbEntity
  8
1
  6
Continuous
 62
     3
100
AcDbLine
 10
13.965662167791
 20
4035.8
 30
0.0
 11
9.065662167790998
 21
4035.8
 31
0.0
  0
LINE
  5
288
330
A
100
AcDbEntity
  8
1
  6
Continuous
 62
     3
100
AcDbLine
 10
119.66708832512
 20
4083.056287771865
 30
0.0
 11
119.66708832512
 21
4075.8
 31
0.0
  0
LINE
  5
287
330
A
100
AcDbEntity
  8
1
  6
Continuous
 62
     3
100
AcDbLine
 10
115.66708832512
 20
4035.8
 30
0.0
 11
115.66708832512
 21
4083.2
 31
0.0
  0
LINE
  5
286
330
A
100
AcDbEntity
  8
1
  6
Continuous
 62
     3
100
AcDbLine
 10
132.66708832512
 20
4083.056287771865
 30
0.0
 11
132.66708832512
 21
4080.3
 31
0.0
  0
LINE
  5
285
330
A
100
AcDbEntity
  8
1
  6
Continuous
 62
     3
100
AcDbLine
 10
128.66708832512
 20
4075.8
 30
0.0
 11
128.66708832512
 21
4080.3
 31
0.0
  0
LINE
  5
284
330
A
100
AcDbEntity
  8
1
  6
Continuous
 62
     3
100
AcDbLine
 10
145.46708832512
 20
4083.056287771865
 30
0.0
 11
145.46708832512
 21
4080.3
 31
0.0
  0
LINE
  5
283
330
A
100
AcDbEntity
  8
1
  6
Continuous
 62
     3
100
AcDbLine
 10
141.46708832512
 20
4075.8
 30
0.0
 11
141.46708832512
 21
4080.3
 31
0.0
  0
LINE
  5
282
330
A
100
AcDbEntity
  8
1
  6
Continuous
 62
     3
100
AcDbLine
 10
116.16708832512
 20
4083.699999999999
 30
0.0
 11
157.46708832512
 21
4083.699999999999
 31
0.0
  0
LINE
  5
281
330
A
100
AcDbEntity
  8
1
  6
Continuous
 62
     3
100
AcDbLine
 10
158.46708832512
 20
4082.699999999999
 30
0.0
 11
158.46708832512
 21
4073.8
 31
0.0
  0
LINE
  5
280
330
A
100
AcDbEntity
  8
1
  6
Continuous
 62
     3
100
AcDbLine
 10
154.46708832512
 20
4075.8
 30
0.0
 11
154.46708832512
 21
4080.3
 31
0.0
  0
LINE
  5
27F
330
A
100
AcDbEntity
  8
1
  6
Continuous
 62
     3
100
AcDbLine
 10
122.56708832512
 20
4080.156287771866
 30
0.0
 11
119.66708832512
 21
4083.056287771865
 31
0.0
  0
LINE
  5
27E
330
A
100
AcDbEntity
  8
1
  6
Continuous
 62
     3
100
AcDbLine
 10
128.66708832512
 20
4083.056287771865
 30
0.0
 11
129.16708832512
 21
4083.556287771865
 31
0.0
  0
LINE
  5
27D
330
A
100
AcDbEntity
  8
1
  6
Continuous
 62
     3
100
AcDbLine
 10
132.66708832512
 20
4083.056287771865
 30
0.0
 11
132.16708832512
 21
4083.556287771865
 31
0.0
  0
LINE
  5
27C
330
A
100
AcDbEntity
  8
1
  6
Continuous
 62
     3
100
AcDbLine
 10
141.46708832512
 20
4083.056287771865
 30
0.0
 11
141.96708832512
 21
4083.556287771865
 31
0.0
  0
LINE
  5
27B
330
A
100
AcDbEntity
  8
1
  6
Continuous
 62
     3
100
AcDbLine
 10
145.46708832512
 20
4083.056287771865
 30
0.0
 11
144.96708832512
 21
4083.556287771865
 31
0.0
  0
LINE
  5
27A
330
A
100
AcDbEntity
  8
1
  6
Continuous
 62
     3
100
AcDbLine
 10
154.46708832512
 20
4083.056287771865
 30
0.0
 11
154.96708832512
 21
4083.556287771865
 31
0.0
  0
LINE
  5
279
330
A
100
AcDbEntity
  8
1
  6
Continuous
 62
     3
100
AcDbLine
 10
119.16708832512
 20
4075.8
 30
0.0
 11
122.56708832512
 21
4075.8
 31
0.0
  0
LINE
  5
278
330
A
100
AcDbEntity
  8
1
  6
Continuous
 62
     3
100
AcDbLine
 10
132.16708832512
 20
4075.8
 30
0.0
 11
133.56708832512
 21
4075.8
 31
0.0
  0
LINE
  5
277
330
A
100
AcDbEntity
  8
1
  6
Continuous
 62
     3
100
AcDbLine
 10
140.56708832512
 20
4075.8
 30
0.0
 11
141.96708832512
 21
4075.8
 31
0.0
  0
LINE
  5
276
330
A
100
AcDbEntity
  8
1
  6
Continuous
 62
     3
100
AcDbLine
 10
144.96708832512
 20
4075.8
 30
0.0
 11
154.96708832512
 21
4075.8
 31
0.0
  0
LINE
  5
275
330
A
100
AcDbEntity
  8
1
  6
Continuous
 62
     1
100
AcDbLine
 10
119.16708832512
 20
4083.556287771865
 30
0.0
 11
119.16708832512
 21
4075.8
 31
0.0
  0
LINE
  5
274
330
A
100
AcDbEntity
  8
1
  6
Continuous
 62
     1
100
AcDbLine
 10
129.16708832512
 20
4083.556287771865
 30
0.0
 11
129.16708832512
 21
4075.8
 31
0.0
  0
LINE
  5
273
330
A
100
AcDbEntity
  8
1
  6
Continuous
 62
     1
100
AcDbLine
 10
132.16708832512
 20
4083.556287771865
 30
0.0
 11
132.16708832512
 21
4075.8
 31
0.0
  0
LINE
  5
272
330
A
100
AcDbEntity
  8
1
  6
Continuous
 62
     1
100
AcDbLine
 10
141.96708832512
 20
4083.556287771865
 30
0.0
 11
141.96708832512
 21
4075.8
 31
0.0
  0
LINE
  5
271
330
A
100
AcDbEntity
  8
1
  6
Continuous
 62
     1
100
AcDbLine
 10
144.96708832512
 20
4083.556287771865
 30
0.0
 11
144.96708832512
 21
4075.8
 31
0.0
  0
LINE
  5
270
330
A
100
AcDbEntity
  8
1
  6
Continuous
 62
     1
100
AcDbLine
 10
154.96708832512
 20
4083.556287771865
 30
0.0
 11
154.96708832512
 21
4075.8
 31
0.0
  0
LINE
  5
26F
330
A
100
AcDbEntity
  8
1
  6
Continuous
 62
     3
100
AcDbLine
 10
115.66708832512
 20
4083.2
 30
0.0
 11
116.16708832512
 21
4083.699999999999
 31
0.0
  0
LINE
  5
26E
330
A
100
AcDbEntity
  8
1
  6
Continuous
 62
     3
100
AcDbLine
 10
158.46708832512
 20
4082.699999999999
 30
0.0
 11
157.46708832512
 21
4083.699999999999
 31
0.0
  0
LINE
  5
26D
330
A
100
AcDbEntity
  8
1
  6
Continuous
 62
     3
100
AcDbLine
 10
158.46708832512
 20
4073.8
 30
0.0
 11
157.46708832512
 21
4073.8
 31
0.0
  0
LINE
  5
26C
330
A
100
AcDbEntity
  8
1
  6
Continuous
 62
     3
100
AcDbLine
 10
119.16708832512
 20
4073.8
 30
0.0
 11
119.16708832512
 21
4035.8
 31
0.0
  0
LINE
  5
26B
330
A
100
AcDbEntity
  8
1
  6
Continuous
 62
     3
100
AcDbLine
 10
158.46708832512
 20
4035.8
 30
0.0
 11
153.639016062581
 21
4035.8
 31
0.0
  0
LINE
  5
26A
330
A
100
AcDbEntity
  8
1
  6
Continuous
 62
     3
100
AcDbLine
 10
145.46708832512
 20
4080.3
 30
0.0
 11
154.46708832512
 21
4080.3
 31
0.0
  0
LINE
  5
269
330
A
100
AcDbEntity
  8
1
  6
Continuous
 62
     3
100
AcDbLine
 10
145.46708832512
 20
4080.3
 30
0.0
 11
145.46708832512
 21
4075.8
 31
0.0
  0
LINE
  5
268
330
A
100
AcDbEntity
  8
1
  6
Continuous
 62
     3
100
AcDbLine
 10
154.46708832512
 20
4080.3
 30
0.0
 11
154.46708832512
 21
4083.056287771865
 31
0.0
  0
LINE
  5
267
330
A
100
AcDbEntity
  8
1
  6
Continuous
 62
     3
100
AcDbLine
 10
132.66708832512
 20
4080.3
 30
0.0
 11
141.46708832512
 21
4080.3
 31
0.0
  0
LINE
  5
266
330
A
100
AcDbEntity
  8
1
  6
Continuous
 62
     3
100
AcDbLine
 10
132.66708832512
 20
4080.3
 30
0.0
 11
132.66708832512
 21
4075.8
 31
0.0
  0
LINE
  5
265
330
A
100
AcDbEntity
  8
1
  6
Continuous
 62
     3
100
AcDbLine
 10
141.46708832512
 20
4080.3
 30
0.0
 11
141.46708832512
 21
4083.056287771865
 31
0.0
  0
LINE
  5
264
330
A
100
AcDbEntity
  8
1
  6
Continuous
 62
     3
100
AcDbLine
 10
128.66708832512
 20
4080.156287771866
 30
0.0
 11
122.56708832512
 21
4080.156287771866
 31
0.0
  0
LINE
  5
263
330
A
100
AcDbEntity
  8
1
  6
Continuous
 62
     3
100
AcDbLine
 10
128.66708832512
 20
4080.3
 30
0.0
 11
128.66708832512
 21
4083.056287771865
 31
0.0
  0
LINE
  5
262
330
A
100
AcDbEntity
  8
1
  6
Continuous
 62
     3
100
AcDbLine
 10
122.56708832512
 20
4080.3
 30
0.0
 11
122.56708832512
 21
4075.8
 31
0.0
  0
LINE
  5
261
330
A
100
AcDbEntity
  8
1
  6
Continuous
 62
     3
100
AcDbLine
 10
122.56708832512
 20
4075.8
 30
0.0
 11
129.16708832512
 21
4075.8
 31
0.0
  0
LINE
  5
260
330
A
100
AcDbEntity
  8
1
  6
Continuous
 62
     3
100
AcDbLine
 10
144.96708832512
 20
4083.556287771865
 30
0.0
 11
154.96708832512
 21
4083.556287771865
 31
0.0
  0
LINE
  5
25F
330
A
100
AcDbEntity
  8
1
  6
Continuous
 62
     3
100
AcDbLine
 10
132.16708832512
 20
4083.556287771865
 30
0.0
 11
141.96708832512
 21
4083.556287771865
 31
0.0
  0
LINE
  5
25E
330
A
100
AcDbEntity
  8
1
  6
Continuous
 62
     3
100
AcDbLine
 10
129.16708832512
 20
4083.556287771865
 30
0.0
 11
119.16708832512
 21
4083.556287771865
 31
0.0
  0
LINE
  5
25D
330
A
100
AcDbEntity
  8
1
  6
Continuous
 62
     3
100
AcDbLine
 10
119.66708832512
 20
4083.056287771865
 30
0.0
 11
119.16708832512
 21
4083.556287771865
 31
0.0
  0
LINE
  5
25C
330
A
100
AcDbEntity
  8
1
  6
Continuous
 62
     6
100
AcDbLine
 10
157.46708832512
 20
4083.699999999999
 30
0.0
 11
157.46708832512
 21
4073.8
 31
0.0
  0
LINE
  5
25B
330
A
100
AcDbEntity
  8
1
  6
Continuous
 62
     3
100
AcDbLine
 10
157.46708832512
 20
4073.8
 30
0.0
 11
119.16708832512
 21
4073.8
 31
0.0
  0
LINE
  5
25A
330
A
100
AcDbEntity
  8
1
  6
Continuous
 62
     1
100
AcDbLine
 10
116.16708832512
 20
4083.699999999999
 30
0.0
 11
116.16708832512
 21
4035.8
 31
0.0
  0
LINE
  5
259
330
A
100
AcDbEntity
  8
1
  6
Continuous
 62
     3
100
AcDbLine
 10
158.46708832512
 20
4035.8
 30
0.0
 11
158.46708832512
 21
4073.8
 31
0.0
  0
LINE
  5
258
330
A
100
AcDbEntity
  8
1
  6
DOT_CENTER
 62
     1
100
AcDbLine
 10
120.56815765313
 20
4039.8
 30
0.0
 11
131.56167830373
 21
4039.8
 31
0.0
  0
LINE
  5
257
330
A
100
AcDbEntity
  8
1
  6
DOT_CENTER
 62
     1
100
AcDbLine
 10
126.16708832512
 20
4044.842518814739
 30
0.0
 11
126.16708832512
 21
4034.77061067378
 31
0.0
  0
LINE
  5
256
330
A
100
AcDbEntity
  8
1
  6
Continuous
 62
     6
100
AcDbLine
 10
66.56054292467499
 20
4057.9
 30
0.0
 11
65.56054292467499
 21
4059.632050807569
 31
0.0
  0
LINE
  5
255
330
A
100
AcDbEntity
  8
1
  6
Continuous
 62
     6
100
AcDbLine
 10
67.56054292467499
 20
4059.632050807569
 30
0.0
 11
66.56054292467499
 21
4057.9
 31
0.0
  0
LINE
  5
254
330
A
100
AcDbEntity
  8
1
  6
Continuous
 62
     6
100
AcDbLine
 10
65.56054292467499
 20
4059.632050807569
 30
0.0
 11
67.56054292467499
 21
4059.632050807569
 31
0.0
  0
LINE
  5
253
330
A
100
AcDbEntity
  8
1
  6
DOT_CENTER
 62
     1
100
AcDbLine
 10
60.028619850282
 20
4065.8
 30
0.0
 11
73.214037488258
 21
4065.8
 31
0.0
  0
LINE
  5
252
330
A
100
AcDbEntity
  8
1
  6
Continuous
 62
     6
100
AcDbLine
 10
61.750542924675
 20
4064.449999999999
 30
0.0
 11
61.060542924675
 21
4065.8
 31
0.0
  0
LINE
  5
251
330
A
100
AcDbEntity
  8
1
  6
Continuous
 62
     6
100
AcDbLine
 10
60.710542924675
 20
4064.379999999999
 30
0.0
 11
61.060542924675
 21
4065.8
 31
0.0
  0
LINE
  5
250
330
A
100
AcDbEntity
  8
1
  6
Continuous
 62
     6
100
AcDbLine
 10
72.06054292467499
 20
4065.8
 30
0.0
 11
72.410542924675
 21
4064.379999999999
 31
0.0
  0
LINE
  5
24F
330
A
100
AcDbEntity
  8
1
  6
Continuous
 62
     6
100
AcDbLine
 10
72.06054292467499
 20
4065.8
 30
0.0
 11
71.370542924675
 21
4064.449999999999
 31
0.0
  0
LINE
  5
24E
330
A
100
AcDbEntity
  8
1
  6
Continuous
 62
     1
100
AcDbLine
 10
73.206762409126
 20
4042.8
 30
0.0
 11
71.474711601557
 21
4041.8
 31
0.0
  0
LINE
  5
24D
330
A
100
AcDbEntity
  8
1
  6
Continuous
 62
     1
100
AcDbLine
 10
71.474711601557
 20
4043.8
 30
0.0
 11
73.206762409126
 21
4042.8
 31
0.0
  0
LINE
  5
24C
330
A
100
AcDbEntity
  8
1
  6
Continuous
 62
     1
100
AcDbLine
 10
71.474711601557
 20
4041.8
 30
0.0
 11
71.474711601557
 21
4043.8
 31
0.0
  0
LINE
  5
24B
330
A
100
AcDbEntity
  8
1
  6
Continuous
 62
     1
100
AcDbLine
 10
61.646374247794
 20
4043.8
 30
0.0
 11
61.646374247794
 21
4041.8
 31
0.0
  0
LINE
  5
24A
330
A
100
AcDbEntity
  8
1
  6
Continuous
 62
     1
100
AcDbLine
 10
59.91432344022499
 20
4042.8
 30
0.0
 11
61.646374247794
 21
4043.8
 31
0.0
  0
LINE
  5
249
330
A
100
AcDbEntity
  8
1
  6
Continuous
 62
     1
100
AcDbLine
 10
61.646374247794
 20
4041.8
 30
0.0
 11
59.91432344022499
 21
4042.8
 31
0.0
  0
LINE
  5
248
330
A
100
AcDbEntity
  8
1
  6
Continuous
 62
     6
100
AcDbLine
 10
63.060542924675
 20
4052.3
 30
0.0
 11
63.060542924675
 21
4050.3
 31
0.0
  0
LINE
  5
247
330
A
100
AcDbEntity
  8
1
  6
Continuous
 62
     6
100
AcDbLine
 10
61.328492117106
 20
4051.3
 30
0.0
 11
63.060542924675
 21
4052.3
 31
0.0
  0
LINE
  5
246
330
A
100
AcDbEntity
  8
1
  6
Continuous
 62
     6
100
AcDbLine
 10
63.060542924675
 20
4050.3
 30
0.0
 11
61.328492117106
 21
4051.3
 31
0.0
  0
LINE
  5
245
330
A
100
AcDbEntity
  8
1
  6
DOT_CENTER
 62
     1
100
AcDbLine
 10
57.134158940744
 20
4051.3
 30
0.0
 11
76.372976406077
 21
4051.3
 31
0.0
  0
LINE
  5
244
330
A
100
AcDbEntity
  8
1
  6
Continuous
 62
     3
100
AcDbLine
 10
66.06054292467499
 20
4053.8
 30
0.0
 11
67.06054292467499
 21
4053.8
 31
0.0
  0
LINE
  5
243
330
A
100
AcDbEntity
  8
1
  6
Continuous
 62
     3
100
AcDbLine
 10
67.06054292467499
 20
4053.8
 30
0.0
 11
67.06054292467499
 21
4052.3
 31
0.0
  0
LINE
  5
242
330
A
100
AcDbEntity
  8
1
  6
Continuous
 62
     3
100
AcDbLine
 10
67.06054292467499
 20
4048.799999999999
 30
0.0
 11
66.06054292467499
 21
4048.799999999999
 31
0.0
  0
LINE
  5
241
330
A
100
AcDbEntity
  8
1
  6
Continuous
 62
     3
100
AcDbLine
 10
66.06054292467499
 20
4048.799999999999
 30
0.0
 11
66.06054292467499
 21
4050.3
 31
0.0
  0
LINE
  5
240
330
A
100
AcDbEntity
  8
1
  6
Continuous
 62
     3
100
AcDbLine
 10
64.06054292467499
 20
4051.8
 30
0.0
 11
65.56054292467499
 21
4051.8
 31
0.0
  0
LINE
  5
23F
330
A
100
AcDbEntity
  8
1
  6
Continuous
 62
     3
100
AcDbLine
 10
69.06054292467499
 20
4051.8
 30
0.0
 11
69.06054292467499
 21
4050.8
 31
0.0
  0
LINE
  5
23E
330
A
100
AcDbEntity
  8
1
  6
Continuous
 62
     3
100
AcDbLine
 10
69.06054292467499
 20
4050.8
 30
0.0
 11
67.56054292467499
 21
4050.8
 31
0.0
  0
LINE
  5
23D
330
A
100
AcDbEntity
  8
1
  6
Continuous
 62
     3
100
AcDbLine
 10
64.06054292467499
 20
4050.8
 30
0.0
 11
64.06054292467499
 21
4051.8
 31
0.0
  0
LINE
  5
23C
330
A
100
AcDbEntity
  8
1
  6
Continuous
 62
     3
100
AcDbLine
 10
66.06054292467499
 20
4052.3
 30
0.0
 11
66.06054292467499
 21
4053.8
 31
0.0
  0
LINE
  5
23B
330
A
100
AcDbEntity
  8
1
  6
Continuous
 62
     3
100
AcDbLine
 10
67.56054292467499
 20
4051.8
 30
0.0
 11
69.06054292467499
 21
4051.8
 31
0.0
  0
LINE
  5
23A
330
A
100
AcDbEntity
  8
1
  6
Continuous
 62
     3
100
AcDbLine
 10
65.56054292467499
 20
4050.8
 30
0.0
 11
64.06054292467499
 21
4050.8
 31
0.0
  0
LINE
  5
239
330
A
100
AcDbEntity
  8
1
  6
Continuous
 62
     3
100
AcDbLine
 10
67.06054292467499
 20
4050.3
 30
0.0
 11
67.06054292467499
 21
4048.799999999999
 31
0.0
  0
LINE
  5
238
330
A
100
AcDbEntity
  8
1
  6
Continuous
 62
     3
100
AcDbLine
 10
63.560542924675
 20
4035.8
 30
0.0
 11
58.660542924675
 21
4035.8
 31
0.0
  0
LINE
  5
237
330
A
100
AcDbEntity
  8
1
  6
Continuous
 62
     3
100
AcDbLine
 10
63.560542924675
 20
4035.8
 30
0.0
 11
63.560542924675
 21
4037.3
 31
0.0
  0
LINE
  5
236
330
A
100
AcDbEntity
  8
1
  6
Continuous
 62
     3
100
AcDbLine
 10
69.56054292467499
 20
4037.3
 30
0.0
 11
69.56054292467499
 21
4035.8
 31
0.0
  0
LINE
  5
235
330
A
100
AcDbEntity
  8
1
  6
Continuous
 62
     3
100
AcDbLine
 10
63.560542924675
 20
4037.3
 30
0.0
 11
69.56054292467499
 21
4037.3
 31
0.0
  0
LINE
  5
234
330
A
100
AcDbEntity
  8
1
  6
Continuous
 62
     3
100
AcDbLine
 10
67.06054292467499
 20
4064.8
 30
0.0
 11
67.06054292467499
 21
4063.8
 31
0.0
  0
LINE
  5
233
330
A
100
AcDbEntity
  8
1
  6
Continuous
 62
     3
100
AcDbLine
 10
65.56054292467499
 20
4065.3
 30
0.0
 11
64.56054292467499
 21
4065.3
 31
0.0
  0
LINE
  5
232
330
A
100
AcDbEntity
  8
1
  6
Continuous
 62
     3
100
AcDbLine
 10
67.56054292467499
 20
4066.3
 30
0.0
 11
68.56054292467499
 21
4066.3
 31
0.0
  0
LINE
  5
231
330
A
100
AcDbEntity
  8
1
  6
Continuous
 62
     3
100
AcDbLine
 10
66.06054292467499
 20
4066.799999999999
 30
0.0
 11
66.06054292467499
 21
4067.8
 31
0.0
  0
LINE
  5
230
330
A
100
AcDbEntity
  8
1
  6
Continuous
 62
     3
100
AcDbLine
 10
64.56054292467499
 20
4065.3
 30
0.0
 11
64.56054292467499
 21
4066.3
 31
0.0
  0
LINE
  5
22F
330
A
100
AcDbEntity
  8
1
  6
Continuous
 62
     3
100
AcDbLine
 10
68.56054292467499
 20
4065.3
 30
0.0
 11
67.56054292467499
 21
4065.3
 31
0.0
  0
LINE
  5
22E
330
A
100
AcDbEntity
  8
1
  6
Continuous
 62
     3
100
AcDbLine
 10
68.56054292467499
 20
4066.3
 30
0.0
 11
68.56054292467499
 21
4065.3
 31
0.0
  0
LINE
  5
22D
330
A
100
AcDbEntity
  8
1
  6
Continuous
 62
     3
100
AcDbLine
 10
64.56054292467499
 20
4066.3
 30
0.0
 11
65.56054292467499
 21
4066.3
 31
0.0
  0
LINE
  5
22C
330
A
100
AcDbEntity
  8
1
  6
Continuous
 62
     3
100
AcDbLine
 10
66.06054292467499
 20
4063.8
 30
0.0
 11
66.06054292467499
 21
4064.8
 31
0.0
  0
LINE
  5
22B
330
A
100
AcDbEntity
  8
1
  6
Continuous
 62
     3
100
AcDbLine
 10
67.06054292467499
 20
4063.8
 30
0.0
 11
66.06054292467499
 21
4063.8
 31
0.0
  0
LINE
  5
22A
330
A
100
AcDbEntity
  8
1
  6
Continuous
 62
     3
100
AcDbLine
 10
67.06054292467499
 20
4067.8
 30
0.0
 11
67.06054292467499
 21
4066.799999999999
 31
0.0
  0
LINE
  5
229
330
A
100
AcDbEntity
  8
1
  6
Continuous
 62
     3
100
AcDbLine
 10
66.06054292467499
 20
4067.8
 30
0.0
 11
67.06054292467499
 21
4067.8
 31
0.0
  0
LINE
  5
228
330
A
100
AcDbEntity
  8
1
  6
Continuous
 62
     1
100
AcDbLine
 10
73.960542924675
 20
4075.8
 30
0.0
 11
73.960542924675
 21
4035.8
 31
0.0
  0
LINE
  5
227
330
A
100
AcDbEntity
  8
1
  6
Continuous
 62
     1
100
AcDbLine
 10
59.16054292467499
 20
4035.8
 30
0.0
 11
59.16054292467499
 21
4075.8
 31
0.0
  0
LINE
  5
226
330
A
100
AcDbEntity
  8
1
  6
DOT_CENTER
 62
     1
100
AcDbLine
 10
50.988856123966
 20
4075.8
 30
0.0
 11
82.26655069191998
 21
4075.8
 31
0.0
  0
LINE
  5
225
330
A
100
AcDbEntity
  8
1
  6
DOT_CENTER
 62
     1
100
AcDbLine
 10
66.56054292467499
 20
4091.381223124579
 30
0.0
 11
66.56054292467499
 21
4024.91439837951
 31
0.0
  0
LINE
  5
224
330
A
100
AcDbEntity
  8
1
  6
Continuous
 62
     3
100
AcDbLine
 10
74.460542924675
 20
4075.8
 30
0.0
 11
74.460542924675
 21
4035.8
 31
0.0
  0
LINE
  5
223
330
A
100
AcDbEntity
  8
1
  6
Continuous
 62
     3
100
AcDbLine
 10
58.660542924675
 20
4035.8
 30
0.0
 11
58.660542924675
 21
4075.8
 31
0.0
  0
LINE
  5
222
330
A
100
AcDbEntity
  8
1
  6
Continuous
 62
     3
100
AcDbLine
 10
-46.529218589094
 20
4035.8
 30
0.0
 11
-51.42921858909399
 21
4035.8
 31
0.0
  0
LINE
  5
221
330
A
100
AcDbEntity
  8
1
  6
Continuous
 62
     6
100
AcDbLine
 10
-54.429218589094
 20
4057.9
 30
0.0
 11
-55.429218589094
 21
4059.632050807569
 31
0.0
  0
LINE
  5
220
330
A
100
AcDbEntity
  8
1
  6
Continuous
 62
     6
100
AcDbLine
 10
-53.429218589094
 20
4059.632050807569
 30
0.0
 11
-54.429218589094
 21
4057.9
 31
0.0
  0
LINE
  5
21F
330
A
100
AcDbEntity
  8
1
  6
Continuous
 62
     6
100
AcDbLine
 10
-55.429218589094
 20
4059.632050807569
 30
0.0
 11
-53.429218589094
 21
4059.632050807569
 31
0.0
  0
LINE
  5
21E
330
A
100
AcDbEntity
  8
1
  6
DOT_CENTER
 62
     1
100
AcDbLine
 10
-60.961141663488
 20
4065.8
 30
0.0
 11
-47.775724025511
 21
4065.8
 31
0.0
  0
LINE
  5
21D
330
A
100
AcDbEntity
  8
1
  6
Continuous
 62
     6
100
AcDbLine
 10
-59.239218589094
 20
4064.449999999999
 30
0.0
 11
-59.929218589094
 21
4065.8
 31
0.0
  0
LINE
  5
21C
330
A
100
AcDbEntity
  8
1
  6
Continuous
 62
     6
100
AcDbLine
 10
-60.279218589094
 20
4064.379999999999
 30
0.0
 11
-59.929218589094
 21
4065.8
 31
0.0
  0
LINE
  5
21B
330
A
100
AcDbEntity
  8
1
  6
Continuous
 62
     6
100
AcDbLine
 10
-48.92921858909399
 20
4065.8
 30
0.0
 11
-48.57921858909399
 21
4064.379999999999
 31
0.0
  0
LINE
  5
21A
330
A
100
AcDbEntity
  8
1
  6
Continuous
 62
     6
100
AcDbLine
 10
-48.92921858909399
 20
4065.8
 30
0.0
 11
-49.61921858909399
 21
4064.449999999999
 31
0.0
  0
LINE
  5
219
330
A
100
AcDbEntity
  8
1
  6
Continuous
 62
     1
100
AcDbLine
 10
-47.782999104644
 20
4042.8
 30
0.0
 11
-49.515049912213
 21
4041.8
 31
0.0
  0
LINE
  5
218
330
A
100
AcDbEntity
  8
1
  6
Continuous
 62
     1
100
AcDbLine
 10
-49.515049912213
 20
4043.8
 30
0.0
 11
-47.782999104644
 21
4042.8
 31
0.0
  0
LINE
  5
217
330
A
100
AcDbEntity
  8
1
  6
Continuous
 62
     1
100
AcDbLine
 10
-49.515049912213
 20
4041.8
 30
0.0
 11
-49.515049912213
 21
4043.8
 31
0.0
  0
LINE
  5
216
330
A
100
AcDbEntity
  8
1
  6
Continuous
 62
     1
100
AcDbLine
 10
-59.34338726597499
 20
4043.8
 30
0.0
 11
-59.34338726597499
 21
4041.8
 31
0.0
  0
LINE
  5
215
330
A
100
AcDbEntity
  8
1
  6
Continuous
 62
     1
100
AcDbLine
 10
-61.07543807354399
 20
4042.8
 30
0.0
 11
-59.34338726597499
 21
4043.8
 31
0.0
  0
LINE
  5
214
330
A
100
AcDbEntity
  8
1
  6
Continuous
 62
     1
100
AcDbLine
 10
-59.34338726597499
 20
4041.8
 30
0.0
 11
-61.07543807354399
 21
4042.8
 31
0.0
  0
LINE
  5
213
330
A
100
AcDbEntity
  8
1
  6
DOT_CENTER
 62
     1
100
AcDbLine
 10
-63.855602573025
 20
4051.3
 30
0.0
 11
-44.616785107693
 21
4051.3
 31
0.0
  0
LINE
  5
212
330
A
100
AcDbEntity
  8
1
  6
Continuous
 62
     3
100
AcDbLine
 10
-54.929218589094
 20
4053.8
 30
0.0
 11
-53.92921858909399
 21
4053.8
 31
0.0
  0
LINE
  5
211
330
A
100
AcDbEntity
  8
1
  6
Continuous
 62
     3
100
AcDbLine
 10
-53.92921858909399
 20
4053.8
 30
0.0
 11
-53.92921858909399
 21
4052.3
 31
0.0
  0
LINE
  5
210
330
A
100
AcDbEntity
  8
1
  6
Continuous
 62
     3
100
AcDbLine
 10
-53.92921858909399
 20
4048.799999999999
 30
0.0
 11
-54.929218589094
 21
4048.799999999999
 31
0.0
  0
LINE
  5
20F
330
A
100
AcDbEntity
  8
1
  6
Continuous
 62
     3
100
AcDbLine
 10
-54.929218589094
 20
4048.799999999999
 30
0.0
 11
-54.929218589094
 21
4050.3
 31
0.0
  0
LINE
  5
20E
330
A
100
AcDbEntity
  8
1
  6
Continuous
 62
     3
100
AcDbLine
 10
-56.929218589094
 20
4051.8
 30
0.0
 11
-55.429218589094
 21
4051.8
 31
0.0
  0
LINE
  5
20D
330
A
100
AcDbEntity
  8
1
  6
Continuous
 62
     3
100
AcDbLine
 10
-51.929218589094
 20
4051.8
 30
0.0
 11
-51.929218589094
 21
4050.8
 31
0.0
  0
LINE
  5
20C
330
A
100
AcDbEntity
  8
1
  6
Continuous
 62
     3
100
AcDbLine
 10
-51.929218589094
 20
4050.8
 30
0.0
 11
-53.429218589094
 21
4050.8
 31
0.0
  0
LINE
  5
20B
330
A
100
AcDbEntity
  8
1
  6
Continuous
 62
     3
100
AcDbLine
 10
-56.929218589094
 20
4050.8
 30
0.0
 11
-56.929218589094
 21
4051.8
 31
0.0
  0
LINE
  5
20A
330
A
100
AcDbEntity
  8
1
  6
Continuous
 62
     3
100
AcDbLine
 10
-54.929218589094
 20
4052.3
 30
0.0
 11
-54.929218589094
 21
4053.8
 31
0.0
  0
LINE
  5
209
330
A
100
AcDbEntity
  8
1
  6
Continuous
 62
     3
100
AcDbLine
 10
-53.429218589094
 20
4051.8
 30
0.0
 11
-51.929218589094
 21
4051.8
 31
0.0
  0
LINE
  5
208
330
A
100
AcDbEntity
  8
1
  6
Continuous
 62
     3
100
AcDbLine
 10
-55.429218589094
 20
4050.8
 30
0.0
 11
-56.929218589094
 21
4050.8
 31
0.0
  0
LINE
  5
207
330
A
100
AcDbEntity
  8
1
  6
Continuous
 62
     3
100
AcDbLine
 10
-53.92921858909399
 20
4050.3
 30
0.0
 11
-53.92921858909399
 21
4048.799999999999
 31
0.0
  0
LINE
  5
206
330
A
100
AcDbEntity
  8
1
  6
Continuous
 62
     3
100
AcDbLine
 10
-57.429218589094
 20
4035.8
 30
0.0
 11
-57.429218589094
 21
4037.3
 31
0.0
  0
LINE
  5
205
330
A
100
AcDbEntity
  8
1
  6
Continuous
 62
     3
100
AcDbLine
 10
-51.42921858909399
 20
4037.3
 30
0.0
 11
-51.42921858909399
 21
4035.8
 31
0.0
  0
LINE
  5
204
330
A
100
AcDbEntity
  8
1
  6
Continuous
 62
     3
100
AcDbLine
 10
-53.92921858909399
 20
4064.8
 30
0.0
 11
-53.92921858909399
 21
4063.8
 31
0.0
  0
LINE
  5
203
330
A
100
AcDbEntity
  8
1
  6
Continuous
 62
     3
100
AcDbLine
 10
-55.429218589094
 20
4065.3
 30
0.0
 11
-56.42921858909399
 21
4065.3
 31
0.0
  0
LINE
  5
202
330
A
100
AcDbEntity
  8
1
  6
Continuous
 62
     3
100
AcDbLine
 10
-53.429218589094
 20
4066.3
 30
0.0
 11
-52.429218589094
 21
4066.3
 31
0.0
  0
LINE
  5
201
330
A
100
AcDbEntity
  8
1
  6
Continuous
 62
     3
100
AcDbLine
 10
-54.929218589094
 20
4066.799999999999
 30
0.0
 11
-54.929218589094
 21
4067.8
 31
0.0
  0
LINE
  5
200
330
A
100
AcDbEntity
  8
1
  6
Continuous
 62
     3
100
AcDbLine
 10
-56.42921858909399
 20
4065.3
 30
0.0
 11
-56.42921858909399
 21
4066.3
 31
0.0
  0
LINE
  5
1FF
330
A
100
AcDbEntity
  8
1
  6
Continuous
 62
     3
100
AcDbLine
 10
-52.429218589094
 20
4065.3
 30
0.0
 11
-53.429218589094
 21
4065.3
 31
0.0
  0
LINE
  5
1FE
330
A
100
AcDbEntity
  8
1
  6
Continuous
 62
     3
100
AcDbLine
 10
-52.429218589094
 20
4066.3
 30
0.0
 11
-52.429218589094
 21
4065.3
 31
0.0
  0
LINE
  5
1FD
330
A
100
AcDbEntity
  8
1
  6
Continuous
 62
     3
100
AcDbLine
 10
-56.42921858909399
 20
4066.3
 30
0.0
 11
-55.429218589094
 21
4066.3
 31
0.0
  0
LINE
  5
1FC
330
A
100
AcDbEntity
  8
1
  6
Continuous
 62
     3
100
AcDbLine
 10
-54.929218589094
 20
4063.8
 30
0.0
 11
-54.929218589094
 21
4064.8
 31
0.0
  0
LINE
  5
1FB
330
A
100
AcDbEntity
  8
1
  6
Continuous
 62
     3
100
AcDbLine
 10
-53.92921858909399
 20
4063.8
 30
0.0
 11
-54.929218589094
 21
4063.8
 31
0.0
  0
LINE
  5
1FA
330
A
100
AcDbEntity
  8
1
  6
Continuous
 62
     3
100
AcDbLine
 10
-53.92921858909399
 20
4067.8
 30
0.0
 11
-53.92921858909399
 21
4066.799999999999
 31
0.0
  0
LINE
  5
1F9
330
A
100
AcDbEntity
  8
1
  6
Continuous
 62
     3
100
AcDbLine
 10
-54.929218589094
 20
4067.8
 30
0.0
 11
-53.92921858909399
 21
4067.8
 31
0.0
  0
LINE
  5
1F8
330
A
100
AcDbEntity
  8
1
  6
Continuous
 62
     1
100
AcDbLine
 10
-47.029218589094
 20
4075.8
 30
0.0
 11
-47.029218589094
 21
4035.8
 31
0.0
  0
LINE
  5
1F7
330
A
100
AcDbEntity
  8
1
  6
Continuous
 62
     1
100
AcDbLine
 10
-61.82921858909399
 20
4035.8
 30
0.0
 11
-61.82921858909399
 21
4075.8
 31
0.0
  0
LINE
  5
1F6
330
A
100
AcDbEntity
  8
1
  6
DOT_CENTER
 62
     1
100
AcDbLine
 10
-70.00090538980299
 20
4075.8
 30
0.0
 11
-38.72321082184999
 21
4075.8
 31
0.0
  0
LINE
  5
1F5
330
A
100
AcDbEntity
  8
1
  6
DOT_CENTER
 62
     1
100
AcDbLine
 10
-54.429218589094
 20
4091.381223124579
 30
0.0
 11
-54.429218589094
 21
4024.91439837951
 31
0.0
  0
LINE
  5
1F4
330
A
100
AcDbEntity
  8
1
  6
Continuous
 62
     3
100
AcDbLine
 10
-46.529218589094
 20
4075.8
 30
0.0
 11
-46.529218589094
 21
4035.8
 31
0.0
  0
LINE
  5
1F3
330
A
100
AcDbEntity
  8
1
  6
Continuous
 62
     3
100
AcDbLine
 10
-62.32921858909399
 20
4035.8
 30
0.0
 11
-62.32921858909399
 21
4075.8
 31
0.0
  0
LINE
  5
1F2
330
A
100
AcDbEntity
  8
1
  6
Continuous
 62
     3
100
AcDbLine
 10
13.965662167791
 20
4116.998615853429
 30
0.0
 11
9.065662167790998
 21
4116.998615853429
 31
0.0
  0
LINE
  5
1F1
330
A
100
AcDbEntity
  8
1
  6
Continuous
 62
     6
100
AcDbLine
 10
6.065662167790999
 20
4139.09861585343
 30
0.0
 11
5.065662167791
 21
4140.830666660998
 31
0.0
  0
LINE
  5
1F0
330
A
100
AcDbEntity
  8
1
  6
Continuous
 62
     6
100
AcDbLine
 10
7.065662167790999
 20
4140.830666660998
 30
0.0
 11
6.065662167790999
 21
4139.09861585343
 31
0.0
  0
LINE
  5
1EF
330
A
100
AcDbEntity
  8
1
  6
Continuous
 62
     6
100
AcDbLine
 10
5.065662167791
 20
4140.830666660998
 30
0.0
 11
7.065662167790999
 21
4140.830666660998
 31
0.0
  0
LINE
  5
1EE
330
A
100
AcDbEntity
  8
1
  6
DOT_CENTER
 62
     1
100
AcDbLine
 10
-0.466260906603
 20
4146.998615853429
 30
0.0
 11
12.719156731374
 21
4146.998615853429
 31
0.0
  0
LINE
  5
1ED
330
A
100
AcDbEntity
  8
1
  6
Continuous
 62
     6
100
AcDbLine
 10
1.255662167791
 20
4145.64861585343
 30
0.0
 11
0.565662167791
 21
4146.998615853429
 31
0.0
  0
LINE
  5
1EC
330
A
100
AcDbEntity
  8
1
  6
Continuous
 62
     6
100
AcDbLine
 10
0.215662167791
 20
4145.57861585343
 30
0.0
 11
0.565662167791
 21
4146.998615853429
 31
0.0
  0
LINE
  5
1EB
330
A
100
AcDbEntity
  8
1
  6
Continuous
 62
     6
100
AcDbLine
 10
11.565662167791
 20
4146.998615853429
 30
0.0
 11
11.915662167791
 21
4145.57861585343
 31
0.0
  0
LINE
  5
1EA
330
A
100
AcDbEntity
  8
1
  6
Continuous
 62
     6
100
AcDbLine
 10
11.565662167791
 20
4146.998615853429
 30
0.0
 11
10.875662167791
 21
4145.64861585343
 31
0.0
  0
LINE
  5
1E9
330
A
100
AcDbEntity
  8
1
  6
Continuous
 62
     1
100
AcDbLine
 10
12.711881652241
 20
4123.998615853429
 30
0.0
 11
10.979830844672
 21
4122.998615853429
 31
0.0
  0
LINE
  5
1E8
330
A
100
AcDbEntity
  8
1
  6
Continuous
 62
     1
100
AcDbLine
 10
10.979830844672
 20
4124.998615853429
 30
0.0
 11
12.711881652241
 21
4123.998615853429
 31
0.0
  0
LINE
  5
1E7
330
A
100
AcDbEntity
  8
1
  6
Continuous
 62
     1
100
AcDbLine
 10
10.979830844672
 20
4122.998615853429
 30
0.0
 11
10.979830844672
 21
4124.998615853429
 31
0.0
  0
LINE
  5
1E6
330
A
100
AcDbEntity
  8
1
  6
Continuous
 62
     1
100
AcDbLine
 10
1.15149349091
 20
4124.998615853429
 30
0.0
 11
1.15149349091
 21
4122.998615853429
 31
0.0
  0
LINE
  5
1E5
330
A
100
AcDbEntity
  8
1
  6
Continuous
 62
     1
100
AcDbLine
 10
-0.5805573166590001
 20
4123.998615853429
 30
0.0
 11
1.15149349091
 21
4124.998615853429
 31
0.0
  0
LINE
  5
1E4
330
A
100
AcDbEntity
  8
1
  6
Continuous
 62
     1
100
AcDbLine
 10
1.15149349091
 20
4122.998615853429
 30
0.0
 11
-0.5805573166590001
 21
4123.998615853429
 31
0.0
  0
LINE
  5
1E3
330
A
100
AcDbEntity
  8
1
  6
Continuous
 62
     6
100
AcDbLine
 10
7.065662167790999
 20
4135.998615853429
 30
0.0
 11
5.065662167791
 21
4135.998615853429
 31
0.0
  0
LINE
  5
1E2
330
A
100
AcDbEntity
  8
1
  6
Continuous
 62
     6
100
AcDbLine
 10
6.065662167790999
 20
4137.730666660999
 30
0.0
 11
7.065662167790999
 21
4135.998615853429
 31
0.0
  0
LINE
  5
1E1
330
A
100
AcDbEntity
  8
1
  6
Continuous
 62
     6
100
AcDbLine
 10
5.065662167791
 20
4135.998615853429
 30
0.0
 11
6.065662167790999
 21
4137.730666660999
 31
0.0
  0
LINE
  5
1E0
330
A
100
AcDbEntity
  8
1
  6
DOT_CENTER
 62
     1
100
AcDbLine
 10
-3.36072181614
 20
4132.498615853429
 30
0.0
 11
15.878095649192
 21
4132.498615853429
 31
0.0
  0
LINE
  5
1DF
330
A
100
AcDbEntity
  8
1
  6
Continuous
 62
     3
100
AcDbLine
 10
5.565662167790999
 20
4134.998615853429
 30
0.0
 11
6.565662167790999
 21
4134.998615853429
 31
0.0
  0
LINE
  5
1DE
330
A
100
AcDbEntity
  8
1
  6
Continuous
 62
     3
100
AcDbLine
 10
6.565662167790999
 20
4134.998615853429
 30
0.0
 11
6.565662167790999
 21
4133.498615853429
 31
0.0
  0
LINE
  5
1DD
330
A
100
AcDbEntity
  8
1
  6
Continuous
 62
     3
100
AcDbLine
 10
6.565662167790999
 20
4129.99861585343
 30
0.0
 11
5.565662167790999
 21
4129.99861585343
 31
0.0
  0
LINE
  5
1DC
330
A
100
AcDbEntity
  8
1
  6
Continuous
 62
     3
100
AcDbLine
 10
5.565662167790999
 20
4129.99861585343
 30
0.0
 11
5.565662167790999
 21
4131.49861585343
 31
0.0
  0
LINE
  5
1DB
330
A
100
AcDbEntity
  8
1
  6
Continuous
 62
     3
100
AcDbLine
 10
3.565662167790999
 20
4132.99861585343
 30
0.0
 11
5.065662167791
 21
4132.99861585343
 31
0.0
  0
LINE
  5
1DA
330
A
100
AcDbEntity
  8
1
  6
Continuous
 62
     3
100
AcDbLine
 10
8.565662167790998
 20
4132.99861585343
 30
0.0
 11
8.565662167790998
 21
4131.998615853428
 31
0.0
  0
LINE
  5
1D9
330
A
100
AcDbEntity
  8
1
  6
Continuous
 62
     3
100
AcDbLine
 10
8.565662167790998
 20
4131.998615853428
 30
0.0
 11
7.065662167790999
 21
4131.998615853428
 31
0.0
  0
LINE
  5
1D8
330
A
100
AcDbEntity
  8
1
  6
Continuous
 62
     3
100
AcDbLine
 10
3.565662167790999
 20
4131.998615853428
 30
0.0
 11
3.565662167790999
 21
4132.99861585343
 31
0.0
  0
LINE
  5
1D7
330
A
100
AcDbEntity
  8
1
  6
Continuous
 62
     3
100
AcDbLine
 10
5.565662167790999
 20
4133.498615853429
 30
0.0
 11
5.565662167790999
 21
4134.998615853429
 31
0.0
  0
LINE
  5
1D6
330
A
100
AcDbEntity
  8
1
  6
Continuous
 62
     3
100
AcDbLine
 10
7.065662167790999
 20
4132.99861585343
 30
0.0
 11
8.565662167790998
 21
4132.99861585343
 31
0.0
  0
LINE
  5
1D5
330
A
100
AcDbEntity
  8
1
  6
Continuous
 62
     3
100
AcDbLine
 10
5.065662167791
 20
4131.998615853428
 30
0.0
 11
3.565662167790999
 21
4131.998615853428
 31
0.0
  0
LINE
  5
1D4
330
A
100
AcDbEntity
  8
1
  6
Continuous
 62
     3
100
AcDbLine
 10
6.565662167790999
 20
4131.49861585343
 30
0.0
 11
6.565662167790999
 21
4129.99861585343
 31
0.0
  0
LINE
  5
1D3
330
A
100
AcDbEntity
  8
1
  6
Continuous
 62
     3
100
AcDbLine
 10
3.065662167790999
 20
4116.998615853429
 30
0.0
 11
-1.834337832209
 21
4116.998615853429
 31
0.0
  0
LINE
  5
1D2
330
A
100
AcDbEntity
  8
1
  6
Continuous
 62
     3
100
AcDbLine
 10
6.565662167790999
 20
4145.998615853429
 30
0.0
 11
6.565662167790999
 21
4144.998615853429
 31
0.0
  0
LINE
  5
1D1
330
A
100
AcDbEntity
  8
1
  6
Continuous
 62
     3
100
AcDbLine
 10
5.065662167791
 20
4146.498615853429
 30
0.0
 11
4.065662167791
 21
4146.498615853429
 31
0.0
  0
LINE
  5
1D0
330
A
100
AcDbEntity
  8
1
  6
Continuous
 62
     3
100
AcDbLine
 10
7.065662167790999
 20
4147.498615853429
 30
0.0
 11
8.065662167790998
 21
4147.498615853429
 31
0.0
  0
LINE
  5
1CF
330
A
100
AcDbEntity
  8
1
  6
Continuous
 62
     3
100
AcDbLine
 10
5.565662167790999
 20
4147.998615853429
 30
0.0
 11
5.565662167790999
 21
4148.998615853429
 31
0.0
  0
LINE
  5
1CE
330
A
100
AcDbEntity
  8
1
  6
Continuous
 62
     3
100
AcDbLine
 10
4.065662167791
 20
4146.498615853429
 30
0.0
 11
4.065662167791
 21
4147.498615853429
 31
0.0
  0
LINE
  5
1CD
330
A
100
AcDbEntity
  8
1
  6
Continuous
 62
     3
100
AcDbLine
 10
8.065662167790998
 20
4146.498615853429
 30
0.0
 11
7.065662167790999
 21
4146.498615853429
 31
0.0
  0
LINE
  5
1CC
330
A
100
AcDbEntity
  8
1
  6
Continuous
 62
     3
100
AcDbLine
 10
8.065662167790998
 20
4147.498615853429
 30
0.0
 11
8.065662167790998
 21
4146.498615853429
 31
0.0
  0
LINE
  5
1CB
330
A
100
AcDbEntity
  8
1
  6
Continuous
 62
     3
100
AcDbLine
 10
4.065662167791
 20
4147.498615853429
 30
0.0
 11
5.065662167791
 21
4147.498615853429
 31
0.0
  0
LINE
  5
1CA
330
A
100
AcDbEntity
  8
1
  6
Continuous
 62
     3
100
AcDbLine
 10
5.565662167790999
 20
4144.998615853429
 30
0.0
 11
5.565662167790999
 21
4145.998615853429
 31
0.0
  0
LINE
  5
1C9
330
A
100
AcDbEntity
  8
1
  6
Continuous
 62
     3
100
AcDbLine
 10
6.565662167790999
 20
4144.998615853429
 30
0.0
 11
5.565662167790999
 21
4144.998615853429
 31
0.0
  0
LINE
  5
1C8
330
A
100
AcDbEntity
  8
1
  6
Continuous
 62
     3
100
AcDbLine
 10
6.565662167790999
 20
4148.998615853429
 30
0.0
 11
6.565662167790999
 21
4147.998615853429
 31
0.0
  0
LINE
  5
1C7
330
A
100
AcDbEntity
  8
1
  6
Continuous
 62
     3
100
AcDbLine
 10
5.565662167790999
 20
4148.998615853429
 30
0.0
 11
6.565662167790999
 21
4148.998615853429
 31
0.0
  0
LINE
  5
1C6
330
A
100
AcDbEntity
  8
1
  6
Continuous
 62
     1
100
AcDbLine
 10
13.465662167791
 20
4156.998615853429
 30
0.0
 11
13.465662167791
 21
4116.998615853429
 31
0.0
  0
LINE
  5
1C5
330
A
100
AcDbEntity
  8
1
  6
Continuous
 62
     1
100
AcDbLine
 10
-1.334337832209
 20
4116.998615853429
 30
0.0
 11
-1.334337832209
 21
4156.998615853429
 31
0.0
  0
LINE
  5
1C4
330
A
100
AcDbEntity
  8
1
  6
DOT_CENTER
 62
     1
100
AcDbLine
 10
-9.506024632918
 20
4156.998615853429
 30
0.0
 11
21.771669935035
 21
4156.998615853429
 31
0.0
  0
LINE
  5
1C3
330
A
100
AcDbEntity
  8
1
  6
DOT_CENTER
 62
     1
100
AcDbLine
 10
6.065662167790999
 20
4172.579838978009
 30
0.0
 11
6.065662167790999
 21
4106.113014232938
 31
0.0
  0
LINE
  5
1C2
330
A
100
AcDbEntity
  8
1
  6
Continuous
 62
     3
100
AcDbLine
 10
13.965662167791
 20
4156.998615853429
 30
0.0
 11
13.965662167791
 21
4116.998615853429
 31
0.0
  0
LINE
  5
1C1
330
A
100
AcDbEntity
  8
1
  6
Continuous
 62
     3
100
AcDbLine
 10
-1.834337832209
 20
4116.998615853429
 30
0.0
 11
-1.834337832209
 21
4156.998615853429
 31
0.0
  0
LINE
  5
1C0
330
A
100
AcDbEntity
  8
1
  6
Continuous
 62
     3
100
AcDbLine
 10
13.965662167791
 20
3954.601384146571
 30
0.0
 11
9.065662167790998
 21
3954.601384146571
 31
0.0
  0
LINE
  5
1BF
330
A
100
AcDbEntity
  8
1
  6
Continuous
 62
     6
100
AcDbLine
 10
6.065662167790999
 20
3976.701384146571
 30
0.0
 11
5.065662167791
 21
3978.433434954141
 31
0.0
  0
LINE
  5
1BE
330
A
100
AcDbEntity
  8
1
  6
Continuous
 62
     6
100
AcDbLine
 10
7.065662167790999
 20
3978.433434954141
 30
0.0
 11
6.065662167790999
 21
3976.701384146571
 31
0.0
  0
LINE
  5
1BD
330
A
100
AcDbEntity
  8
1
  6
Continuous
 62
     6
100
AcDbLine
 10
5.065662167791
 20
3978.433434954141
 30
0.0
 11
7.065662167790999
 21
3978.433434954141
 31
0.0
  0
LINE
  5
1BC
330
A
100
AcDbEntity
  8
1
  6
DOT_CENTER
 62
     1
100
AcDbLine
 10
-0.466260906603
 20
3984.601384146571
 30
0.0
 11
12.719156731374
 21
3984.601384146571
 31
0.0
  0
LINE
  5
1BB
330
A
100
AcDbEntity
  8
1
  6
Continuous
 62
     6
100
AcDbLine
 10
1.255662167791
 20
3983.251384146571
 30
0.0
 11
0.565662167791
 21
3984.601384146571
 31
0.0
  0
LINE
  5
1BA
330
A
100
AcDbEntity
  8
1
  6
Continuous
 62
     6
100
AcDbLine
 10
0.215662167791
 20
3983.181384146571
 30
0.0
 11
0.565662167791
 21
3984.601384146571
 31
0.0
  0
LINE
  5
1B9
330
A
100
AcDbEntity
  8
1
  6
Continuous
 62
     6
100
AcDbLine
 10
11.565662167791
 20
3984.601384146571
 30
0.0
 11
11.915662167791
 21
3983.181384146571
 31
0.0
  0
LINE
  5
1B8
330
A
100
AcDbEntity
  8
1
  6
Continuous
 62
     6
100
AcDbLine
 10
11.565662167791
 20
3984.601384146571
 30
0.0
 11
10.875662167791
 21
3983.251384146571
 31
0.0
  0
LINE
  5
1B7
330
A
100
AcDbEntity
  8
1
  6
Continuous
 62
     1
100
AcDbLine
 10
12.711881652241
 20
3961.601384146571
 30
0.0
 11
10.979830844672
 21
3960.601384146571
 31
0.0
  0
LINE
  5
1B6
330
A
100
AcDbEntity
  8
1
  6
Continuous
 62
     1
100
AcDbLine
 10
10.979830844672
 20
3962.601384146572
 30
0.0
 11
12.711881652241
 21
3961.601384146571
 31
0.0
  0
LINE
  5
1B5
330
A
100
AcDbEntity
  8
1
  6
Continuous
 62
     1
100
AcDbLine
 10
10.979830844672
 20
3960.601384146571
 30
0.0
 11
10.979830844672
 21
3962.601384146572
 31
0.0
  0
LINE
  5
1B4
330
A
100
AcDbEntity
  8
1
  6
Continuous
 62
     1
100
AcDbLine
 10
1.15149349091
 20
3962.601384146572
 30
0.0
 11
1.15149349091
 21
3960.601384146571
 31
0.0
  0
LINE
  5
1B3
330
A
100
AcDbEntity
  8
1
  6
Continuous
 62
     1
100
AcDbLine
 10
-0.5805573166590001
 20
3961.601384146571
 30
0.0
 11
1.15149349091
 21
3962.601384146572
 31
0.0
  0
LINE
  5
1B2
330
A
100
AcDbEntity
  8
1
  6
Continuous
 62
     1
100
AcDbLine
 10
1.15149349091
 20
3960.601384146571
 30
0.0
 11
-0.5805573166590001
 21
3961.601384146571
 31
0.0
  0
LINE
  5
1B1
330
A
100
AcDbEntity
  8
1
  6
Continuous
 62
     6
100
AcDbLine
 10
7.065662167790999
 20
3973.601384146571
 30
0.0
 11
5.065662167791
 21
3973.601384146571
 31
0.0
  0
LINE
  5
1B0
330
A
100
AcDbEntity
  8
1
  6
Continuous
 62
     6
100
AcDbLine
 10
6.065662167790999
 20
3975.333434954141
 30
0.0
 11
7.065662167790999
 21
3973.601384146571
 31
0.0
  0
LINE
  5
1AF
330
A
100
AcDbEntity
  8
1
  6
Continuous
 62
     6
100
AcDbLine
 10
5.065662167791
 20
3973.601384146571
 30
0.0
 11
6.065662167790999
 21
3975.333434954141
 31
0.0
  0
LINE
  5
1AE
330
A
100
AcDbEntity
  8
1
  6
DOT_CENTER
 62
     1
100
AcDbLine
 10
-3.36072181614
 20
3970.101384146571
 30
0.0
 11
15.878095649192
 21
3970.101384146571
 31
0.0
  0
LINE
  5
1AD
330
A
100
AcDbEntity
  8
1
  6
Continuous
 62
     3
100
AcDbLine
 10
5.565662167790999
 20
3972.601384146571
 30
0.0
 11
6.565662167790999
 21
3972.601384146571
 31
0.0
  0
LINE
  5
1AC
330
A
100
AcDbEntity
  8
1
  6
Continuous
 62
     3
100
AcDbLine
 10
6.565662167790999
 20
3972.601384146571
 30
0.0
 11
6.565662167790999
 21
3971.101384146571
 31
0.0
  0
LINE
  5
1AB
330
A
100
AcDbEntity
  8
1
  6
Continuous
 62
     3
100
AcDbLine
 10
6.565662167790999
 20
3967.601384146571
 30
0.0
 11
5.565662167790999
 21
3967.601384146571
 31
0.0
  0
LINE
  5
1AA
330
A
100
AcDbEntity
  8
1
  6
Continuous
 62
     3
100
AcDbLine
 10
5.565662167790999
 20
3967.601384146571
 30
0.0
 11
5.565662167790999
 21
3969.101384146571
 31
0.0
  0
LINE
  5
1A9
330
A
100
AcDbEntity
  8
1
  6
Continuous
 62
     3
100
AcDbLine
 10
3.565662167790999
 20
3970.601384146571
 30
0.0
 11
5.065662167791
 21
3970.601384146571
 31
0.0
  0
LINE
  5
1A8
330
A
100
AcDbEntity
  8
1
  6
Continuous
 62
     3
100
AcDbLine
 10
8.565662167790998
 20
3970.601384146571
 30
0.0
 11
8.565662167790998
 21
3969.601384146571
 31
0.0
  0
LINE
  5
1A7
330
A
100
AcDbEntity
  8
1
  6
Continuous
 62
     3
100
AcDbLine
 10
8.565662167790998
 20
3969.601384146571
 30
0.0
 11
7.065662167790999
 21
3969.601384146571
 31
0.0
  0
LINE
  5
1A6
330
A
100
AcDbEntity
  8
1
  6
Continuous
 62
     3
100
AcDbLine
 10
3.565662167790999
 20
3969.601384146571
 30
0.0
 11
3.565662167790999
 21
3970.601384146571
 31
0.0
  0
LINE
  5
1A5
330
A
100
AcDbEntity
  8
1
  6
Continuous
 62
     3
100
AcDbLine
 10
5.565662167790999
 20
3971.101384146571
 30
0.0
 11
5.565662167790999
 21
3972.601384146571
 31
0.0
  0
LINE
  5
1A4
330
A
100
AcDbEntity
  8
1
  6
Continuous
 62
     3
100
AcDbLine
 10
7.065662167790999
 20
3970.601384146571
 30
0.0
 11
8.565662167790998
 21
3970.601384146571
 31
0.0
  0
LINE
  5
1A3
330
A
100
AcDbEntity
  8
1
  6
Continuous
 62
     3
100
AcDbLine
 10
5.065662167791
 20
3969.601384146571
 30
0.0
 11
3.565662167790999
 21
3969.601384146571
 31
0.0
  0
LINE
  5
1A2
330
A
100
AcDbEntity
  8
1
  6
Continuous
 62
     3
100
AcDbLine
 10
6.565662167790999
 20
3969.101384146571
 30
0.0
 11
6.565662167790999
 21
3967.601384146571
 31
0.0
  0
LINE
  5
1A1
330
A
100
AcDbEntity
  8
1
  6
Continuous
 62
     3
100
AcDbLine
 10
3.065662167790999
 20
3954.601384146571
 30
0.0
 11
-1.834337832209
 21
3954.601384146571
 31
0.0
  0
LINE
  5
1A0
330
A
100
AcDbEntity
  8
1
  6
Continuous
 62
     3
100
AcDbLine
 10
6.565662167790999
 20
3983.601384146572
 30
0.0
 11
6.565662167790999
 21
3982.601384146571
 31
0.0
  0
LINE
  5
19F
330
A
100
AcDbEntity
  8
1
  6
Continuous
 62
     3
100
AcDbLine
 10
5.065662167791
 20
3984.101384146571
 30
0.0
 11
4.065662167791
 21
3984.101384146571
 31
0.0
  0
LINE
  5
19E
330
A
100
AcDbEntity
  8
1
  6
Continuous
 62
     3
100
AcDbLine
 10
7.065662167790999
 20
3985.101384146571
 30
0.0
 11
8.065662167790998
 21
3985.101384146571
 31
0.0
  0
LINE
  5
19D
330
A
100
AcDbEntity
  8
1
  6
Continuous
 62
     3
100
AcDbLine
 10
5.565662167790999
 20
3985.601384146571
 30
0.0
 11
5.565662167790999
 21
3986.601384146571
 31
0.0
  0
LINE
  5
19C
330
A
100
AcDbEntity
  8
1
  6
Continuous
 62
     3
100
AcDbLine
 10
4.065662167791
 20
3984.101384146571
 30
0.0
 11
4.065662167791
 21
3985.101384146571
 31
0.0
  0
LINE
  5
19B
330
A
100
AcDbEntity
  8
1
  6
Continuous
 62
     3
100
AcDbLine
 10
8.065662167790998
 20
3984.101384146571
 30
0.0
 11
7.065662167790999
 21
3984.101384146571
 31
0.0
  0
LINE
  5
19A
330
A
100
AcDbEntity
  8
1
  6
Continuous
 62
     3
100
AcDbLine
 10
8.065662167790998
 20
3985.101384146571
 30
0.0
 11
8.065662167790998
 21
3984.101384146571
 31
0.0
  0
LINE
  5
199
330
A
100
AcDbEntity
  8
1
  6
Continuous
 62
     3
100
AcDbLine
 10
4.065662167791
 20
3985.101384146571
 30
0.0
 11
5.065662167791
 21
3985.101384146571
 31
0.0
  0
LINE
  5
198
330
A
100
AcDbEntity
  8
1
  6
Continuous
 62
     3
100
AcDbLine
 10
5.565662167790999
 20
3982.601384146571
 30
0.0
 11
5.565662167790999
 21
3983.601384146572
 31
0.0
  0
LINE
  5
197
330
A
100
AcDbEntity
  8
1
  6
Continuous
 62
     3
100
AcDbLine
 10
6.565662167790999
 20
3982.601384146571
 30
0.0
 11
5.565662167790999
 21
3982.601384146571
 31
0.0
  0
LINE
  5
196
330
A
100
AcDbEntity
  8
1
  6
Continuous
 62
     3
100
AcDbLine
 10
6.565662167790999
 20
3986.601384146571
 30
0.0
 11
6.565662167790999
 21
3985.601384146571
 31
0.0
  0
LINE
  5
195
330
A
100
AcDbEntity
  8
1
  6
Continuous
 62
     3
100
AcDbLine
 10
5.565662167790999
 20
3986.601384146571
 30
0.0
 11
6.565662167790999
 21
3986.601384146571
 31
0.0
  0
LINE
  5
194
330
A
100
AcDbEntity
  8
1
  6
Continuous
 62
     1
100
AcDbLine
 10
13.465662167791
 20
3994.601384146572
 30
0.0
 11
13.465662167791
 21
3954.601384146571
 31
0.0
  0
LINE
  5
193
330
A
100
AcDbEntity
  8
1
  6
Continuous
 62
     1
100
AcDbLine
 10
-1.334337832209
 20
3954.601384146571
 30
0.0
 11
-1.334337832209
 21
3994.601384146572
 31
0.0
  0
LINE
  5
192
330
A
100
AcDbEntity
  8
1
  6
DOT_CENTER
 62
     1
100
AcDbLine
 10
-9.506024632918
 20
3994.601384146572
 30
0.0
 11
21.771669935035
 21
3994.601384146572
 31
0.0
  0
LINE
  5
191
330
A
100
AcDbEntity
  8
1
  6
DOT_CENTER
 62
     1
100
AcDbLine
 10
6.065662167790999
 20
4010.182607271151
 30
0.0
 11
6.065662167790999
 21
3943.715782526081
 31
0.0
  0
LINE
  5
190
330
A
100
AcDbEntity
  8
1
  6
Continuous
 62
     3
100
AcDbLine
 10
13.965662167791
 20
3994.601384146572
 30
0.0
 11
13.965662167791
 21
3954.601384146571
 31
0.0
  0
LINE
  5
18F
330
A
100
AcDbEntity
  8
1
  6
Continuous
 62
     3
100
AcDbLine
 10
-1.834337832209
 20
3954.601384146571
 30
0.0
 11
-1.834337832209
 21
3994.601384146572
 31
0.0
  0
LINE
  5
18E
330
A
100
AcDbEntity
  8
1
  6
DOT_CENTER
 62
     1
100
AcDbLine
 10
126.16708832512
 20
4126.041134668168
 30
0.0
 11
126.16708832512
 21
4115.96922652721
 31
0.0
  0
LINE
  5
18D
330
A
100
AcDbEntity
  8
1
  6
DOT_CENTER
 62
     1
100
AcDbLine
 10
120.56815765313
 20
4120.998615853429
 30
0.0
 11
131.56167830373
 21
4120.998615853429
 31
0.0
  0
LINE
  5
18C
330
A
100
AcDbEntity
  8
1
  6
Continuous
 62
     3
100
AcDbLine
 10
158.46708832512
 20
4116.998615853429
 30
0.0
 11
158.46708832512
 21
4154.998615853429
 31
0.0
  0
LINE
  5
18B
330
A
100
AcDbEntity
  8
1
  6
Continuous
 62
     3
100
AcDbLine
 10
119.16708832512
 20
4116.998615853429
 30
0.0
 11
158.46708832512
 21
4116.998615853429
 31
0.0
  0
LINE
  5
18A
330
A
100
AcDbEntity
  8
1
  6
Continuous
 62
     1
100
AcDbLine
 10
116.16708832512
 20
4164.89861585343
 30
0.0
 11
116.16708832512
 21
4116.998615853429
 31
0.0
  0
LINE
  5
189
330
A
100
AcDbEntity
  8
1
  6
Continuous
 62
     3
100
AcDbLine
 10
157.46708832512
 20
4154.998615853429
 30
0.0
 11
119.16708832512
 21
4154.998615853429
 31
0.0
  0
LINE
  5
188
330
A
100
AcDbEntity
  8
1
  6
Continuous
 62
     6
100
AcDbLine
 10
157.46708832512
 20
4164.89861585343
 30
0.0
 11
157.46708832512
 21
4154.998615853429
 31
0.0
  0
LINE
  5
187
330
A
100
AcDbEntity
  8
1
  6
Continuous
 62
     3
100
AcDbLine
 10
119.66708832512
 20
4164.254903625295
 30
0.0
 11
119.16708832512
 21
4164.754903625294
 31
0.0
  0
LINE
  5
186
330
A
100
AcDbEntity
  8
1
  6
Continuous
 62
     3
100
AcDbLine
 10
129.16708832512
 20
4164.754903625294
 30
0.0
 11
119.16708832512
 21
4164.754903625294
 31
0.0
  0
LINE
  5
185
330
A
100
AcDbEntity
  8
1
  6
Continuous
 62
     3
100
AcDbLine
 10
132.16708832512
 20
4164.754903625294
 30
0.0
 11
141.96708832512
 21
4164.754903625294
 31
0.0
  0
LINE
  5
184
330
A
100
AcDbEntity
  8
1
  6
Continuous
 62
     3
100
AcDbLine
 10
144.96708832512
 20
4164.754903625294
 30
0.0
 11
154.96708832512
 21
4164.754903625294
 31
0.0
  0
LINE
  5
183
330
A
100
AcDbEntity
  8
1
  6
Continuous
 62
     3
100
AcDbLine
 10
122.56708832512
 20
4156.998615853429
 30
0.0
 11
129.16708832512
 21
4156.998615853429
 31
0.0
  0
LINE
  5
182
330
A
100
AcDbEntity
  8
1
  6
Continuous
 62
     3
100
AcDbLine
 10
122.56708832512
 20
4161.498615853429
 30
0.0
 11
122.56708832512
 21
4156.998615853429
 31
0.0
  0
LINE
  5
181
330
A
100
AcDbEntity
  8
1
  6
Continuous
 62
     3
100
AcDbLine
 10
128.66708832512
 20
4161.498615853429
 30
0.0
 11
128.66708832512
 21
4164.254903625295
 31
0.0
  0
LINE
  5
180
330
A
100
AcDbEntity
  8
1
  6
Continuous
 62
     3
100
AcDbLine
 10
128.66708832512
 20
4161.354903625293
 30
0.0
 11
122.56708832512
 21
4161.354903625293
 31
0.0
  0
LINE
  5
17F
330
A
100
AcDbEntity
  8
1
  6
Continuous
 62
     3
100
AcDbLine
 10
141.46708832512
 20
4161.498615853429
 30
0.0
 11
141.46708832512
 21
4164.254903625295
 31
0.0
  0
LINE
  5
17E
330
A
100
AcDbEntity
  8
1
  6
Continuous
 62
     3
100
AcDbLine
 10
132.66708832512
 20
4161.498615853429
 30
0.0
 11
132.66708832512
 21
4156.998615853429
 31
0.0
  0
LINE
  5
17D
330
A
100
AcDbEntity
  8
1
  6
Continuous
 62
     3
100
AcDbLine
 10
132.66708832512
 20
4161.498615853429
 30
0.0
 11
141.46708832512
 21
4161.498615853429
 31
0.0
  0
LINE
  5
17C
330
A
100
AcDbEntity
  8
1
  6
Continuous
 62
     3
100
AcDbLine
 10
154.46708832512
 20
4161.498615853429
 30
0.0
 11
154.46708832512
 21
4164.254903625295
 31
0.0
  0
LINE
  5
17B
330
A
100
AcDbEntity
  8
1
  6
Continuous
 62
     3
100
AcDbLine
 10
145.46708832512
 20
4161.498615853429
 30
0.0
 11
145.46708832512
 21
4156.998615853429
 31
0.0
  0
LINE
  5
17A
330
A
100
AcDbEntity
  8
1
  6
Continuous
 62
     3
100
AcDbLine
 10
145.46708832512
 20
4161.498615853429
 30
0.0
 11
154.46708832512
 21
4161.498615853429
 31
0.0
  0
LINE
  5
179
330
A
100
AcDbEntity
  8
1
  6
Continuous
 62
     3
100
AcDbLine
 10
119.16708832512
 20
4116.998615853429
 30
0.0
 11
115.66708832512
 21
4116.998615853429
 31
0.0
  0
LINE
  5
178
330
A
100
AcDbEntity
  8
1
  6
Continuous
 62
     3
100
AcDbLine
 10
119.16708832512
 20
4154.998615853429
 30
0.0
 11
119.16708832512
 21
4116.998615853429
 31
0.0
  0
LINE
  5
177
330
A
100
AcDbEntity
  8
1
  6
Continuous
 62
     3
100
AcDbLine
 10
158.46708832512
 20
4154.998615853429
 30
0.0
 11
157.46708832512
 21
4154.998615853429
 31
0.0
  0
LINE
  5
176
330
A
100
AcDbEntity
  8
1
  6
Continuous
 62
     3
100
AcDbLine
 10
158.46708832512
 20
4163.89861585343
 30
0.0
 11
157.46708832512
 21
4164.89861585343
 31
0.0
  0
LINE
  5
175
330
A
100
AcDbEntity
  8
1
  6
Continuous
 62
     3
100
AcDbLine
 10
115.66708832512
 20
4164.398615853429
 30
0.0
 11
116.16708832512
 21
4164.89861585343
 31
0.0
  0
LINE
  5
174
330
A
100
AcDbEntity
  8
1
  6
Continuous
 62
     1
100
AcDbLine
 10
154.96708832512
 20
4164.754903625294
 30
0.0
 11
154.96708832512
 21
4156.998615853429
 31
0.0
  0
LINE
  5
173
330
A
100
AcDbEntity
  8
1
  6
Continuous
 62
     1
100
AcDbLine
 10
144.96708832512
 20
4164.754903625294
 30
0.0
 11
144.96708832512
 21
4156.998615853429
 31
0.0
  0
LINE
  5
172
330
A
100
AcDbEntity
  8
1
  6
Continuous
 62
     1
100
AcDbLine
 10
141.96708832512
 20
4164.754903625294
 30
0.0
 11
141.96708832512
 21
4156.998615853429
 31
0.0
  0
LINE
  5
171
330
A
100
AcDbEntity
  8
1
  6
Continuous
 62
     1
100
AcDbLine
 10
132.16708832512
 20
4164.754903625294
 30
0.0
 11
132.16708832512
 21
4156.998615853429
 31
0.0
  0
LINE
  5
170
330
A
100
AcDbEntity
  8
1
  6
Continuous
 62
     1
100
AcDbLine
 10
129.16708832512
 20
4164.754903625294
 30
0.0
 11
129.16708832512
 21
4156.998615853429
 31
0.0
  0
LINE
  5
16F
330
A
100
AcDbEntity
  8
1
  6
Continuous
 62
     1
100
AcDbLine
 10
119.16708832512
 20
4164.754903625294
 30
0.0
 11
119.16708832512
 21
4156.998615853429
 31
0.0
  0
LINE
  5
16E
330
A
100
AcDbEntity
  8
1
  6
Continuous
 62
     3
100
AcDbLine
 10
144.96708832512
 20
4156.998615853429
 30
0.0
 11
154.96708832512
 21
4156.998615853429
 31
0.0
  0
LINE
  5
16D
330
A
100
AcDbEntity
  8
1
  6
Continuous
 62
     3
100
AcDbLine
 10
140.56708832512
 20
4156.998615853429
 30
0.0
 11
141.96708832512
 21
4156.998615853429
 31
0.0
  0
LINE
  5
16C
330
A
100
AcDbEntity
  8
1
  6
Continuous
 62
     3
100
AcDbLine
 10
132.16708832512
 20
4156.998615853429
 30
0.0
 11
133.56708832512
 21
4156.998615853429
 31
0.0
  0
LINE
  5
16B
330
A
100
AcDbEntity
  8
1
  6
Continuous
 62
     3
100
AcDbLine
 10
119.16708832512
 20
4156.998615853429
 30
0.0
 11
122.56708832512
 21
4156.998615853429
 31
0.0
  0
LINE
  5
16A
330
A
100
AcDbEntity
  8
1
  6
Continuous
 62
     3
100
AcDbLine
 10
154.46708832512
 20
4164.254903625295
 30
0.0
 11
154.96708832512
 21
4164.754903625294
 31
0.0
  0
LINE
  5
169
330
A
100
AcDbEntity
  8
1
  6
Continuous
 62
     3
100
AcDbLine
 10
145.46708832512
 20
4164.254903625295
 30
0.0
 11
144.96708832512
 21
4164.754903625294
 31
0.0
  0
LINE
  5
168
330
A
100
AcDbEntity
  8
1
  6
Continuous
 62
     3
100
AcDbLine
 10
141.46708832512
 20
4164.254903625295
 30
0.0
 11
141.96708832512
 21
4164.754903625294
 31
0.0
  0
LINE
  5
167
330
A
100
AcDbEntity
  8
1
  6
Continuous
 62
     3
100
AcDbLine
 10
132.66708832512
 20
4164.254903625295
 30
0.0
 11
132.16708832512
 21
4164.754903625294
 31
0.0
  0
LINE
  5
166
330
A
100
AcDbEntity
  8
1
  6
Continuous
 62
     3
100
AcDbLine
 10
128.66708832512
 20
4164.254903625295
 30
0.0
 11
129.16708832512
 21
4164.754903625294
 31
0.0
  0
LINE
  5
165
330
A
100
AcDbEntity
  8
1
  6
Continuous
 62
     3
100
AcDbLine
 10
122.56708832512
 20
4161.354903625293
 30
0.0
 11
119.66708832512
 21
4164.254903625295
 31
0.0
  0
LINE
  5
164
330
A
100
AcDbEntity
  8
1
  6
Continuous
 62
     3
100
AcDbLine
 10
154.46708832512
 20
4156.998615853429
 30
0.0
 11
154.46708832512
 21
4161.498615853429
 31
0.0
  0
LINE
  5
163
330
A
100
AcDbEntity
  8
1
  6
Continuous
 62
     3
100
AcDbLine
 10
158.46708832512
 20
4163.89861585343
 30
0.0
 11
158.46708832512
 21
4154.998615853429
 31
0.0
  0
LINE
  5
162
330
A
100
AcDbEntity
  8
1
  6
Continuous
 62
     3
100
AcDbLine
 10
116.16708832512
 20
4164.89861585343
 30
0.0
 11
157.46708832512
 21
4164.89861585343
 31
0.0
  0
LINE
  5
161
330
A
100
AcDbEntity
  8
1
  6
Continuous
 62
     3
100
AcDbLine
 10
141.46708832512
 20
4156.998615853429
 30
0.0
 11
141.46708832512
 21
4161.498615853429
 31
0.0
  0
LINE
  5
160
330
A
100
AcDbEntity
  8
1
  6
Continuous
 62
     3
100
AcDbLine
 10
145.46708832512
 20
4164.254903625295
 30
0.0
 11
145.46708832512
 21
4161.498615853429
 31
0.0
  0
LINE
  5
15F
330
A
100
AcDbEntity
  8
1
  6
Continuous
 62
     3
100
AcDbLine
 10
128.66708832512
 20
4156.998615853429
 30
0.0
 11
128.66708832512
 21
4161.498615853429
 31
0.0
  0
LINE
  5
15E
330
A
100
AcDbEntity
  8
1
  6
Continuous
 62
     3
100
AcDbLine
 10
132.66708832512
 20
4164.254903625295
 30
0.0
 11
132.66708832512
 21
4161.498615853429
 31
0.0
  0
LINE
  5
15D
330
A
100
AcDbEntity
  8
1
  6
Continuous
 62
     3
100
AcDbLine
 10
115.66708832512
 20
4116.998615853429
 30
0.0
 11
115.66708832512
 21
4164.398615853429
 31
0.0
  0
LINE
  5
15C
330
A
100
AcDbEntity
  8
1
  6
Continuous
 62
     3
100
AcDbLine
 10
119.66708832512
 20
4164.254903625295
 30
0.0
 11
119.66708832512
 21
4156.998615853429
 31
0.0
  0
LINE
  5
15B
330
A
100
AcDbEntity
  8
1
  6
DOT_CENTER
 62
     1
100
AcDbLine
 10
127.900459208205
 20
4121.498615853429
 30
0.0
 11
163.712499965643
 21
4121.498615853429
 31
0.0
  0
LINE
  5
15A
330
A
100
AcDbEntity
  8
1
  6
DOT_CENTER
 62
     1
100
AcDbLine
 10
144.264049395974
 20
4140.491192403779
 30
0.0
 11
144.264049395974
 21
4105.03217172959
 31
0.0
  0
LINE
  5
159
330
A
100
AcDbEntity
  8
1
  6
DOT_CENTER
 62
     1
100
AcDbLine
 10
126.16708832512
 20
3963.643902961312
 30
0.0
 11
126.16708832512
 21
3953.571994820351
 31
0.0
  0
LINE
  5
158
330
A
100
AcDbEntity
  8
1
  6
DOT_CENTER
 62
     1
100
AcDbLine
 10
120.56815765313
 20
3958.601384146572
 30
0.0
 11
131.56167830373
 21
3958.601384146572
 31
0.0
  0
LINE
  5
157
330
A
100
AcDbEntity
  8
1
  6
Continuous
 62
     3
100
AcDbLine
 10
158.46708832512
 20
3954.601384146571
 30
0.0
 11
158.46708832512
 21
3992.601384146571
 31
0.0
  0
LINE
  5
156
330
A
100
AcDbEntity
  8
1
  6
Continuous
 62
     1
100
AcDbLine
 10
116.16708832512
 20
4002.501384146571
 30
0.0
 11
116.16708832512
 21
3954.601384146571
 31
0.0
  0
LINE
  5
155
330
A
100
AcDbEntity
  8
1
  6
Continuous
 62
     3
100
AcDbLine
 10
157.46708832512
 20
3992.601384146571
 30
0.0
 11
119.16708832512
 21
3992.601384146571
 31
0.0
  0
LINE
  5
154
330
A
100
AcDbEntity
  8
1
  6
Continuous
 62
     6
100
AcDbLine
 10
157.46708832512
 20
4002.501384146571
 30
0.0
 11
157.46708832512
 21
3992.601384146571
 31
0.0
  0
LINE
  5
153
330
A
100
AcDbEntity
  8
1
  6
Continuous
 62
     3
100
AcDbLine
 10
119.66708832512
 20
4001.857671918437
 30
0.0
 11
119.16708832512
 21
4002.357671918437
 31
0.0
  0
LINE
  5
152
330
A
100
AcDbEntity
  8
1
  6
Continuous
 62
     3
100
AcDbLine
 10
129.16708832512
 20
4002.357671918437
 30
0.0
 11
119.16708832512
 21
4002.357671918437
 31
0.0
  0
LINE
  5
151
330
A
100
AcDbEntity
  8
1
  6
Continuous
 62
     3
100
AcDbLine
 10
132.16708832512
 20
4002.357671918437
 30
0.0
 11
141.96708832512
 21
4002.357671918437
 31
0.0
  0
LINE
  5
150
330
A
100
AcDbEntity
  8
1
  6
Continuous
 62
     3
100
AcDbLine
 10
144.96708832512
 20
4002.357671918437
 30
0.0
 11
154.96708832512
 21
4002.357671918437
 31
0.0
  0
LINE
  5
14F
330
A
100
AcDbEntity
  8
1
  6
Continuous
 62
     3
100
AcDbLine
 10
122.56708832512
 20
3994.601384146572
 30
0.0
 11
129.16708832512
 21
3994.601384146572
 31
0.0
  0
LINE
  5
14E
330
A
100
AcDbEntity
  8
1
  6
Continuous
 62
     3
100
AcDbLine
 10
122.56708832512
 20
3999.101384146571
 30
0.0
 11
122.56708832512
 21
3994.601384146572
 31
0.0
  0
LINE
  5
14D
330
A
100
AcDbEntity
  8
1
  6
Continuous
 62
     3
100
AcDbLine
 10
128.66708832512
 20
3999.101384146571
 30
0.0
 11
128.66708832512
 21
4001.857671918437
 31
0.0
  0
LINE
  5
14C
330
A
100
AcDbEntity
  8
1
  6
Continuous
 62
     3
100
AcDbLine
 10
128.66708832512
 20
3998.957671918437
 30
0.0
 11
122.56708832512
 21
3998.957671918437
 31
0.0
  0
LINE
  5
14B
330
A
100
AcDbEntity
  8
1
  6
Continuous
 62
     3
100
AcDbLine
 10
141.46708832512
 20
3999.101384146571
 30
0.0
 11
141.46708832512
 21
4001.857671918437
 31
0.0
  0
LINE
  5
14A
330
A
100
AcDbEntity
  8
1
  6
Continuous
 62
     3
100
AcDbLine
 10
132.66708832512
 20
3999.101384146571
 30
0.0
 11
132.66708832512
 21
3994.601384146572
 31
0.0
  0
LINE
  5
149
330
A
100
AcDbEntity
  8
1
  6
Continuous
 62
     3
100
AcDbLine
 10
132.66708832512
 20
3999.101384146571
 30
0.0
 11
141.46708832512
 21
3999.101384146571
 31
0.0
  0
LINE
  5
148
330
A
100
AcDbEntity
  8
1
  6
Continuous
 62
     3
100
AcDbLine
 10
154.46708832512
 20
3999.101384146571
 30
0.0
 11
154.46708832512
 21
4001.857671918437
 31
0.0
  0
LINE
  5
147
330
A
100
AcDbEntity
  8
1
  6
Continuous
 62
     3
100
AcDbLine
 10
145.46708832512
 20
3999.101384146571
 30
0.0
 11
145.46708832512
 21
3994.601384146572
 31
0.0
  0
LINE
  5
146
330
A
100
AcDbEntity
  8
1
  6
Continuous
 62
     3
100
AcDbLine
 10
145.46708832512
 20
3999.101384146571
 30
0.0
 11
154.46708832512
 21
3999.101384146571
 31
0.0
  0
LINE
  5
145
330
A
100
AcDbEntity
  8
1
  6
Continuous
 62
     3
100
AcDbLine
 10
119.16708832512
 20
3992.601384146571
 30
0.0
 11
119.16708832512
 21
3954.601384146571
 31
0.0
  0
LINE
  5
144
330
A
100
AcDbEntity
  8
1
  6
Continuous
 62
     3
100
AcDbLine
 10
158.46708832512
 20
3992.601384146571
 30
0.0
 11
157.46708832512
 21
3992.601384146571
 31
0.0
  0
LINE
  5
143
330
A
100
AcDbEntity
  8
1
  6
Continuous
 62
     3
100
AcDbLine
 10
158.46708832512
 20
4001.50138414657
 30
0.0
 11
157.46708832512
 21
4002.501384146571
 31
0.0
  0
LINE
  5
142
330
A
100
AcDbEntity
  8
1
  6
Continuous
 62
     3
100
AcDbLine
 10
115.66708832512
 20
4002.001384146571
 30
0.0
 11
116.16708832512
 21
4002.501384146571
 31
0.0
  0
LINE
  5
141
330
A
100
AcDbEntity
  8
1
  6
Continuous
 62
     1
100
AcDbLine
 10
154.96708832512
 20
4002.357671918437
 30
0.0
 11
154.96708832512
 21
3994.601384146572
 31
0.0
  0
LINE
  5
140
330
A
100
AcDbEntity
  8
1
  6
Continuous
 62
     1
100
AcDbLine
 10
144.96708832512
 20
4002.357671918437
 30
0.0
 11
144.96708832512
 21
3994.601384146572
 31
0.0
  0
LINE
  5
13F
330
A
100
AcDbEntity
  8
1
  6
Continuous
 62
     1
100
AcDbLine
 10
141.96708832512
 20
4002.357671918437
 30
0.0
 11
141.96708832512
 21
3994.601384146572
 31
0.0
  0
LINE
  5
13E
330
A
100
AcDbEntity
  8
1
  6
Continuous
 62
     1
100
AcDbLine
 10
132.16708832512
 20
4002.357671918437
 30
0.0
 11
132.16708832512
 21
3994.601384146572
 31
0.0
  0
LINE
  5
13D
330
A
100
AcDbEntity
  8
1
  6
Continuous
 62
     1
100
AcDbLine
 10
129.16708832512
 20
4002.357671918437
 30
0.0
 11
129.16708832512
 21
3994.601384146572
 31
0.0
  0
LINE
  5
13C
330
A
100
AcDbEntity
  8
1
  6
Continuous
 62
     1
100
AcDbLine
 10
119.16708832512
 20
4002.357671918437
 30
0.0
 11
119.16708832512
 21
3994.601384146572
 31
0.0
  0
LINE
  5
13B
330
A
100
AcDbEntity
  8
1
  6
Continuous
 62
     3
100
AcDbLine
 10
144.96708832512
 20
3994.601384146572
 30
0.0
 11
154.96708832512
 21
3994.601384146572
 31
0.0
  0
LINE
  5
13A
330
A
100
AcDbEntity
  8
1
  6
Continuous
 62
     3
100
AcDbLine
 10
140.56708832512
 20
3994.601384146572
 30
0.0
 11
141.96708832512
 21
3994.601384146572
 31
0.0
  0
LINE
  5
139
330
A
100
AcDbEntity
  8
1
  6
Continuous
 62
     3
100
AcDbLine
 10
132.16708832512
 20
3994.601384146572
 30
0.0
 11
133.56708832512
 21
3994.601384146572
 31
0.0
  0
LINE
  5
138
330
A
100
AcDbEntity
  8
1
  6
Continuous
 62
     3
100
AcDbLine
 10
119.16708832512
 20
3994.601384146572
 30
0.0
 11
122.56708832512
 21
3994.601384146572
 31
0.0
  0
LINE
  5
137
330
A
100
AcDbEntity
  8
1
  6
Continuous
 62
     3
100
AcDbLine
 10
154.46708832512
 20
4001.857671918437
 30
0.0
 11
154.96708832512
 21
4002.357671918437
 31
0.0
  0
LINE
  5
136
330
A
100
AcDbEntity
  8
1
  6
Continuous
 62
     3
100
AcDbLine
 10
145.46708832512
 20
4001.857671918437
 30
0.0
 11
144.96708832512
 21
4002.357671918437
 31
0.0
  0
LINE
  5
135
330
A
100
AcDbEntity
  8
1
  6
Continuous
 62
     3
100
AcDbLine
 10
141.46708832512
 20
4001.857671918437
 30
0.0
 11
141.96708832512
 21
4002.357671918437
 31
0.0
  0
LINE
  5
134
330
A
100
AcDbEntity
  8
1
  6
Continuous
 62
     3
100
AcDbLine
 10
132.66708832512
 20
4001.857671918437
 30
0.0
 11
132.16708832512
 21
4002.357671918437
 31
0.0
  0
LINE
  5
133
330
A
100
AcDbEntity
  8
1
  6
Continuous
 62
     3
100
AcDbLine
 10
128.66708832512
 20
4001.857671918437
 30
0.0
 11
129.16708832512
 21
4002.357671918437
 31
0.0
  0
LINE
  5
132
330
A
100
AcDbEntity
  8
1
  6
Continuous
 62
     3
100
AcDbLine
 10
122.56708832512
 20
3998.957671918437
 30
0.0
 11
119.66708832512
 21
4001.857671918437
 31
0.0
  0
LINE
  5
131
330
A
100
AcDbEntity
  8
1
  6
Continuous
 62
     3
100
AcDbLine
 10
154.46708832512
 20
3994.601384146572
 30
0.0
 11
154.46708832512
 21
3999.101384146571
 31
0.0
  0
LINE
  5
130
330
A
100
AcDbEntity
  8
1
  6
Continuous
 62
     3
100
AcDbLine
 10
158.46708832512
 20
4001.50138414657
 30
0.0
 11
158.46708832512
 21
3992.601384146571
 31
0.0
  0
LINE
  5
12F
330
A
100
AcDbEntity
  8
1
  6
Continuous
 62
     3
100
AcDbLine
 10
116.16708832512
 20
4002.501384146571
 30
0.0
 11
157.46708832512
 21
4002.501384146571
 31
0.0
  0
LINE
  5
12E
330
A
100
AcDbEntity
  8
1
  6
Continuous
 62
     3
100
AcDbLine
 10
141.46708832512
 20
3994.601384146572
 30
0.0
 11
141.46708832512
 21
3999.101384146571
 31
0.0
  0
LINE
  5
12D
330
A
100
AcDbEntity
  8
1
  6
Continuous
 62
     3
100
AcDbLine
 10
145.46708832512
 20
4001.857671918437
 30
0.0
 11
145.46708832512
 21
3999.101384146571
 31
0.0
  0
LINE
  5
12C
330
A
100
AcDbEntity
  8
1
  6
Continuous
 62
     3
100
AcDbLine
 10
128.66708832512
 20
3994.601384146572
 30
0.0
 11
128.66708832512
 21
3999.101384146571
 31
0.0
  0
LINE
  5
12B
330
A
100
AcDbEntity
  8
1
  6
Continuous
 62
     3
100
AcDbLine
 10
132.66708832512
 20
4001.857671918437
 30
0.0
 11
132.66708832512
 21
3999.101384146571
 31
0.0
  0
LINE
  5
12A
330
A
100
AcDbEntity
  8
1
  6
Continuous
 62
     3
100
AcDbLine
 10
115.66708832512
 20
3954.601384146571
 30
0.0
 11
115.66708832512
 21
4002.001384146571
 31
0.0
  0
LINE
  5
129
330
A
100
AcDbEntity
  8
1
  6
Continuous
 62
     3
100
AcDbLine
 10
119.66708832512
 20
4001.857671918437
 30
0.0
 11
119.66708832512
 21
3994.601384146572
 31
0.0
  0
LINE
  5
128
330
A
100
AcDbEntity
  8
1
  6
DOT_CENTER
 62
     1
100
AcDbLine
 10
127.063338387312
 20
3964.101384146572
 30
0.0
 11
163.712499965643
 21
3964.101384146572
 31
0.0
  0
LINE
  5
127
330
A
100
AcDbEntity
  8
1
  6
DOT_CENTER
 62
     1
100
AcDbLine
 10
143.66708832512
 20
3980.593960696921
 30
0.0
 11
143.66708832512
 21
3947.616700271382
 31
0.0
  0
LINE
  5
126
330
A
100
AcDbEntity
  8
1
  6
Continuous
 62
     6
100
AcDbLine
 10
-49.197167781525
 20
4051.3
 30
0.0
 11
-50.929218589094
 21
4050.3
 31
0.0
  0
LINE
  5
125
330
A
100
AcDbEntity
  8
1
  6
Continuous
 62
     6
100
AcDbLine
 10
-50.929218589094
 20
4050.3
 30
0.0
 11
-50.929218589094
 21
4052.3
 31
0.0
  0
LINE
  5
124
330
A
100
AcDbEntity
  8
1
  6
Continuous
 62
     6
100
AcDbLine
 10
-50.929218589094
 20
4052.3
 30
0.0
 11
-49.197167781525
 21
4051.3
 31
0.0
  0
LINE
  5
123
330
A
100
AcDbEntity
  8
1
  6
Continuous
 62
     3
100
AcDbLine
 10
74.460542924675
 20
4035.8
 30
0.0
 11
69.56054292467499
 21
4035.8
 31
0.0
  0
LINE
  5
122
330
A
100
AcDbEntity
  8
1
  6
DOT_CENTER
 62
     1
100
AcDbLine
 10
-56.42921858909399
 20
4037.3
 30
0.0
 11
-56.42921858909399
 21
4026.25
 31
0.0
  0
LINE
  5
121
330
A
100
AcDbEntity
  8
1
  6
DOT_CENTER
 62
     1
100
AcDbLine
 10
68.56054292467499
 20
4037.3
 30
0.0
 11
68.56054292467499
 21
4026.11
 31
0.0
  0
LINE
  5
120
330
A
100
AcDbEntity
  8
1
  6
DOT_CENTER
 62
     1
100
AcDbLine
 10
226.948862813465
 20
3980.593960696921
 30
0.0
 11
226.948862813465
 21
3947.616700271382
 31
0.0
  0
LINE
  5
11F
330
A
100
AcDbEntity
  8
1
  6
DOT_CENTER
 62
     1
100
AcDbLine
 10
210.345112875657
 20
3964.101384146572
 30
0.0
 11
246.994274453988
 21
3964.101384146572
 31
0.0
  0
LINE
  5
11E
330
A
100
AcDbEntity
  8
1
  6
Continuous
 62
     3
100
AcDbLine
 10
202.948862813465
 20
4001.857671918437
 30
0.0
 11
202.948862813465
 21
3994.601384146572
 31
0.0
  0
LINE
  5
11D
330
A
100
AcDbEntity
  8
1
  6
Continuous
 62
     3
100
AcDbLine
 10
198.948862813465
 20
3954.601384146571
 30
0.0
 11
198.948862813465
 21
4002.001384146571
 31
0.0
  0
LINE
  5
11C
330
A
100
AcDbEntity
  8
1
  6
Continuous
 62
     3
100
AcDbLine
 10
215.948862813465
 20
4001.857671918437
 30
0.0
 11
215.948862813465
 21
3999.101384146571
 31
0.0
  0
LINE
  5
11B
330
A
100
AcDbEntity
  8
1
  6
Continuous
 62
     3
100
AcDbLine
 10
211.948862813465
 20
3994.601384146572
 30
0.0
 11
211.948862813465
 21
3999.101384146571
 31
0.0
  0
LINE
  5
11A
330
A
100
AcDbEntity
  8
1
  6
Continuous
 62
     3
100
AcDbLine
 10
228.748862813465
 20
4001.857671918437
 30
0.0
 11
228.748862813465
 21
3999.101384146571
 31
0.0
  0
LINE
  5
119
330
A
100
AcDbEntity
  8
1
  6
Continuous
 62
     3
100
AcDbLine
 10
224.748862813465
 20
3994.601384146572
 30
0.0
 11
224.748862813465
 21
3999.101384146571
 31
0.0
  0
LINE
  5
118
330
A
100
AcDbEntity
  8
1
  6
Continuous
 62
     3
100
AcDbLine
 10
199.448862813465
 20
4002.501384146571
 30
0.0
 11
240.748862813465
 21
4002.501384146571
 31
0.0
  0
LINE
  5
117
330
A
100
AcDbEntity
  8
1
  6
Continuous
 62
     3
100
AcDbLine
 10
237.748862813465
 20
3994.601384146572
 30
0.0
 11
237.748862813465
 21
3999.101384146571
 31
0.0
  0
LINE
  5
116
330
A
100
AcDbEntity
  8
1
  6
Continuous
 62
     3
100
AcDbLine
 10
205.848862813465
 20
3998.957671918437
 30
0.0
 11
202.948862813465
 21
4001.857671918437
 31
0.0
  0
LINE
  5
115
330
A
100
AcDbEntity
  8
1
  6
Continuous
 62
     3
100
AcDbLine
 10
211.948862813465
 20
4001.857671918437
 30
0.0
 11
212.448862813465
 21
4002.357671918437
 31
0.0
  0
LINE
  5
114
330
A
100
AcDbEntity
  8
1
  6
Continuous
 62
     3
100
AcDbLine
 10
215.948862813465
 20
4001.857671918437
 30
0.0
 11
215.448862813465
 21
4002.357671918437
 31
0.0
  0
LINE
  5
113
330
A
100
AcDbEntity
  8
1
  6
Continuous
 62
     3
100
AcDbLine
 10
224.748862813465
 20
4001.857671918437
 30
0.0
 11
225.248862813465
 21
4002.357671918437
 31
0.0
  0
LINE
  5
112
330
A
100
AcDbEntity
  8
1
  6
Continuous
 62
     3
100
AcDbLine
 10
228.748862813465
 20
4001.857671918437
 30
0.0
 11
228.248862813465
 21
4002.357671918437
 31
0.0
  0
LINE
  5
111
330
A
100
AcDbEntity
  8
1
  6
Continuous
 62
     3
100
AcDbLine
 10
237.748862813465
 20
4001.857671918437
 30
0.0
 11
238.248862813465
 21
4002.357671918437
 31
0.0
  0
LINE
  5
110
330
A
100
AcDbEntity
  8
1
  6
Continuous
 62
     3
100
AcDbLine
 10
202.448862813465
 20
3994.601384146572
 30
0.0
 11
205.848862813465
 21
3994.601384146572
 31
0.0
  0
LINE
  5
10F
330
A
100
AcDbEntity
  8
1
  6
Continuous
 62
     3
100
AcDbLine
 10
215.448862813465
 20
3994.601384146572
 30
0.0
 11
216.848862813465
 21
3994.601384146572
 31
0.0
  0
LINE
  5
10E
330
A
100
AcDbEntity
  8
1
  6
Continuous
 62
     3
100
AcDbLine
 10
223.848862813465
 20
3994.601384146572
 30
0.0
 11
225.248862813465
 21
3994.601384146572
 31
0.0
  0
LINE
  5
10D
330
A
100
AcDbEntity
  8
1
  6
Continuous
 62
     3
100
AcDbLine
 10
228.248862813465
 20
3994.601384146572
 30
0.0
 11
238.248862813465
 21
3994.601384146572
 31
0.0
  0
LINE
  5
10C
330
A
100
AcDbEntity
  8
1
  6
Continuous
 62
     1
100
AcDbLine
 10
202.448862813465
 20
4002.357671918437
 30
0.0
 11
202.448862813465
 21
3994.601384146572
 31
0.0
  0
LINE
  5
10B
330
A
100
AcDbEntity
  8
1
  6
Continuous
 62
     1
100
AcDbLine
 10
212.448862813465
 20
4002.357671918437
 30
0.0
 11
212.448862813465
 21
3994.601384146572
 31
0.0
  0
LINE
  5
10A
330
A
100
AcDbEntity
  8
1
  6
Continuous
 62
     1
100
AcDbLine
 10
215.448862813465
 20
4002.357671918437
 30
0.0
 11
215.448862813465
 21
3994.601384146572
 31
0.0
  0
LINE
  5
109
330
A
100
AcDbEntity
  8
1
  6
Continuous
 62
     1
100
AcDbLine
 10
225.248862813465
 20
4002.357671918437
 30
0.0
 11
225.248862813465
 21
3994.601384146572
 31
0.0
  0
LINE
  5
108
330
A
100
AcDbEntity
  8
1
  6
Continuous
 62
     1
100
AcDbLine
 10
228.248862813465
 20
4002.357671918437
 30
0.0
 11
228.248862813465
 21
3994.601384146572
 31
0.0
  0
LINE
  5
107
330
A
100
AcDbEntity
  8
1
  6
Continuous
 62
     1
100
AcDbLine
 10
238.248862813465
 20
4002.357671918437
 30
0.0
 11
238.248862813465
 21
3994.601384146572
 31
0.0
  0
LINE
  5
106
330
A
100
AcDbEntity
  8
1
  6
Continuous
 62
     3
100
AcDbLine
 10
198.948862813465
 20
4002.001384146571
 30
0.0
 11
199.448862813465
 21
4002.501384146571
 31
0.0
  0
LINE
  5
105
330
A
100
AcDbEntity
  8
1
  6
Continuous
 62
     3
100
AcDbLine
 10
202.448862813465
 20
3992.601384146571
 30
0.0
 11
202.448862813465
 21
3954.601384146571
 31
0.0
  0
LINE
  5
104
330
A
100
AcDbEntity
  8
1
  6
Continuous
 62
     3
100
AcDbLine
 10
241.748862813465
 20
3954.601384146571
 30
0.0
 11
198.948862813465
 21
3954.601384146571
 31
0.0
  0
LINE
  5
103
330
A
100
AcDbEntity
  8
1
  6
Continuous
 62
     3
100
AcDbLine
 10
228.748862813465
 20
3999.101384146571
 30
0.0
 11
237.748862813465
 21
3999.101384146571
 31
0.0
  0
LINE
  5
102
330
A
100
AcDbEntity
  8
1
  6
Continuous
 62
     3
100
AcDbLine
 10
228.748862813465
 20
3999.101384146571
 30
0.0
 11
228.748862813465
 21
3994.601384146572
 31
0.0
  0
LINE
  5
101
330
A
100
AcDbEntity
  8
1
  6
Continuous
 62
     3
100
AcDbLine
 10
237.748862813465
 20
3999.101384146571
 30
0.0
 11
237.748862813465
 21
4001.857671918437
 31
0.0
  0
LINE
  5
100
330
A
100
AcDbEntity
  8
1
  6
Continuous
 62
     3
100
AcDbLine
 10
215.948862813465
 20
3999.101384146571
 30
0.0
 11
224.748862813465
 21
3999.101384146571
 31
0.0
  0
LINE
  5
FF
330
A
100
AcDbEntity
  8
1
  6
Continuous
 62
     3
100
AcDbLine
 10
215.948862813465
 20
3999.101384146571
 30
0.0
 11
215.948862813465
 21
3994.601384146572
 31
0.0
  0
LINE
  5
FE
330
A
100
AcDbEntity
  8
1
  6
Continuous
 62
     3
100
AcDbLine
 10
224.748862813465
 20
3999.101384146571
 30
0.0
 11
224.748862813465
 21
4001.857671918437
 31
0.0
  0
LINE
  5
FD
330
A
100
AcDbEntity
  8
1
  6
Continuous
 62
     3
100
AcDbLine
 10
211.948862813465
 20
3998.957671918437
 30
0.0
 11
205.848862813465
 21
3998.957671918437
 31
0.0
  0
LINE
  5
FC
330
A
100
AcDbEntity
  8
1
  6
Continuous
 62
     3
100
AcDbLine
 10
211.948862813465
 20
3999.101384146571
 30
0.0
 11
211.948862813465
 21
4001.857671918437
 31
0.0
  0
LINE
  5
FB
330
A
100
AcDbEntity
  8
1
  6
Continuous
 62
     3
100
AcDbLine
 10
205.848862813465
 20
3999.101384146571
 30
0.0
 11
205.848862813465
 21
3994.601384146572
 31
0.0
  0
LINE
  5
FA
330
A
100
AcDbEntity
  8
1
  6
Continuous
 62
     3
100
AcDbLine
 10
205.848862813465
 20
3994.601384146572
 30
0.0
 11
212.448862813465
 21
3994.601384146572
 31
0.0
  0
LINE
  5
F9
330
A
100
AcDbEntity
  8
1
  6
Continuous
 62
     3
100
AcDbLine
 10
228.248862813465
 20
4002.357671918437
 30
0.0
 11
238.248862813465
 21
4002.357671918437
 31
0.0
  0
LINE
  5
F8
330
A
100
AcDbEntity
  8
1
  6
Continuous
 62
     3
100
AcDbLine
 10
215.448862813465
 20
4002.357671918437
 30
0.0
 11
225.248862813465
 21
4002.357671918437
 31
0.0
  0
LINE
  5
F7
330
A
100
AcDbEntity
  8
1
  6
Continuous
 62
     3
100
AcDbLine
 10
212.448862813465
 20
4002.357671918437
 30
0.0
 11
202.448862813465
 21
4002.357671918437
 31
0.0
  0
LINE
  5
F6
330
A
100
AcDbEntity
  8
1
  6
Continuous
 62
     3
100
AcDbLine
 10
202.948862813465
 20
4001.857671918437
 30
0.0
 11
202.448862813465
 21
4002.357671918437
 31
0.0
  0
LINE
  5
F5
330
A
100
AcDbEntity
  8
1
  6
Continuous
 62
     3
100
AcDbLine
 10
240.748862813465
 20
3992.601384146571
 30
0.0
 11
202.448862813465
 21
3992.601384146571
 31
0.0
  0
LINE
  5
F4
330
A
100
AcDbEntity
  8
1
  6
Continuous
 62
     1
100
AcDbLine
 10
199.448862813465
 20
4002.501384146571
 30
0.0
 11
199.448862813465
 21
3954.601384146571
 31
0.0
  0
LINE
  5
F3
330
A
100
AcDbEntity
  8
1
  6
DOT_CENTER
 62
     1
100
AcDbLine
 10
203.849932141475
 20
3958.601384146572
 30
0.0
 11
214.843452792075
 21
3958.601384146572
 31
0.0
  0
LINE
  5
F2
330
A
100
AcDbEntity
  8
1
  6
DOT_CENTER
 62
     1
100
AcDbLine
 10
209.448862813465
 20
3963.643902961312
 30
0.0
 11
209.448862813465
 21
3953.571994820351
 31
0.0
  0
LINE
  5
F1
330
A
100
AcDbEntity
  8
1
  6
DOT_CENTER
 62
     1
100
AcDbLine
 10
227.545823884319
 20
4140.491192403779
 30
0.0
 11
227.545823884319
 21
4105.03217172959
 31
0.0
  0
LINE
  5
F0
330
A
100
AcDbEntity
  8
1
  6
DOT_CENTER
 62
     1
100
AcDbLine
 10
211.182233696549
 20
4121.498615853429
 30
0.0
 11
246.994274453988
 21
4121.498615853429
 31
0.0
  0
LINE
  5
EF
330
A
100
AcDbEntity
  8
1
  6
Continuous
 62
     3
100
AcDbLine
 10
202.948862813465
 20
4164.254903625295
 30
0.0
 11
202.948862813465
 21
4156.998615853429
 31
0.0
  0
LINE
  5
EE
330
A
100
AcDbEntity
  8
1
  6
Continuous
 62
     3
100
AcDbLine
 10
198.948862813465
 20
4116.998615853429
 30
0.0
 11
198.948862813465
 21
4164.398615853429
 31
0.0
  0
LINE
  5
ED
330
A
100
AcDbEntity
  8
1
  6
Continuous
 62
     3
100
AcDbLine
 10
215.948862813465
 20
4164.254903625295
 30
0.0
 11
215.948862813465
 21
4161.498615853429
 31
0.0
  0
LINE
  5
EC
330
A
100
AcDbEntity
  8
1
  6
Continuous
 62
     3
100
AcDbLine
 10
211.948862813465
 20
4156.998615853429
 30
0.0
 11
211.948862813465
 21
4161.498615853429
 31
0.0
  0
LINE
  5
EB
330
A
100
AcDbEntity
  8
1
  6
Continuous
 62
     3
100
AcDbLine
 10
228.748862813465
 20
4164.254903625295
 30
0.0
 11
228.748862813465
 21
4161.498615853429
 31
0.0
  0
LINE
  5
EA
330
A
100
AcDbEntity
  8
1
  6
Continuous
 62
     3
100
AcDbLine
 10
224.748862813465
 20
4156.998615853429
 30
0.0
 11
224.748862813465
 21
4161.498615853429
 31
0.0
  0
LINE
  5
E9
330
A
100
AcDbEntity
  8
1
  6
Continuous
 62
     3
100
AcDbLine
 10
199.448862813465
 20
4164.89861585343
 30
0.0
 11
240.748862813465
 21
4164.89861585343
 31
0.0
  0
LINE
  5
E8
330
A
100
AcDbEntity
  8
1
  6
Continuous
 62
     3
100
AcDbLine
 10
237.748862813465
 20
4156.998615853429
 30
0.0
 11
237.748862813465
 21
4161.498615853429
 31
0.0
  0
LINE
  5
E7
330
A
100
AcDbEntity
  8
1
  6
Continuous
 62
     3
100
AcDbLine
 10
205.848862813465
 20
4161.354903625293
 30
0.0
 11
202.948862813465
 21
4164.254903625295
 31
0.0
  0
LINE
  5
E6
330
A
100
AcDbEntity
  8
1
  6
Continuous
 62
     3
100
AcDbLine
 10
211.948862813465
 20
4164.254903625295
 30
0.0
 11
212.448862813465
 21
4164.754903625294
 31
0.0
  0
LINE
  5
E5
330
A
100
AcDbEntity
  8
1
  6
Continuous
 62
     3
100
AcDbLine
 10
215.948862813465
 20
4164.254903625295
 30
0.0
 11
215.448862813465
 21
4164.754903625294
 31
0.0
  0
LINE
  5
E4
330
A
100
AcDbEntity
  8
1
  6
Continuous
 62
     3
100
AcDbLine
 10
224.748862813465
 20
4164.254903625295
 30
0.0
 11
225.248862813465
 21
4164.754903625294
 31
0.0
  0
LINE
  5
E3
330
A
100
AcDbEntity
  8
1
  6
Continuous
 62
     3
100
AcDbLine
 10
228.748862813465
 20
4164.254903625295
 30
0.0
 11
228.248862813465
 21
4164.754903625294
 31
0.0
  0
LINE
  5
E2
330
A
100
AcDbEntity
  8
1
  6
Continuous
 62
     3
100
AcDbLine
 10
237.748862813465
 20
4164.254903625295
 30
0.0
 11
238.248862813465
 21
4164.754903625294
 31
0.0
  0
LINE
  5
E1
330
A
100
AcDbEntity
  8
1
  6
Continuous
 62
     3
100
AcDbLine
 10
202.448862813465
 20
4156.998615853429
 30
0.0
 11
205.848862813465
 21
4156.998615853429
 31
0.0
  0
LINE
  5
E0
330
A
100
AcDbEntity
  8
1
  6
Continuous
 62
     3
100
AcDbLine
 10
215.448862813465
 20
4156.998615853429
 30
0.0
 11
216.848862813465
 21
4156.998615853429
 31
0.0
  0
LINE
  5
DF
330
A
100
AcDbEntity
  8
1
  6
Continuous
 62
     3
100
AcDbLine
 10
223.848862813465
 20
4156.998615853429
 30
0.0
 11
225.248862813465
 21
4156.998615853429
 31
0.0
  0
LINE
  5
DE
330
A
100
AcDbEntity
  8
1
  6
Continuous
 62
     3
100
AcDbLine
 10
228.248862813465
 20
4156.998615853429
 30
0.0
 11
238.248862813465
 21
4156.998615853429
 31
0.0
  0
LINE
  5
DD
330
A
100
AcDbEntity
  8
1
  6
Continuous
 62
     1
100
AcDbLine
 10
202.448862813465
 20
4164.754903625294
 30
0.0
 11
202.448862813465
 21
4156.998615853429
 31
0.0
  0
LINE
  5
DC
330
A
100
AcDbEntity
  8
1
  6
Continuous
 62
     1
100
AcDbLine
 10
212.448862813465
 20
4164.754903625294
 30
0.0
 11
212.448862813465
 21
4156.998615853429
 31
0.0
  0
LINE
  5
DB
330
A
100
AcDbEntity
  8
1
  6
Continuous
 62
     1
100
AcDbLine
 10
215.448862813465
 20
4164.754903625294
 30
0.0
 11
215.448862813465
 21
4156.998615853429
 31
0.0
  0
LINE
  5
DA
330
A
100
AcDbEntity
  8
1
  6
Continuous
 62
     1
100
AcDbLine
 10
225.248862813465
 20
4164.754903625294
 30
0.0
 11
225.248862813465
 21
4156.998615853429
 31
0.0
  0
LINE
  5
D9
330
A
100
AcDbEntity
  8
1
  6
Continuous
 62
     1
100
AcDbLine
 10
228.248862813465
 20
4164.754903625294
 30
0.0
 11
228.248862813465
 21
4156.998615853429
 31
0.0
  0
LINE
  5
D8
330
A
100
AcDbEntity
  8
1
  6
Continuous
 62
     1
100
AcDbLine
 10
238.248862813465
 20
4164.754903625294
 30
0.0
 11
238.248862813465
 21
4156.998615853429
 31
0.0
  0
LINE
  5
D7
330
A
100
AcDbEntity
  8
1
  6
Continuous
 62
     3
100
AcDbLine
 10
198.948862813465
 20
4164.398615853429
 30
0.0
 11
199.448862813465
 21
4164.89861585343
 31
0.0
  0
LINE
  5
D6
330
A
100
AcDbEntity
  8
1
  6
DOTTED
 62
     1
100
AcDbLine
 10
241.748862813465
 20
4163.89861585343
 30
0.0
 11
240.748862813465
 21
4164.89861585343
 31
0.0
  0
LINE
  5
D5
330
A
100
AcDbEntity
  8
1
  6
DOTTED
 62
     1
100
AcDbLine
 10
241.748862813465
 20
4154.998615853429
 30
0.0
 11
240.748862813465
 21
4154.998615853429
 31
0.0
  0
LINE
  5
D4
330
A
100
AcDbEntity
  8
1
  6
Continuous
 62
     3
100
AcDbLine
 10
202.448862813465
 20
4154.998615853429
 30
0.0
 11
202.448862813465
 21
4116.998615853429
 31
0.0
  0
LINE
  5
D3
330
A
100
AcDbEntity
  8
1
  6
Continuous
 62
     3
100
AcDbLine
 10
228.748862813465
 20
4161.498615853429
 30
0.0
 11
237.748862813465
 21
4161.498615853429
 31
0.0
  0
LINE
  5
D2
330
A
100
AcDbEntity
  8
1
  6
Continuous
 62
     3
100
AcDbLine
 10
228.748862813465
 20
4161.498615853429
 30
0.0
 11
228.748862813465
 21
4156.998615853429
 31
0.0
  0
LINE
  5
D1
330
A
100
AcDbEntity
  8
1
  6
Continuous
 62
     3
100
AcDbLine
 10
237.748862813465
 20
4161.498615853429
 30
0.0
 11
237.748862813465
 21
4164.254903625295
 31
0.0
  0
LINE
  5
D0
330
A
100
AcDbEntity
  8
1
  6
Continuous
 62
     3
100
AcDbLine
 10
215.948862813465
 20
4161.498615853429
 30
0.0
 11
224.748862813465
 21
4161.498615853429
 31
0.0
  0
LINE
  5
CF
330
A
100
AcDbEntity
  8
1
  6
Continuous
 62
     3
100
AcDbLine
 10
215.948862813465
 20
4161.498615853429
 30
0.0
 11
215.948862813465
 21
4156.998615853429
 31
0.0
  0
LINE
  5
CE
330
A
100
AcDbEntity
  8
1
  6
Continuous
 62
     3
100
AcDbLine
 10
224.748862813465
 20
4161.498615853429
 30
0.0
 11
224.748862813465
 21
4164.254903625295
 31
0.0
  0
LINE
  5
CD
330
A
100
AcDbEntity
  8
1
  6
Continuous
 62
     3
100
AcDbLine
 10
211.948862813465
 20
4161.354903625293
 30
0.0
 11
205.848862813465
 21
4161.354903625293
 31
0.0
  0
LINE
  5
CC
330
A
100
AcDbEntity
  8
1
  6
Continuous
 62
     3
100
AcDbLine
 10
211.948862813465
 20
4161.498615853429
 30
0.0
 11
211.948862813465
 21
4164.254903625295
 31
0.0
  0
LINE
  5
CB
330
A
100
AcDbEntity
  8
1
  6
Continuous
 62
     3
100
AcDbLine
 10
205.848862813465
 20
4161.498615853429
 30
0.0
 11
205.848862813465
 21
4156.998615853429
 31
0.0
  0
LINE
  5
CA
330
A
100
AcDbEntity
  8
1
  6
Continuous
 62
     3
100
AcDbLine
 10
205.848862813465
 20
4156.998615853429
 30
0.0
 11
212.448862813465
 21
4156.998615853429
 31
0.0
  0
LINE
  5
C9
330
A
100
AcDbEntity
  8
1
  6
Continuous
 62
     3
100
AcDbLine
 10
228.248862813465
 20
4164.754903625294
 30
0.0
 11
238.248862813465
 21
4164.754903625294
 31
0.0
  0
LINE
  5
C8
330
A
100
AcDbEntity
  8
1
  6
Continuous
 62
     3
100
AcDbLine
 10
215.448862813465
 20
4164.754903625294
 30
0.0
 11
225.248862813465
 21
4164.754903625294
 31
0.0
  0
LINE
  5
C7
330
A
100
AcDbEntity
  8
1
  6
Continuous
 62
     3
100
AcDbLine
 10
212.448862813465
 20
4164.754903625294
 30
0.0
 11
202.448862813465
 21
4164.754903625294
 31
0.0
  0
LINE
  5
C6
330
A
100
AcDbEntity
  8
1
  6
Continuous
 62
     3
100
AcDbLine
 10
202.948862813465
 20
4164.254903625295
 30
0.0
 11
202.448862813465
 21
4164.754903625294
 31
0.0
  0
LINE
  5
C5
330
A
100
AcDbEntity
  8
1
  6
Continuous
 62
     3
100
AcDbLine
 10
240.748862813465
 20
4154.998615853429
 30
0.0
 11
202.448862813465
 21
4154.998615853429
 31
0.0
  0
LINE
  5
C4
330
A
100
AcDbEntity
  8
1
  6
Continuous
 62
     1
100
AcDbLine
 10
199.448862813465
 20
4164.89861585343
 30
0.0
 11
199.448862813465
 21
4116.998615853429
 31
0.0
  0
LINE
  5
C3
330
A
100
AcDbEntity
  8
1
  6
DOTTED
 62
     1
100
AcDbLine
 10
241.748862813465
 20
4116.998615853429
 30
0.0
 11
241.748862813465
 21
4163.89861585343
 31
0.0
  0
LINE
  5
C2
330
A
100
AcDbEntity
  8
1
  6
DOT_CENTER
 62
     1
100
AcDbLine
 10
203.849932141475
 20
4120.998615853429
 30
0.0
 11
214.843452792075
 21
4120.998615853429
 31
0.0
  0
LINE
  5
C1
330
A
100
AcDbEntity
  8
1
  6
DOT_CENTER
 62
     1
100
AcDbLine
 10
209.448862813465
 20
4126.041134668168
 30
0.0
 11
209.448862813465
 21
4115.96922652721
 31
0.0
  0
LINE
  5
C0
330
A
100
AcDbEntity
  8
1
  6
DOT_CENTER
 62
     1
100
AcDbLine
 10
209.448862813465
 20
4044.842518814739
 30
0.0
 11
209.448862813465
 21
4034.77061067378
 31
0.0
  0
LINE
  5
BF
330
A
100
AcDbEntity
  8
1
  6
DOT_CENTER
 62
     1
100
AcDbLine
 10
203.849932141475
 20
4039.8
 30
0.0
 11
214.843452792075
 21
4039.8
 31
0.0
  0
LINE
  5
BE
330
A
100
AcDbEntity
  8
1
  6
Continuous
 62
     1
100
AcDbLine
 10
199.448862813465
 20
4083.699999999999
 30
0.0
 11
199.448862813465
 21
4035.8
 31
0.0
  0
LINE
  5
BD
330
A
100
AcDbEntity
  8
1
  6
Continuous
 62
     3
100
AcDbLine
 10
240.748862813465
 20
4073.8
 30
0.0
 11
202.448862813465
 21
4073.8
 31
0.0
  0
LINE
  5
BC
330
A
100
AcDbEntity
  8
1
  6
Continuous
 62
     3
100
AcDbLine
 10
202.948862813465
 20
4083.056287771865
 30
0.0
 11
202.448862813465
 21
4083.556287771865
 31
0.0
  0
LINE
  5
BB
330
A
100
AcDbEntity
  8
1
  6
Continuous
 62
     3
100
AcDbLine
 10
212.448862813465
 20
4083.556287771865
 30
0.0
 11
202.448862813465
 21
4083.556287771865
 31
0.0
  0
LINE
  5
BA
330
A
100
AcDbEntity
  8
1
  6
Continuous
 62
     3
100
AcDbLine
 10
215.448862813465
 20
4083.556287771865
 30
0.0
 11
225.248862813465
 21
4083.556287771865
 31
0.0
  0
LINE
  5
B9
330
A
100
AcDbEntity
  8
1
  6
Continuous
 62
     3
100
AcDbLine
 10
228.248862813465
 20
4083.556287771865
 30
0.0
 11
238.248862813465
 21
4083.556287771865
 31
0.0
  0
LINE
  5
B8
330
A
100
AcDbEntity
  8
1
  6
Continuous
 62
     3
100
AcDbLine
 10
205.848862813465
 20
4075.8
 30
0.0
 11
212.448862813465
 21
4075.8
 31
0.0
  0
LINE
  5
B7
330
A
100
AcDbEntity
  8
1
  6
Continuous
 62
     3
100
AcDbLine
 10
205.848862813465
 20
4080.3
 30
0.0
 11
205.848862813465
 21
4075.8
 31
0.0
  0
LINE
  5
B6
330
A
100
AcDbEntity
  8
1
  6
Continuous
 62
     3
100
AcDbLine
 10
211.948862813465
 20
4080.3
 30
0.0
 11
211.948862813465
 21
4083.056287771865
 31
0.0
  0
LINE
  5
B5
330
A
100
AcDbEntity
  8
1
  6
Continuous
 62
     3
100
AcDbLine
 10
211.948862813465
 20
4080.156287771866
 30
0.0
 11
205.848862813465
 21
4080.156287771866
 31
0.0
  0
LINE
  5
B4
330
A
100
AcDbEntity
  8
1
  6
Continuous
 62
     3
100
AcDbLine
 10
224.748862813465
 20
4080.3
 30
0.0
 11
224.748862813465
 21
4083.056287771865
 31
0.0
  0
LINE
  5
B3
330
A
100
AcDbEntity
  8
1
  6
Continuous
 62
     3
100
AcDbLine
 10
215.948862813465
 20
4080.3
 30
0.0
 11
215.948862813465
 21
4075.8
 31
0.0
  0
LINE
  5
B2
330
A
100
AcDbEntity
  8
1
  6
Continuous
 62
     3
100
AcDbLine
 10
215.948862813465
 20
4080.3
 30
0.0
 11
224.748862813465
 21
4080.3
 31
0.0
  0
LINE
  5
B1
330
A
100
AcDbEntity
  8
1
  6
Continuous
 62
     3
100
AcDbLine
 10
237.748862813465
 20
4080.3
 30
0.0
 11
237.748862813465
 21
4083.056287771865
 31
0.0
  0
LINE
  5
B0
330
A
100
AcDbEntity
  8
1
  6
Continuous
 62
     3
100
AcDbLine
 10
228.748862813465
 20
4080.3
 30
0.0
 11
228.748862813465
 21
4075.8
 31
0.0
  0
LINE
  5
AF
330
A
100
AcDbEntity
  8
1
  6
Continuous
 62
     3
100
AcDbLine
 10
228.748862813465
 20
4080.3
 30
0.0
 11
237.748862813465
 21
4080.3
 31
0.0
  0
LINE
  5
AE
330
A
100
AcDbEntity
  8
1
  6
Continuous
 62
     3
100
AcDbLine
 10
241.748862813465
 20
4035.8
 30
0.0
 11
198.948862813465
 21
4035.8
 31
0.0
  0
LINE
  5
AD
330
A
100
AcDbEntity
  8
1
  6
Continuous
 62
     3
100
AcDbLine
 10
202.448862813465
 20
4073.8
 30
0.0
 11
202.448862813465
 21
4035.8
 31
0.0
  0
LINE
  5
AC
330
A
100
AcDbEntity
  8
1
  6
Continuous
 62
     3
100
AcDbLine
 10
198.948862813465
 20
4083.2
 30
0.0
 11
199.448862813465
 21
4083.699999999999
 31
0.0
  0
LINE
  5
AB
330
A
100
AcDbEntity
  8
1
  6
Continuous
 62
     1
100
AcDbLine
 10
238.248862813465
 20
4083.556287771865
 30
0.0
 11
238.248862813465
 21
4075.8
 31
0.0
  0
LINE
  5
AA
330
A
100
AcDbEntity
  8
1
  6
Continuous
 62
     1
100
AcDbLine
 10
228.248862813465
 20
4083.556287771865
 30
0.0
 11
228.248862813465
 21
4075.8
 31
0.0
  0
LINE
  5
A9
330
A
100
AcDbEntity
  8
1
  6
Continuous
 62
     1
100
AcDbLine
 10
225.248862813465
 20
4083.556287771865
 30
0.0
 11
225.248862813465
 21
4075.8
 31
0.0
  0
LINE
  5
A8
330
A
100
AcDbEntity
  8
1
  6
Continuous
 62
     1
100
AcDbLine
 10
215.448862813465
 20
4083.556287771865
 30
0.0
 11
215.448862813465
 21
4075.8
 31
0.0
  0
LINE
  5
A7
330
A
100
AcDbEntity
  8
1
  6
Continuous
 62
     1
100
AcDbLine
 10
212.448862813465
 20
4083.556287771865
 30
0.0
 11
212.448862813465
 21
4075.8
 31
0.0
  0
LINE
  5
A6
330
A
100
AcDbEntity
  8
1
  6
Continuous
 62
     1
100
AcDbLine
 10
202.448862813465
 20
4083.556287771865
 30
0.0
 11
202.448862813465
 21
4075.8
 31
0.0
  0
LINE
  5
A5
330
A
100
AcDbEntity
  8
1
  6
Continuous
 62
     3
100
AcDbLine
 10
228.248862813465
 20
4075.8
 30
0.0
 11
238.248862813465
 21
4075.8
 31
0.0
  0
LINE
  5
A4
330
A
100
AcDbEntity
  8
1
  6
Continuous
 62
     3
100
AcDbLine
 10
223.848862813465
 20
4075.8
 30
0.0
 11
225.248862813465
 21
4075.8
 31
0.0
  0
LINE
  5
A3
330
A
100
AcDbEntity
  8
1
  6
Continuous
 62
     3
100
AcDbLine
 10
215.448862813465
 20
4075.8
 30
0.0
 11
216.848862813465
 21
4075.8
 31
0.0
  0
LINE
  5
A2
330
A
100
AcDbEntity
  8
1
  6
Continuous
 62
     3
100
AcDbLine
 10
202.448862813465
 20
4075.8
 30
0.0
 11
205.848862813465
 21
4075.8
 31
0.0
  0
LINE
  5
A1
330
A
100
AcDbEntity
  8
1
  6
Continuous
 62
     3
100
AcDbLine
 10
237.748862813465
 20
4083.056287771865
 30
0.0
 11
238.248862813465
 21
4083.556287771865
 31
0.0
  0
LINE
  5
A0
330
A
100
AcDbEntity
  8
1
  6
Continuous
 62
     3
100
AcDbLine
 10
228.748862813465
 20
4083.056287771865
 30
0.0
 11
228.248862813465
 21
4083.556287771865
 31
0.0
  0
LINE
  5
9F
330
A
100
AcDbEntity
  8
1
  6
Continuous
 62
     3
100
AcDbLine
 10
224.748862813465
 20
4083.056287771865
 30
0.0
 11
225.248862813465
 21
4083.556287771865
 31
0.0
  0
LINE
  5
9E
330
A
100
AcDbEntity
  8
1
  6
Continuous
 62
     3
100
AcDbLine
 10
215.948862813465
 20
4083.056287771865
 30
0.0
 11
215.448862813465
 21
4083.556287771865
 31
0.0
  0
LINE
  5
9D
330
A
100
AcDbEntity
  8
1
  6
Continuous
 62
     3
100
AcDbLine
 10
211.948862813465
 20
4083.056287771865
 30
0.0
 11
212.448862813465
 21
4083.556287771865
 31
0.0
  0
LINE
  5
9C
330
A
100
AcDbEntity
  8
1
  6
Continuous
 62
     3
100
AcDbLine
 10
205.848862813465
 20
4080.156287771866
 30
0.0
 11
202.948862813465
 21
4083.056287771865
 31
0.0
  0
LINE
  5
9B
330
A
100
AcDbEntity
  8
1
  6
Continuous
 62
     3
100
AcDbLine
 10
237.748862813465
 20
4075.8
 30
0.0
 11
237.748862813465
 21
4080.3
 31
0.0
  0
LINE
  5
9A
330
A
100
AcDbEntity
  8
1
  6
Continuous
 62
     3
100
AcDbLine
 10
199.448862813465
 20
4083.699999999999
 30
0.0
 11
240.748862813465
 21
4083.699999999999
 31
0.0
  0
LINE
  5
99
330
A
100
AcDbEntity
  8
1
  6
Continuous
 62
     3
100
AcDbLine
 10
224.748862813465
 20
4075.8
 30
0.0
 11
224.748862813465
 21
4080.3
 31
0.0
  0
LINE
  5
98
330
A
100
AcDbEntity
  8
1
  6
Continuous
 62
     3
100
AcDbLine
 10
228.748862813465
 20
4083.056287771865
 30
0.0
 11
228.748862813465
 21
4080.3
 31
0.0
  0
LINE
  5
97
330
A
100
AcDbEntity
  8
1
  6
Continuous
 62
     3
100
AcDbLine
 10
211.948862813465
 20
4075.8
 30
0.0
 11
211.948862813465
 21
4080.3
 31
0.0
  0
LINE
  5
96
330
A
100
AcDbEntity
  8
1
  6
Continuous
 62
     3
100
AcDbLine
 10
215.948862813465
 20
4083.056287771865
 30
0.0
 11
215.948862813465
 21
4080.3
 31
0.0
  0
LINE
  5
95
330
A
100
AcDbEntity
  8
1
  6
Continuous
 62
     3
100
AcDbLine
 10
198.948862813465
 20
4035.8
 30
0.0
 11
198.948862813465
 21
4083.2
 31
0.0
  0
LINE
  5
94
330
A
100
AcDbEntity
  8
1
  6
Continuous
 62
     3
100
AcDbLine
 10
202.948862813465
 20
4083.056287771865
 30
0.0
 11
202.948862813465
 21
4075.8
 31
0.0
  0
LINE
  5
93
330
A
100
AcDbEntity
  8
1
  6
DOT_CENTER
 62
     1
100
AcDbLine
 10
210.942073946511
 20
4042.8
 30
0.0
 11
246.994274453988
 21
4042.8
 31
0.0
  0
LINE
  5
92
330
A
100
AcDbEntity
  8
1
  6
DOT_CENTER
 62
     1
100
AcDbLine
 10
227.545823884319
 20
4059.292576550349
 30
0.0
 11
227.545823884319
 21
4026.315316124811
 31
0.0
  0
LINE
  5
91
330
A
100
AcDbEntity
  8
1
  6
Continuous
 62
     3
100
AcDbLine
 10
240.748862813465
 20
4164.89861585343
 30
0.0
 11
244.248862813465
 21
4164.89861585343
 31
0.0
  0
LINE
  5
90
330
A
100
AcDbEntity
  8
1
  6
Continuous
 62
     3
100
AcDbLine
 10
245.748862813465
 20
4163.39861585343
 30
0.0
 11
245.748862813465
 21
4116.998615853429
 31
0.0
  0
LINE
  5
8F
330
A
100
AcDbEntity
  8
1
  6
Continuous
 62
     3
100
AcDbLine
 10
240.748862813465
 20
4164.89861585343
 30
0.0
 11
240.748862813465
 21
4116.998615853429
 31
0.0
  0
LINE
  5
8E
330
A
100
AcDbEntity
  8
1
  6
Continuous
 62
     3
100
AcDbLine
 10
245.748862813465
 20
4163.39861585343
 30
0.0
 11
244.248862813465
 21
4164.89861585343
 31
0.0
  0
LINE
  5
8D
330
A
100
AcDbEntity
  8
1
  6
Continuous
 62
     6
100
AcDbLine
 10
244.248862813465
 20
4164.89861585343
 30
0.0
 11
244.248862813465
 21
4116.998615853429
 31
0.0
  0
LINE
  5
8C
330
A
100
AcDbEntity
  8
1
  6
Continuous
 62
     3
100
AcDbLine
 10
244.248862813465
 20
4035.8
 30
0.0
 11
245.748862813465
 21
4035.8
 31
0.0
  0
LINE
  5
8B
330
A
100
AcDbEntity
  8
1
  6
Continuous
 62
     6
100
AcDbLine
 10
244.248862813465
 20
4083.700000000001
 30
0.0
 11
244.248862813465
 21
4035.8
 31
0.0
  0
LINE
  5
8A
330
A
100
AcDbEntity
  8
1
  6
Continuous
 62
     3
100
AcDbLine
 10
245.748862813465
 20
4082.200000000001
 30
0.0
 11
244.248862813465
 21
4083.700000000001
 31
0.0
  0
LINE
  5
89
330
A
100
AcDbEntity
  8
1
  6
Continuous
 62
     3
100
AcDbLine
 10
240.748862813465
 20
4083.699999999999
 30
0.0
 11
240.748862813465
 21
4073.8
 31
0.0
  0
LINE
  5
88
330
A
100
AcDbEntity
  8
1
  6
Continuous
 62
     3
100
AcDbLine
 10
240.748862813465
 20
4035.8
 30
0.0
 11
244.248862813465
 21
4035.8
 31
0.0
  0
LINE
  5
87
330
A
100
AcDbEntity
  8
1
  6
Continuous
 62
     3
100
AcDbLine
 10
245.748862813465
 20
4082.200000000001
 30
0.0
 11
245.748862813465
 21
4035.8
 31
0.0
  0
LINE
  5
86
330
A
100
AcDbEntity
  8
1
  6
Continuous
 62
     3
100
AcDbLine
 10
240.748862813465
 20
4083.699999999999
 30
0.0
 11
244.248862813465
 21
4083.700000000001
 31
0.0
  0
LINE
  5
85
330
A
100
AcDbEntity
  8
1
  6
DOTTED
 62
     1
100
AcDbLine
 10
241.748862813465
 20
4035.8
 30
0.0
 11
241.748862813465
 21
4082.700000000001
 31
0.0
  0
LINE
  5
84
330
A
100
AcDbEntity
  8
1
  6
DOTTED
 62
     1
100
AcDbLine
 10
241.748862813465
 20
4073.8
 30
0.0
 11
240.748862813465
 21
4073.8
 31
0.0
  0
LINE
  5
83
330
A
100
AcDbEntity
  8
1
  6
DOTTED
 62
     1
100
AcDbLine
 10
241.748862813465
 20
4082.700000000001
 30
0.0
 11
240.748862813465
 21
4083.699999999999
 31
0.0
  0
LINE
  5
82
330
A
100
AcDbEntity
  8
1
  6
DOTTED
 62
     1
100
AcDbLine
 10
241.748862813465
 20
4001.501384146572
 30
0.0
 11
240.748862813465
 21
4002.501384146571
 31
0.0
  0
LINE
  5
81
330
A
100
AcDbEntity
  8
1
  6
DOTTED
 62
     1
100
AcDbLine
 10
241.748862813465
 20
3992.601384146571
 30
0.0
 11
240.748862813465
 21
3992.601384146571
 31
0.0
  0
LINE
  5
80
330
A
100
AcDbEntity
  8
1
  6
DOTTED
 62
     1
100
AcDbLine
 10
241.748862813465
 20
3954.601384146571
 30
0.0
 11
241.748862813465
 21
4001.501384146572
 31
0.0
  0
LINE
  5
7F
330
A
100
AcDbEntity
  8
1
  6
Continuous
 62
     3
100
AcDbLine
 10
240.748862813465
 20
4002.501384146571
 30
0.0
 11
244.248862813465
 21
4002.501384146572
 31
0.0
  0
LINE
  5
7E
330
A
100
AcDbEntity
  8
1
  6
Continuous
 62
     3
100
AcDbLine
 10
245.748862813465
 20
4001.001384146572
 30
0.0
 11
245.748862813465
 21
3954.601384146571
 31
0.0
  0
LINE
  5
7D
330
A
100
AcDbEntity
  8
1
  6
Continuous
 62
     3
100
AcDbLine
 10
240.748862813465
 20
3954.601384146571
 30
0.0
 11
244.248862813465
 21
3954.601384146571
 31
0.0
  0
LINE
  5
7C
330
A
100
AcDbEntity
  8
1
  6
Continuous
 62
     3
100
AcDbLine
 10
240.748862813465
 20
4002.501384146571
 30
0.0
 11
240.748862813465
 21
3992.601384146571
 31
0.0
  0
LINE
  5
7B
330
A
100
AcDbEntity
  8
1
  6
Continuous
 62
     3
100
AcDbLine
 10
245.748862813465
 20
4001.001384146572
 30
0.0
 11
244.248862813465
 21
4002.501384146572
 31
0.0
  0
LINE
  5
7A
330
A
100
AcDbEntity
  8
1
  6
Continuous
 62
     6
100
AcDbLine
 10
244.248862813465
 20
4002.501384146572
 30
0.0
 11
244.248862813465
 21
3954.601384146571
 31
0.0
  0
LINE
  5
79
330
A
100
AcDbEntity
  8
1
  6
Continuous
 62
     3
100
AcDbLine
 10
244.248862813465
 20
3954.601384146571
 30
0.0
 11
245.748862813465
 21
3954.601384146571
 31
0.0
  0
LINE
  5
78
330
A
100
AcDbEntity
  8
1
  6
Continuous
 62
     3
100
AcDbLine
 10
240.748862813465
 20
4073.8
 30
0.0
 11
240.748862813465
 21
4035.8
 31
0.0
  0
LINE
  5
77
330
A
100
AcDbEntity
  8
1
  6
Continuous
 62
     3
100
AcDbLine
 10
240.748862813465
 20
3992.601384146571
 30
0.0
 11
240.748862813465
 21
3954.601384146571
 31
0.0
  0
LINE
  5
76
330
A
100
AcDbEntity
  8
1
  6
Continuous
 62
     1
100
AcDbLine
 10
4.544887242711999
 20
4037.3
 30
0.0
 11
4.544887242711999
 21
4030.005694057648
 31
0.0
  0
LINE
  5
75
330
A
100
AcDbEntity
  8
1
  6
Continuous
 62
     1
100
AcDbLine
 10
7.586437092869999
 20
4030.005694057648
 30
0.0
 11
7.586437092869999
 21
4037.3
 31
0.0
  0
LINE
  5
74
330
A
100
AcDbEntity
  8
1
  6
Continuous
 62
     6
100
AcDbLine
 10
4.315662167791
 20
4031.1
 30
0.0
 11
4.315662167791
 21
4037.3
 31
0.0
  0
LINE
  5
73
330
A
100
AcDbEntity
  8
1
  6
Continuous
 62
     6
100
AcDbLine
 10
7.815662167790999
 20
4031.1
 30
0.0
 11
7.815662167790999
 21
4037.3
 31
0.0
  0
LINE
  5
72
330
A
100
AcDbEntity
  8
1
  6
Continuous
 62
     3
100
AcDbLine
 10
9.765662167790999
 20
4032.019804218282
 30
0.0
 11
9.765662167790999
 21
4035.8
 31
0.0
  0
LINE
  5
71
330
A
100
AcDbEntity
  8
1
  6
Continuous
 62
     3
100
AcDbLine
 10
7.815662167790999
 20
4031.1
 30
0.0
 11
9.568268210788
 21
4031.737896432047
 31
0.0
  0
LINE
  5
70
330
A
100
AcDbEntity
  8
1
  6
Continuous
 62
     3
100
AcDbLine
 10
7.630149529419998
 20
4030.0479055467
 30
0.0
 11
7.815662167790999
 21
4031.1
 31
0.0
  0
LINE
  5
6F
330
A
100
AcDbEntity
  8
1
  6
Continuous
 62
     3
100
AcDbLine
 10
4.796617132065
 20
4029.8
 30
0.0
 11
7.334707203516
 21
4029.8
 31
0.0
  0
LINE
  5
6E
330
A
100
AcDbEntity
  8
1
  6
Continuous
 62
     3
100
AcDbLine
 10
4.315662167791
 20
4031.1
 30
0.0
 11
4.501174806160999
 21
4030.0479055467
 31
0.0
  0
LINE
  5
6D
330
A
100
AcDbEntity
  8
1
  6
Continuous
 62
     3
100
AcDbLine
 10
2.563056124792999
 20
4031.737896432047
 30
0.0
 11
4.315662167791
 21
4031.1
 31
0.0
  0
LINE
  5
6C
330
A
100
AcDbEntity
  8
1
  6
Continuous
 62
     3
100
AcDbLine
 10
2.365662167791
 20
4035.8
 30
0.0
 11
2.365662167791
 21
4032.019804218282
 31
0.0
  0
LINE
  5
6B
330
A
100
AcDbEntity
  8
1
  6
Continuous
 62
     3
100
AcDbLine
 10
3.065662167790999
 20
4037.3
 30
0.0
 11
9.065662167790998
 21
4037.3
 31
0.0
  0
LINE
  5
6A
330
A
100
AcDbEntity
  8
1
  6
Continuous
 62
     3
100
AcDbLine
 10
3.065662167790999
 20
4035.8
 30
0.0
 11
-1.834337832209
 21
4035.8
 31
0.0
  0
LINE
  5
69
330
A
100
AcDbEntity
  8
1
  6
Continuous
 62
     1
100
AcDbLine
 10
67.03976799959699
 20
4037.3
 30
0.0
 11
67.03976799959699
 21
4030.005694057648
 31
0.0
  0
LINE
  5
68
330
A
100
AcDbEntity
  8
1
  6
Continuous
 62
     1
100
AcDbLine
 10
70.081317849754
 20
4030.005694057648
 30
0.0
 11
70.081317849754
 21
4035.8
 31
0.0
  0
LINE
  5
67
330
A
100
AcDbEntity
  8
1
  6
Continuous
 62
     6
100
AcDbLine
 10
66.81054292467499
 20
4031.1
 30
0.0
 11
66.81054292467499
 21
4037.3
 31
0.0
  0
LINE
  5
66
330
A
100
AcDbEntity
  8
1
  6
Continuous
 62
     6
100
AcDbLine
 10
70.31054292467499
 20
4031.1
 30
0.0
 11
70.31054292467499
 21
4035.8
 31
0.0
  0
LINE
  5
65
330
A
100
AcDbEntity
  8
1
  6
Continuous
 62
     3
100
AcDbLine
 10
72.26054292467499
 20
4032.019804218282
 30
0.0
 11
72.26054292467499
 21
4035.8
 31
0.0
  0
LINE
  5
64
330
A
100
AcDbEntity
  8
1
  6
Continuous
 62
     3
100
AcDbLine
 10
70.31054292467499
 20
4031.1
 30
0.0
 11
72.063148967673
 21
4031.737896432047
 31
0.0
  0
LINE
  5
63
330
A
100
AcDbEntity
  8
1
  6
Continuous
 62
     3
100
AcDbLine
 10
70.12503028630501
 20
4030.0479055467
 30
0.0
 11
70.31054292467499
 21
4031.1
 31
0.0
  0
LINE
  5
62
330
A
100
AcDbEntity
  8
1
  6
Continuous
 62
     3
100
AcDbLine
 10
67.29149788895
 20
4029.8
 30
0.0
 11
69.829587960401
 21
4029.8
 31
0.0
  0
LINE
  5
61
330
A
100
AcDbEntity
  8
1
  6
Continuous
 62
     3
100
AcDbLine
 10
66.81054292467499
 20
4031.1
 30
0.0
 11
66.996055563046
 21
4030.0479055467
 31
0.0
  0
LINE
  5
60
330
A
100
AcDbEntity
  8
1
  6
Continuous
 62
     3
100
AcDbLine
 10
65.057936881678
 20
4031.737896432047
 30
0.0
 11
66.81054292467499
 21
4031.1
 31
0.0
  0
LINE
  5
5F
330
A
100
AcDbEntity
  8
1
  6
Continuous
 62
     3
100
AcDbLine
 10
64.860542924675
 20
4037.3
 30
0.0
 11
64.860542924675
 21
4032.019804218282
 31
0.0
  0
LINE
  5
5E
330
A
100
AcDbEntity
  8
1
  6
Continuous
 62
     1
100
AcDbLine
 10
-57.949993514173
 20
4035.8
 30
0.0
 11
-57.949993514173
 21
4030.005694057648
 31
0.0
  0
LINE
  5
5D
330
A
100
AcDbEntity
  8
1
  6
Continuous
 62
     1
100
AcDbLine
 10
-54.908443664015
 20
4030.005694057648
 30
0.0
 11
-54.908443664015
 21
4037.3
 31
0.0
  0
LINE
  5
5C
330
A
100
AcDbEntity
  8
1
  6
Continuous
 62
     6
100
AcDbLine
 10
-58.179218589094
 20
4031.1
 30
0.0
 11
-58.179218589094
 21
4035.8
 31
0.0
  0
LINE
  5
5B
330
A
100
AcDbEntity
  8
1
  6
Continuous
 62
     6
100
AcDbLine
 10
-54.679218589094
 20
4031.1
 30
0.0
 11
-54.679218589094
 21
4037.3
 31
0.0
  0
LINE
  5
5A
330
A
100
AcDbEntity
  8
1
  6
Continuous
 62
     3
100
AcDbLine
 10
-52.729218589094
 20
4032.019804218282
 30
0.0
 11
-52.729218589094
 21
4037.3
 31
0.0
  0
LINE
  5
59
330
A
100
AcDbEntity
  8
1
  6
Continuous
 62
     3
100
AcDbLine
 10
-54.679218589094
 20
4031.1
 30
0.0
 11
-52.926612546096
 21
4031.737896432047
 31
0.0
  0
LINE
  5
58
330
A
100
AcDbEntity
  8
1
  6
Continuous
 62
     3
100
AcDbLine
 10
-54.864731227465
 20
4030.0479055467
 30
0.0
 11
-54.679218589094
 21
4031.1
 31
0.0
  0
LINE
  5
57
330
A
100
AcDbEntity
  8
1
  6
Continuous
 62
     3
100
AcDbLine
 10
-57.69826362482
 20
4029.8
 30
0.0
 11
-55.16017355336799
 21
4029.8
 31
0.0
  0
LINE
  5
56
330
A
100
AcDbEntity
  8
1
  6
Continuous
 62
     3
100
AcDbLine
 10
-58.179218589094
 20
4031.1
 30
0.0
 11
-57.99370595072399
 21
4030.0479055467
 31
0.0
  0
LINE
  5
55
330
A
100
AcDbEntity
  8
1
  6
Continuous
 62
     3
100
AcDbLine
 10
-59.931824632092
 20
4031.737896432047
 30
0.0
 11
-58.179218589094
 21
4031.1
 31
0.0
  0
LINE
  5
54
330
A
100
AcDbEntity
  8
1
  6
Continuous
 62
     3
100
AcDbLine
 10
-60.129218589094
 20
4035.8
 30
0.0
 11
-60.129218589094
 21
4032.019804218282
 31
0.0
  0
LINE
  5
53
330
A
100
AcDbEntity
  8
1
  6
Continuous
 62
     3
100
AcDbLine
 10
-57.429218589094
 20
4035.8
 30
0.0
 11
-62.32921858909399
 21
4035.8
 31
0.0
  0
LINE
  5
52
330
A
100
AcDbEntity
  8
1
  6
Continuous
 62
     3
100
AcDbLine
 10
-57.429218589094
 20
4037.3
 30
0.0
 11
-52.729218589094
 21
4037.3
 31
0.0
  0
LINE
  5
51
330
A
100
AcDbEntity
  8
1
  6
Continuous
 62
     3
100
AcDbLine
 10
-52.729218589094
 20
4037.3
 30
0.0
 11
-51.42921858909399
 21
4037.3
 31
0.0
  0
LINE
  5
50
330
A
100
AcDbEntity
  8
1
  6
Continuous
 62
     3
100
AcDbLine
 10
3.065662167790999
 20
4116.998615853429
 30
0.0
 11
-1.834337832209
 21
4116.998615853429
 31
0.0
  0
LINE
  5
4F
330
A
100
AcDbEntity
  8
1
  6
Continuous
 62
     3
100
AcDbLine
 10
3.065662167790999
 20
4118.498615853429
 30
0.0
 11
9.065662167790998
 21
4118.498615853429
 31
0.0
  0
LINE
  5
4E
330
A
100
AcDbEntity
  8
1
  6
Continuous
 62
     3
100
AcDbLine
 10
2.365662167791
 20
4116.998615853429
 30
0.0
 11
2.365662167791
 21
4110.718420071711
 31
0.0
  0
LINE
  5
4D
330
A
100
AcDbEntity
  8
1
  6
Continuous
 62
     3
100
AcDbLine
 10
2.563056124792999
 20
4110.436512285476
 30
0.0
 11
4.315662167791
 21
4109.79861585343
 31
0.0
  0
LINE
  5
4C
330
A
100
AcDbEntity
  8
1
  6
Continuous
 62
     3
100
AcDbLine
 10
4.315662167791
 20
4109.79861585343
 30
0.0
 11
4.501174806160999
 21
4108.74652140013
 31
0.0
  0
LINE
  5
4B
330
A
100
AcDbEntity
  8
1
  6
Continuous
 62
     3
100
AcDbLine
 10
4.796617132065
 20
4108.498615853429
 30
0.0
 11
7.334707203516
 21
4108.498615853429
 31
0.0
  0
LINE
  5
4A
330
A
100
AcDbEntity
  8
1
  6
Continuous
 62
     3
100
AcDbLine
 10
7.630149529419998
 20
4108.74652140013
 30
0.0
 11
7.815662167790999
 21
4109.79861585343
 31
0.0
  0
LINE
  5
49
330
A
100
AcDbEntity
  8
1
  6
Continuous
 62
     3
100
AcDbLine
 10
7.815662167790999
 20
4109.79861585343
 30
0.0
 11
9.568268210788
 21
4110.436512285476
 31
0.0
  0
LINE
  5
48
330
A
100
AcDbEntity
  8
1
  6
Continuous
 62
     3
100
AcDbLine
 10
9.765662167790999
 20
4110.718420071711
 30
0.0
 11
9.765662167790999
 21
4116.998615853429
 31
0.0
  0
LINE
  5
47
330
A
100
AcDbEntity
  8
1
  6
Continuous
 62
     6
100
AcDbLine
 10
7.815662167790999
 20
4109.79861585343
 30
0.0
 11
7.815662167790999
 21
4118.498615853429
 31
0.0
  0
LINE
  5
46
330
A
100
AcDbEntity
  8
1
  6
Continuous
 62
     6
100
AcDbLine
 10
4.315662167791
 20
4109.79861585343
 30
0.0
 11
4.315662167791
 21
4118.498615853429
 31
0.0
  0
LINE
  5
45
330
A
100
AcDbEntity
  8
1
  6
Continuous
 62
     1
100
AcDbLine
 10
7.586437092869999
 20
4108.63542252389
 30
0.0
 11
7.586437092869999
 21
4118.498615853429
 31
0.0
  0
LINE
  5
44
330
A
100
AcDbEntity
  8
1
  6
Continuous
 62
     1
100
AcDbLine
 10
4.544887242711999
 20
4118.498615853429
 30
0.0
 11
4.544887242711999
 21
4108.635422523889
 31
0.0
  0
LINE
  5
43
330
A
100
AcDbEntity
  8
1
  6
Continuous
 62
     3
100
AcDbLine
 10
13.965662167791
 20
4116.998615853429
 30
0.0
 11
9.065662167790998
 21
4116.998615853429
 31
0.0
  0
LINE
  5
42
330
A
100
AcDbEntity
  8
1
  6
Continuous
 62
     3
100
AcDbLine
 10
3.065662167790999
 20
4116.998615853429
 30
0.0
 11
3.065662167790999
 21
4118.498615853429
 31
0.0
  0
LINE
  5
41
330
A
100
AcDbEntity
  8
1
  6
Continuous
 62
     3
100
AcDbLine
 10
9.065662167790998
 20
4118.498615853429
 30
0.0
 11
9.065662167790998
 21
4116.998615853429
 31
0.0
  0
LINE
  5
40
330
A
100
AcDbEntity
  8
1
  6
Continuous
 62
     3
100
AcDbLine
 10
3.065662167790999
 20
3954.601384146571
 30
0.0
 11
-1.834337832209
 21
3954.601384146571
 31
0.0
  0
LINE
  5
3F
330
A
100
AcDbEntity
  8
1
  6
Continuous
 62
     3
100
AcDbLine
 10
3.065662167790999
 20
3956.101384146571
 30
0.0
 11
9.065662167790998
 21
3956.101384146571
 31
0.0
  0
LINE
  5
3E
330
A
100
AcDbEntity
  8
1
  6
Continuous
 62
     3
100
AcDbLine
 10
2.365662167791
 20
3954.601384146571
 30
0.0
 11
2.365662167791
 21
3953.321188364853
 31
0.0
  0
LINE
  5
3D
330
A
100
AcDbEntity
  8
1
  6
Continuous
 62
     3
100
AcDbLine
 10
2.563056124792999
 20
3953.039280578617
 30
0.0
 11
4.315662167791
 21
3952.401384146571
 31
0.0
  0
LINE
  5
3C
330
A
100
AcDbEntity
  8
1
  6
Continuous
 62
     3
100
AcDbLine
 10
4.315662167791
 20
3952.401384146571
 30
0.0
 11
4.501174806160999
 21
3951.349289693271
 31
0.0
  0
LINE
  5
3B
330
A
100
AcDbEntity
  8
1
  6
Continuous
 62
     3
100
AcDbLine
 10
4.796617132065
 20
3951.101384146571
 30
0.0
 11
7.334707203516
 21
3951.101384146571
 31
0.0
  0
LINE
  5
3A
330
A
100
AcDbEntity
  8
1
  6
Continuous
 62
     3
100
AcDbLine
 10
7.630149529419998
 20
3951.349289693271
 30
0.0
 11
7.815662167790999
 21
3952.401384146571
 31
0.0
  0
LINE
  5
39
330
A
100
AcDbEntity
  8
1
  6
Continuous
 62
     3
100
AcDbLine
 10
7.815662167790999
 20
3952.401384146571
 30
0.0
 11
9.568268210788
 21
3953.039280578617
 31
0.0
  0
LINE
  5
38
330
A
100
AcDbEntity
  8
1
  6
Continuous
 62
     3
100
AcDbLine
 10
9.765662167790999
 20
3953.321188364853
 30
0.0
 11
9.765662167790999
 21
3954.601384146571
 31
0.0
  0
LINE
  5
37
330
A
100
AcDbEntity
  8
1
  6
Continuous
 62
     6
100
AcDbLine
 10
7.815662167790999
 20
3952.401384146571
 30
0.0
 11
7.815662167790999
 21
3956.101384146571
 31
0.0
  0
LINE
  5
36
330
A
100
AcDbEntity
  8
1
  6
Continuous
 62
     6
100
AcDbLine
 10
4.315662167791
 20
3952.401384146571
 30
0.0
 11
4.315662167791
 21
3956.101384146571
 31
0.0
  0
LINE
  5
35
330
A
100
AcDbEntity
  8
1
  6
Continuous
 62
     1
100
AcDbLine
 10
7.586437092869999
 20
3951.238190817031
 30
0.0
 11
7.586437092869999
 21
3956.101384146571
 31
0.0
  0
LINE
  5
34
330
A
100
AcDbEntity
  8
1
  6
Continuous
 62
     1
100
AcDbLine
 10
4.544887242711999
 20
3956.101384146571
 30
0.0
 11
4.544887242711999
 21
3951.238190817031
 31
0.0
  0
LINE
  5
33
330
A
100
AcDbEntity
  8
1
  6
Continuous
 62
     3
100
AcDbLine
 10
13.965662167791
 20
3954.601384146571
 30
0.0
 11
9.065662167790998
 21
3954.601384146571
 31
0.0
  0
LINE
  5
32
330
A
100
AcDbEntity
  8
1
  6
Continuous
 62
     3
100
AcDbLine
 10
3.065662167790999
 20
3954.601384146571
 30
0.0
 11
3.065662167790999
 21
3956.101384146571
 31
0.0
  0
LINE
  5
31
330
A
100
AcDbEntity
  8
1
  6
Continuous
 62
     3
100
AcDbLine
 10
9.065662167790998
 20
3956.101384146571
 30
0.0
 11
9.065662167790998
 21
3954.601384146571
 31
0.0
  0
LINE
  5
30
330
A
100
AcDbEntity
  8
1
  6
DOT_CENTER
 62
     1
100
AcDbLine
 10
155.254307439155
 20
4042.8
 30
0.0
 11
155.964049395974
 21
4042.8
 31
0.0
  0
LINE
  5
2F
330
A
100
AcDbEntity
  8
1
  6
DOT_CENTER
 62
     1
100
AcDbLine
 10
155.964049395974
 20
4042.8
 30
0.0
 11
163.712499965643
 21
4042.8
 31
0.0
  0
LINE
  5
2E
330
A
100
AcDbEntity
  8
1
  6
Continuous
 62
     3
100
AcDbLine
 10
135.791400940166
 20
4035.8
 30
0.0
 11
134.889082729367
 21
4035.8
 31
0.0
  0
LINE
  5
2D
330
A
100
AcDbEntity
  8
1
  6
Continuous
 62
     3
100
AcDbLine
 10
152.736697851782
 20
4035.8
 30
0.0
 11
135.791400940166
 21
4035.8
 31
0.0
  0
LINE
  5
2C
330
A
100
AcDbEntity
  8
1
  6
Continuous
 62
     3
100
AcDbLine
 10
153.639016062581
 20
4035.8
 30
0.0
 11
152.736697851782
 21
4035.8
 31
0.0
  0
LINE
  5
2B
330
A
100
AcDbEntity
  8
1
  6
Continuous
 62
     3
100
AcDbLine
 10
134.889082729367
 20
4035.8
 30
0.0
 11
115.66708832512
 21
4035.8
 31
0.0
  0
LINE
  5
2A
330
A
100
AcDbEntity
  8
1
  6
Continuous
 62
     3
100
AcDbLine
 10
202.448862813465
 20
4116.998615853429
 30
0.0
 11
198.948862813465
 21
4116.998615853429
 31
0.0
  0
LINE
  5
29
330
A
100
AcDbEntity
  8
1
  6
Continuous
 62
     3
100
AcDbLine
 10
202.448862813465
 20
4116.998615853429
 30
0.0
 11
245.748862813465
 21
4116.998615853429
 31
0.0
  0
LINE
  5
28
330
A
100
AcDbEntity
  8
1
  6
Continuous
 62
     3
100
AcDbLine
 10
158.46708832512
 20
3954.601384146571
 30
0.0
 11
115.66708832512
 21
3954.601384146571
 31
0.0
  0
SOLID
  5
36C
330
A
100
AcDbEntity
  8
0
 62
     1
100
AcDbTrace
 10
247.338081540851
 20
4058.946400559006
 30
0.0
 11
247.790628329811
 21
4058.468372414618
 31
0.0
 12
245.748862813465
 22
4056.988669420089
 32
0.0
 13
245.748862813465
 23
4056.988669420089
 33
0.0
  0
ENDSEC
  0
SECTION
  2
OBJECTS
  0
DICTIONARY
  5
19
330
0
100
AcDbDictionary
281
     1
  3
ACAD_COLOR
350
38E
  3
ACAD_GROUP
350
1A
  3
ACAD_LAYOUT
350
391
  3
ACAD_MATERIAL
350
38D
  3
ACAD_MLINESTYLE
350
1B
  3
ACAD_PLOTSETTINGS
350
392
  3
ACAD_PLOTSTYLENAME
350
38B
  3
ACAD_TABLESTYLE
350
38F
  3
ACDBHEADERROUNDTRIPXREC
350
579
  3
AcDbVariableDictionary
350
572
  3
AcmDictionary
350
50C
  3
AMG
350
44B
  3
AMGSNAPSETTINGS
350
562
  3
ASE_INDEX_DICTIONARY
350
56A
  3
DWGPROPS
350
578
  3
MAPISURF_MODULE
350
4D8
  0
DICTIONARY
  5
56D
330
A
100
AcDbDictionary
280
     1
281
     1
  3
ACAD_INDEX
360
56E
  0
DICTIONARY
  5
38E
102
{ACAD_REACTORS
330
19
102
}
330
19
100
AcDbDictionary
281
     1
  0
DICTIONARY
  5
1A
102
{ACAD_REACTORS
330
19
102
}
330
19
100
AcDbDictionary
281
     1
  0
DICTIONARY
  5
391
102
{ACAD_REACTORS
330
19
102
}
330
19
100
AcDbDictionary
281
     1
  3
Model
350
393
  3
レイアウト1
350
394
  0
DICTIONARY
  5
38D
102
{ACAD_REACTORS
330
19
102
}
330
19
100
AcDbDictionary
281
     1
  0
DICTIONARY
  5
1B
102
{ACAD_REACTORS
330
19
102
}
330
19
100
AcDbDictionary
281
     1
  3
STANDARD
350
1C
  0
DICTIONARY
  5
392
102
{ACAD_REACTORS
330
19
102
}
330
19
100
AcDbDictionary
281
     1
  0
ACDBDICTIONARYWDFLT
  5
38B
102
{ACAD_REACTORS
330
19
102
}
330
19
100
AcDbDictionary
281
     1
  3
Normal
350
38C
100
AcDbDictionaryWithDefault
340
38C
  0
DICTIONARY
  5
38F
102
{ACAD_REACTORS
330
19
102
}
330
19
100
AcDbDictionary
281
     1
  3
Standard
350
390
  0
DICTIONARY
  5
579
102
{ACAD_REACTORS
330
19
102
}
330
19
100
AcDbDictionary
281
     1
  0
DICTIONARY
  5
572
102
{ACAD_REACTORS
330
19
102
}
330
19
100
AcDbDictionary
281
     1
  3
CTABLESTYLE
350
573
  3
DIMASSOC
350
575
  3
INDEXCTL
350
574
  3
PROJECTNAME
350
576
  0
DICTIONARY
  5
50C
102
{ACAD_REACTORS
330
19
102
}
330
19
100
AcDbDictionary
281
     1
  3
AcmStdDictionary
350
518
  3
AMDTSECTSYM_ARROWCOLOR
350
537
  0
DICTIONARY
  5
44B
102
{ACAD_REACTORS
330
19
102
}
330
19
100
AcDbDictionary
281
     1
  3
AcMgSettings
350
44C
  0
DICTIONARY
  5
562
102
{ACAD_REACTORS
330
19
102
}
330
19
100
AcDbDictionary
281
     1
  3
DIMENSION
350
567
  3
FEA
350
566
  3
HATCH (1)
350
563
  3
HATCH (2)
350
564
  3
SIMPLE WELD
350
568
  3
SYMBOLS
350
565
  0
DICTIONARY
  5
56A
102
{ACAD_REACTORS
330
19
102
}
330
19
100
AcDbDictionary
281
     1
  3
ASEBlockHierarchyIndexRecord
350
56C
1001
DCO15
1040
1937899053.308
  0
XRECORD
  5
578
102
{ACAD_REACTORS
330
19
102
}
330
19
100
AcDbXrecord
280
     1
  1
DWGPROPS COOKIE
  2

  3

  4

  6

  7

  8

  9

300
AmdtFileType=84
301
=
302
=
303
=
304
=
305
=
306
=
307
=
308
=
309
=
 40
0.0002736111111111
 41
2305814.417176053
 42
2458232.599042917
  1

 90
        1
  0
DICTIONARY
  5
56E
102
{ACAD_REACTORS
330
56D
102
}
330
56D
100
AcDbDictionary
281
     1
  3
*A1
350
56F
  0
LAYOUT
  5
393
102
{ACAD_XDICTIONARY
360
57A
102
}
102
{ACAD_REACTORS
330
391
102
}
330
391
100
AcDbPlotSettings
  1

  2
Adobe PDF#:3
  4

  6

 40
0.0
 41
0.0
 42
0.0
 43
0.0
 44
0.0
 45
0.0
 46
0.0
 47
0.0
 48
0.0
 49
0.0
140
0.0
141
0.0
142
1.0
143
1.0
 70
  1712
 72
     0
 73
     0
 74
     0
  7

 75
     0
147
1.0
148
0.0
149
0.0
100
AcDbLayout
  1
Model
 70
     1
 71
     0
 10
0.0
 20
0.0
 11
12.0
 21
9.0
 12
0.0
 22
0.0
 32
0.0
 14
0.0
 24
0.0
 34
0.0
 15
0.0
 25
0.0
 35
0.0
146
0.0
 13
0.0
 23
0.0
 33
0.0
 16
1.0
 26
0.0
 36
0.0
 17
0.0
 27
1.0
 37
0.0
 76
     0
330
A
  0
LAYOUT
  5
394
102
{ACAD_XDICTIONARY
360
57C
102
}
102
{ACAD_REACTORS
330
391
102
}
330
391
100
AcDbPlotSettings
  1

  2
Adobe PDF#:3
  4

  6

 40
0.0
 41
0.0
 42
0.0
 43
0.0
 44
0.0
 45
0.0
 46
0.0
 47
0.0
 48
0.0
 49
0.0
140
0.0
141
0.0
142
1.0
143
1.0
 70
   688
 72
     0
 73
     0
 74
     5
  7

 75
    16
147
1.0
148
0.0
149
0.0
100
AcDbLayout
  1
レイアウト1
 70
     0
 71
     1
 10
0.0
 20
0.0
 11
12.0
 21
9.0
 12
0.0
 22
0.0
 32
0.0
 14
1.000000000000000E+20
 24
1.000000000000000E+20
 34
1.000000000000000E+20
 15
-1.000000000000000E+20
 25
-1.000000000000000E+20
 35
-1.000000000000000E+20
146
0.0
 13
0.0
 23
0.0
 33
0.0
 16
1.0
 26
0.0
 36
0.0
 17
0.0
 27
1.0
 37
0.0
 76
     0
330
B
  0
MLINESTYLE
  5
1C
102
{ACAD_REACTORS
330
1B
102
}
330
1B
100
AcDbMlineStyle
  2
STANDARD
 70
     0
  3

 62
     0
 51
90.0
 52
90.0
 71
     2
 49
0.5
 62
   256
  6
BYLAYER
 49
-0.5
 62
   256
  6
BYLAYER
  0
ACDBPLACEHOLDER
  5
38C
102
{ACAD_REACTORS
330
38B
102
}
330
38B
  0
TABLESTYLE
  5
390
102
{ACAD_REACTORS
330
38F
102
}
330
38F
100
AcDbTableStyle
  3
Standard
 70
     0
 71
     0
 40
1.5
 41
1.5
280
     0
281
     0
  7
STANDARD
140
4.5
170
     2
 62
     0
 63
     7
283
     0
274
    -2
284
     1
 64
     0
275
    -2
285
     1
 65
     0
276
    -2
286
     1
 66
     0
277
    -2
287
     1
 67
     0
278
    -2
288
     1
 68
     0
279
    -2
289
     1
 69
     0
  7
STANDARD
140
6.0
170
     5
 62
     0
 63
     7
283
     0
274
    -2
284
     1
 64
     0
275
    -2
285
     1
 65
     0
276
    -2
286
     1
 66
     0
277
    -2
287
     1
 67
     0
278
    -2
288
     1
 68
     0
279
    -2
289
     1
 69
     0
  7
STANDARD
140
4.5
170
     5
 62
     0
 63
     7
283
     0
274
    -2
284
     1
 64
     0
275
    -2
285
     1
 65
     0
276
    -2
286
     1
 66
     0
277
    -2
287
     1
 67
     0
278
    -2
288
     1
 68
     0
279
    -2
289
     1
 69
     0
  0
DICTIONARYVAR
  5
573
102
{ACAD_REACTORS
330
572
102
}
330
572
100
DictionaryVariables
280
     0
  1
STANDARD
  0
DICTIONARYVAR
  5
575
102
{ACAD_REACTORS
330
572
102
}
330
572
100
DictionaryVariables
280
     0
  1
1
  0
DICTIONARYVAR
  5
574
102
{ACAD_REACTORS
330
572
102
}
330
572
100
DictionaryVariables
280
     0
  1
1
  0
DICTIONARYVAR
  5
576
102
{ACAD_REACTORS
330
572
102
}
330
572
100
DictionaryVariables
280
     0
  1

  0
DICTIONARY
  5
518
102
{ACAD_REACTORS
330
50C
102
}
330
50C
100
AcDbDictionary
281
     1
  0
XRECORD
  5
537
102
{ACAD_REACTORS
330
50C
102
}
330
50C
100
AcDbXrecord
280
     1
 90
-1023410169
  0
DICTIONARY
  5
44C
102
{ACAD_REACTORS
330
44B
102
}
330
44B
100
AcDbDictionary
281
     1
  3
DWGSETTINGS
350
44D
  3
TRANSSETTINGS
350
451
  0
ACAMGFILTERDAT
  5
567
102
{ACAD_REACTORS
330
562
102
}
330
562
100
AcAmgFilterDat
 70
    15
  1
DIMENSION,AMDT_*_DIM
  2
*
  3
*
  4
*
  5
*
290
     1
  0
ACAMGFILTERDAT
  5
566
102
{ACAD_REACTORS
330
562
102
}
330
562
100
AcAmgFilterDat
 70
    15
  1
*
  2
AM_FEA-AM_*
  3
*
  4
*
  5
*
290
     1
  0
ACAMGFILTERDAT
  5
563
102
{ACAD_REACTORS
330
562
102
}
330
562
100
AcAmgFilterDat
 70
    15
  1
HATCH
  2
*
  3
*
  4
*
  5
*
290
     1
  0
ACAMGFILTERDAT
  5
564
102
{ACAD_REACTORS
330
562
102
}
330
562
100
AcAmgFilterDat
 70
    15
  1
LINE
  2
8,8N,*-8,*-8N,AM_8,AM_8N,*-AM_8,*-AM_8N
  3
*
  4
*
  5
INSERT,STDPART2D
290
     1
  0
ACAMGFILTERDAT
  5
568
102
{ACAD_REACTORS
330
562
102
}
330
562
100
AcAmgFilterDat
 70
    15
  1
ARC
  2
AM_5
  3
*
  4
2
  5
INSERT
290
     0
  0
ACAMGFILTERDAT
  5
565
102
{ACAD_REACTORS
330
562
102
}
330
562
100
AcAmgFilterDat
 70
    15
  1
ACMFCFRAME,ACMDATUMTARGET,ACMDATUMID,ACMWELDSYM,ACMSURFSYM,ACMFEATID,ACMPARTREF,ACMBALLOON,AMDTEDGESYM,AMGSCREWCALCTABLE
  2
*
  3
*
  4
*
  5
*
290
     1
  0
XRECORD
  5
56C
102
{ACAD_REACTORS
330
56A
102
}
330
56A
100
AcDbXrecord
280
     1
  0
LAYER_INDEX
  5
56F
102
{ACAD_REACTORS
330
56E
102
}
330
56E
100
AcDbIndex
 40
2458232.599042917
100
AcDbLayerIndex
  8
0
360
570
 90
        1
  8
1
360
571
 90
      859
  0
DICTIONARY
  5
57A
330
393
100
AcDbDictionary
280
     1
281
     1
  3
ACAD_XREC_ROUNDTRIP
360
57B
  0
DICTIONARY
  5
57C
330
394
100
AcDbDictionary
280
     1
281
     1
  3
ACAD_XREC_ROUNDTRIP
360
57D
  0
IDBUFFER
  5
570
330
0
100
AcDbIdBuffer
330
36C
  0
IDBUFFER
  5
571
330
0
100
AcDbIdBuffer
330
192
330
191
330
190
330
18F
330
18E
330
18D
330
18C
330
18B
330
18A
330
189
330
188
330
187
330
186
330
185
330
184
330
183
330
182
330
181
330
180
330
17F
330
17E
330
17D
330
17C
330
17B
330
17A
330
179
330
178
330
177
330
176
330
175
330
174
330
173
330
172
330
171
330
170
330
16F
330
16E
330
16D
330
16C
330
16B
330
16A
330
169
330
168
330
167
330
166
330
165
330
164
330
163
330
162
330
161
330
160
330
15F
330
15E
330
15D
330
15C
330
15B
330
15A
330
159
330
158
330
157
330
156
330
155
330
154
330
153
330
152
330
151
330
150
330
14F
330
14E
330
14D
330
14C
330
14B
330
14A
330
149
330
148
330
147
330
146
330
145
330
144
330
143
330
142
330
141
330
140
330
13F
330
13E
330
13D
330
13C
330
13B
330
13A
330
139
330
138
330
137
330
136
330
135
330
134
330
133
330
132
330
131
330
130
330
12F
330
12E
330
12D
330
12C
330
12B
330
12A
330
129
330
128
330
127
330
126
330
125
330
124
330
123
330
122
330
121
330
120
330
11F
330
11E
330
11D
330
11C
330
11B
330
11A
330
119
330
118
330
117
330
116
330
115
330
114
330
113
330
112
330
111
330
110
330
10F
330
10E
330
10D
330
10C
330
10B
330
10A
330
109
330
108
330
107
330
106
330
105
330
104
330
103
330
102
330
101
330
100
330
FF
330
FE
330
FD
330
FC
330
FB
330
FA
330
F9
330
F8
330
F7
330
F6
330
F5
330
F4
330
F3
330
F2
330
F1
330
F0
330
EF
330
EE
330
ED
330
EC
330
EB
330
EA
330
E9
330
E8
330
E7
330
E6
330
E5
330
E4
330
E3
330
E2
330
E1
330
E0
330
DF
330
DE
330
DD
330
DC
330
DB
330
DA
330
D9
330
D8
330
D7
330
D6
330
D5
330
D4
330
D3
330
D2
330
D1
330
D0
330
CF
330
CE
330
CD
330
CC
330
CB
330
CA
330
C9
330
C8
330
C7
330
C6
330
C5
330
C4
330
C3
330
C2
330
C1
330
C0
330
BF
330
BE
330
BD
330
BC
330
BB
330
BA
330
B9
330
B8
330
B7
330
B6
330
B5
330
B4
330
B3
330
B2
330
B1
330
B0
330
AF
330
AE
330
AD
330
AC
330
AB
330
AA
330
A9
330
A8
330
A7
330
A6
330
A5
330
A4
330
A3
330
A2
330
A1
330
A0
330
9F
330
9E
330
9D
330
9C
330
9B
330
9A
330
99
330
98
330
97
330
96
330
95
330
94
330
93
330
92
330
91
330
90
330
8F
330
8E
330
8D
330
8C
330
8B
330
8A
330
89
330
88
330
87
330
86
330
85
330
84
330
83
330
82
330
81
330
80
330
7F
330
7E
330
7D
330
7C
330
7B
330
7A
330
79
330
78
330
77
330
76
330
75
330
74
330
73
330
72
330
71
330
70
330
6F
330
6E
330
6D
330
6C
330
6B
330
6A
330
69
330
68
330
67
330
66
330
65
330
64
330
63
330
62
330
61
330
60
330
5F
330
5E
330
5D
330
5C
330
5B
330
5A
330
59
330
58
330
57
330
56
330
55
330
54
330
53
330
52
330
51
330
50
330
4F
330
4E
330
4D
330
4C
330
4B
330
4A
330
49
330
48
330
47
330
46
330
45
330
44
330
43
330
42
330
41
330
40
330
3F
330
3E
330
3D
330
3C
330
3B
330
3A
330
39
330
38
330
37
330
36
330
35
330
34
330
33
330
32
330
31
330
30
330
2F
330
2E
330
2D
330
2C
330
2B
330
2A
330
29
330
28
330
386
330
384
330
383
330
382
330
381
330
380
330
37F
330
37E
330
37D
330
37C
330
37B
330
37A
330
379
330
378
330
377
330
376
330
375
330
374
330
373
330
372
330
371
330
36F
330
36D
330
36B
330
36A
330
369
330
368
330
367
330
366
330
365
330
364
330
363
330
362
330
361
330
360
330
35F
330
35E
330
35D
330
35C
330
35B
330
35A
330
359
330
358
330
357
330
356
330
355
330
354
330
353
330
352
330
351
330
350
330
34F
330
34E
330
34D
330
34C
330
34B
330
34A
330
349
330
348
330
347
330
346
330
345
330
344
330
343
330
342
330
341
330
340
330
33F
330
33E
330
33D
330
33C
330
33B
330
33A
330
339
330
338
330
337
330
336
330
335
330
334
330
333
330
332
330
331
330
330
330
32F
330
32E
330
32D
330
32C
330
32B
330
32A
330
329
330
328
330
327
330
326
330
325
330
324
330
323
330
322
330
321
330
320
330
31F
330
31E
330
31D
330
31C
330
31B
330
31A
330
319
330
318
330
317
330
316
330
315
330
314
330
313
330
312
330
311
330
310
330
30F
330
30E
330
30D
330
30C
330
30B
330
30A
330
309
330
308
330
307
330
306
330
305
330
304
330
303
330
302
330
301
330
300
330
2FF
330
2FE
330
2FD
330
2FC
330
2FB
330
2FA
330
2F9
330
2F8
330
2F7
330
2F6
330
2F5
330
2F4
330
2F3
330
2F2
330
2F1
330
2F0
330
2EF
330
2EE
330
2ED
330
2EC
330
2EB
330
2EA
330
2E9
330
2E8
330
2E7
330
2E6
330
2E5
330
2E4
330
2E3
330
2E2
330
2E1
330
2E0
330
2DF
330
2DE
330
2DD
330
2DC
330
2DB
330
2DA
330
2D9
330
2D8
330
2D7
330
2D6
330
2D5
330
2D4
330
2D3
330
2D2
330
2D1
330
2D0
330
2CF
330
2CE
330
2CD
330
2CC
330
2CB
330
2CA
330
2C9
330
2C8
330
2C7
330
2C6
330
2C5
330
2C4
330
2C3
330
2C2
330
2C1
330
2C0
330
2BF
330
2BE
330
2BD
330
2BC
330
2BB
330
2BA
330
2B9
330
2B8
330
2B7
330
2B6
330
2B5
330
2B4
330
2B3
330
2B2
330
2B1
330
2B0
330
2AF
330
2AE
330
2AD
330
2AC
330
2AB
330
2AA
330
2A9
330
2A8
330
2A7
330
2A6
330
2A5
330
2A4
330
2A3
330
2A2
330
2A1
330
2A0
330
29F
330
29E
330
29D
330
29C
330
29B
330
29A
330
299
330
298
330
297
330
296
330
295
330
294
330
293
330
292
330
291
330
290
330
28F
330
28E
330
28D
330
28C
330
28B
330
28A
330
289
330
288
330
287
330
286
330
285
330
284
330
283
330
282
330
281
330
280
330
27F
330
27E
330
27D
330
27C
330
27B
330
27A
330
279
330
278
330
277
330
276
330
275
330
274
330
273
330
272
330
271
330
270
330
26F
330
26E
330
26D
330
26C
330
26B
330
26A
330
269
330
268
330
267
330
266
330
265
330
264
330
263
330
262
330
261
330
260
330
25F
330
25E
330
25D
330
25C
330
25B
330
25A
330
259
330
258
330
257
330
256
330
255
330
254
330
253
330
252
330
251
330
250
330
24F
330
24E
330
24D
330
24C
330
24B
330
24A
330
249
330
248
330
247
330
246
330
245
330
244
330
243
330
242
330
241
330
240
330
23F
330
23E
330
23D
330
23C
330
23B
330
23A
330
239
330
238
330
237
330
236
330
235
330
234
330
233
330
232
330
231
330
230
330
22F
330
22E
330
22D
330
22C
330
22B
330
22A
330
229
330
228
330
227
330
226
330
225
330
224
330
223
330
222
330
221
330
220
330
21F
330
21E
330
21D
330
21C
330
21B
330
21A
330
219
330
218
330
217
330
216
330
215
330
214
330
213
330
212
330
211
330
210
330
20F
330
20E
330
20D
330
20C
330
20B
330
20A
330
209
330
208
330
207
330
206
330
205
330
204
330
203
330
202
330
201
330
200
330
1FF
330
1FE
330
1FD
330
1FC
330
1FB
330
1FA
330
1F9
330
1F8
330
1F7
330
1F6
330
1F5
330
1F4
330
1F3
330
1F2
330
1F1
330
1F0
330
1EF
330
1EE
330
1ED
330
1EC
330
1EB
330
1EA
330
1E9
330
1E8
330
1E7
330
1E6
330
1E5
330
1E4
330
1E3
330
1E2
330
1E1
330
1E0
330
1DF
330
1DE
330
1DD
330
1DC
330
1DB
330
1DA
330
1D9
330
1D8
330
1D7
330
1D6
330
1D5
330
1D4
330
1D3
330
1D2
330
1D1
330
1D0
330
1CF
330
1CE
330
1CD
330
1CC
330
1CB
330
1CA
330
1C9
330
1C8
330
1C7
330
1C6
330
1C5
330
1C4
330
1C3
330
1C2
330
1C1
330
1C0
330
1BF
330
1BE
330
1BD
330
1BC
330
1BB
330
1BA
330
1B9
330
1B8
330
1B7
330
1B6
330
1B5
330
1B4
330
1B3
330
1B2
330
1B1
330
1B0
330
1AF
330
1AE
330
1AD
330
1AC
330
1AB
330
1AA
330
1A9
330
1A8
330
1A7
330
1A6
330
1A5
330
1A4
330
1A3
330
1A2
330
1A1
330
1A0
330
19F
330
19E
330
19D
330
19C
330
19B
330
19A
330
199
330
198
330
197
330
196
330
195
330
194
330
193
  0
XRECORD
  5
57B
102
{ACAD_REACTORS
330
57A
102
}
330
57A
100
AcDbXrecord
280
     1
102
SHADEPLOT
 70
     0
102
SHADEPLOTRESLEVEL
 70
     2
102
SHADEPLOTCUSTOMDPI
 70
   300
  0
XRECORD
  5
57D
102
{ACAD_REACTORS
330
57C
102
}
330
57C
100
AcDbXrecord
280
     1
102
SHADEPLOT
 70
     0
102
SHADEPLOTRESLEVEL
 70
     2
102
SHADEPLOTCUSTOMDPI
 70
   300
  0
ENDSEC
  0
EOF
