  0
SECTION
  2
HEADER
  9
$ACADVER
  1
AC1015
  9
$ACADMAINTVER
 70
    20
  9
$DWGCODEPAGE
  3
ANSI_932
  9
$INSBASE
 10
0.0
 20
0.0
 30
0.0
  9
$EXTMIN
 10
283.719170275188
 20
68.93903364689998
 30
0.0
  9
$EXTMAX
 10
567.1231732722869
 20
156.480035610096
 30
0.0
  9
$LIMMIN
 10
0.0
 20
0.0
  9
$LIMMAX
 10
0.0
 20
0.0
  9
$ORTHOMODE
 70
     0
  9
$REGENMODE
 70
     1
  9
$FILLMODE
 70
     1
  9
$QTEXTMODE
 70
     0
  9
$MIRRTEXT
 70
     1
  9
$LTSCALE
 40
1.0
  9
$ATTMODE
 70
     1
  9
$TEXTSIZE
 40
0.0
  9
$TRACEWID
 40
0.05
  9
$TEXTSTYLE
  7
STANDARD
  9
$CLAYER
  8
0
  9
$CELTYPE
  6
CONTINUOUS
  9
$CECOLOR
 62
   256
  9
$CELTSCALE
 40
1.0
  9
$DISPSILH
 70
     0
  9
$DIMSCALE
 40
1.0
  9
$DIMASZ
 40
0.18
  9
$DIMEXO
 40
0.0625
  9
$DIMDLI
 40
0.38
  9
$DIMRND
 40
0.0
  9
$DIMDLE
 40
0.0
  9
$DIMEXE
 40
0.18
  9
$DIMTP
 40
0.0
  9
$DIMTM
 40
0.0
  9
$DIMTXT
 40
0.18
  9
$DIMCEN
 40
0.09
  9
$DIMTSZ
 40
0.0
  9
$DIMTOL
 70
     0
  9
$DIMLIM
 70
     0
  9
$DIMTIH
 70
     1
  9
$DIMTOH
 70
     1
  9
$DIMSE1
 70
     0
  9
$DIMSE2
 70
     0
  9
$DIMTAD
 70
     0
  9
$DIMZIN
 70
     0
  9
$DIMBLK
  1

  9
$DIMASO
 70
     1
  9
$DIMSHO
 70
     1
  9
$DIMPOST
  1

  9
$DIMAPOST
  1

  9
$DIMALT
 70
     0
  9
$DIMALTD
 70
     2
  9
$DIMALTF
 40
25.4
  9
$DIMLFAC
 40
1.0
  9
$DIMTOFL
 70
     0
  9
$DIMTVP
 40
0.0
  9
$DIMTIX
 70
     0
  9
$DIMSOXD
 70
     0
  9
$DIMSAH
 70
     0
  9
$DIMBLK1
  1

  9
$DIMBLK2
  1

  9
$DIMSTYLE
  2
STANDARD
  9
$DIMCLRD
 70
     0
  9
$DIMCLRE
 70
     0
  9
$DIMCLRT
 70
     0
  9
$DIMTFAC
 40
1.0
  9
$DIMGAP
 40
0.09
  9
$DIMJUST
 70
     0
  9
$DIMSD1
 70
     0
  9
$DIMSD2
 70
     0
  9
$DIMTOLJ
 70
     1
  9
$DIMTZIN
 70
     0
  9
$DIMALTZ
 70
     0
  9
$DIMALTTZ
 70
     0
  9
$DIMUPT
 70
     0
  9
$DIMDEC
 70
     4
  9
$DIMTDEC
 70
     4
  9
$DIMALTU
 70
     2
  9
$DIMALTTD
 70
     2
  9
$DIMTXSTY
  7
STANDARD
  9
$DIMAUNIT
 70
     0
  9
$DIMADEC
 70
     0
  9
$DIMALTRND
 40
0.0
  9
$DIMAZIN
 70
     0
  9
$DIMDSEP
 70
    46
  9
$DIMATFIT
 70
     3
  9
$DIMFRAC
 70
     0
  9
$DIMLDRBLK
  1

  9
$DIMLUNIT
 70
     2
  9
$DIMLWD
 70
    -2
  9
$DIMLWE
 70
    -2
  9
$DIMTMOVE
 70
     0
  9
$LUNITS
 70
     2
  9
$LUPREC
 70
     2
  9
$SKETCHINC
 40
0.1
  9
$FILLETRAD
 40
0.0
  9
$AUNITS
 70
     0
  9
$AUPREC
 70
     0
  9
$MENU
  1
acad
  9
$ELEVATION
 40
0.0
  9
$PELEVATION
 40
0.0
  9
$THICKNESS
 40
0.0
  9
$LIMCHECK
 70
     0
  9
$CHAMFERA
 40
0.0
  9
$CHAMFERB
 40
0.0
  9
$CHAMFERC
 40
0.0
  9
$CHAMFERD
 40
0.0
  9
$SKPOLY
 70
     0
  9
$TDCREATE
 40
2305814.417176053
  9
$TDUCREATE
 40
6.0000000000
  9
$TDUPDATE
 40
2458229.558345544
  9
$TDUUPDATE
 40
2458229.183345544
  9
$TDINDWG
 40
0.0003577083
  9
$TDUSRTIMER
 40
0.0003577083
  9
$USRTIMER
 70
     1
  9
$ANGBASE
 50
0.0
  9
$ANGDIR
 70
     0
  9
$PDMODE
 70
     0
  9
$PDSIZE
 40
0.0
  9
$PLINEWID
 40
0.0
  9
$SPLFRAME
 70
     0
  9
$SPLINETYPE
 70
     6
  9
$SPLINESEGS
 70
     8
  9
$HANDSEED
  5
48F
  9
$SURFTAB1
 70
     6
  9
$SURFTAB2
 70
     6
  9
$SURFTYPE
 70
     6
  9
$SURFU
 70
     6
  9
$SURFV
 70
     6
  9
$UCSBASE
  2

  9
$UCSNAME
  2

  9
$UCSORG
 10
0.0
 20
0.0
 30
0.0
  9
$UCSXDIR
 10
1.0
 20
0.0
 30
0.0
  9
$UCSYDIR
 10
0.0
 20
1.0
 30
0.0
  9
$UCSORTHOREF
  2

  9
$UCSORTHOVIEW
 70
     0
  9
$UCSORGTOP
 10
0.0
 20
0.0
 30
0.0
  9
$UCSORGBOTTOM
 10
0.0
 20
0.0
 30
0.0
  9
$UCSORGLEFT
 10
0.0
 20
0.0
 30
0.0
  9
$UCSORGRIGHT
 10
0.0
 20
0.0
 30
0.0
  9
$UCSORGFRONT
 10
0.0
 20
0.0
 30
0.0
  9
$UCSORGBACK
 10
0.0
 20
0.0
 30
0.0
  9
$PUCSBASE
  2

  9
$PUCSNAME
  2

  9
$PUCSORG
 10
0.0
 20
0.0
 30
0.0
  9
$PUCSXDIR
 10
1.0
 20
0.0
 30
0.0
  9
$PUCSYDIR
 10
0.0
 20
1.0
 30
0.0
  9
$PUCSORTHOREF
  2

  9
$PUCSORTHOVIEW
 70
     0
  9
$PUCSORGTOP
 10
0.0
 20
0.0
 30
0.0
  9
$PUCSORGBOTTOM
 10
0.0
 20
0.0
 30
0.0
  9
$PUCSORGLEFT
 10
0.0
 20
0.0
 30
0.0
  9
$PUCSORGRIGHT
 10
0.0
 20
0.0
 30
0.0
  9
$PUCSORGFRONT
 10
0.0
 20
0.0
 30
0.0
  9
$PUCSORGBACK
 10
0.0
 20
0.0
 30
0.0
  9
$USERI1
 70
     0
  9
$USERI2
 70
     0
  9
$USERI3
 70
     0
  9
$USERI4
 70
     0
  9
$USERI5
 70
     0
  9
$USERR1
 40
0.0
  9
$USERR2
 40
0.0
  9
$USERR3
 40
0.0
  9
$USERR4
 40
0.0
  9
$USERR5
 40
0.0
  9
$WORLDVIEW
 70
     1
  9
$SHADEDGE
 70
     3
  9
$SHADEDIF
 70
    70
  9
$TILEMODE
 70
     1
  9
$MAXACTVP
 70
    16
  9
$PINSBASE
 10
0.0
 20
0.0
 30
0.0
  9
$PLIMCHECK
 70
     0
  9
$PEXTMIN
 10
1.000000000000000E+20
 20
1.000000000000000E+20
 30
1.000000000000000E+20
  9
$PEXTMAX
 10
-1.000000000000000E+20
 20
-1.000000000000000E+20
 30
-1.000000000000000E+20
  9
$PLIMMIN
 10
0.0
 20
0.0
  9
$PLIMMAX
 10
12.0
 20
9.0
  9
$UNITMODE
 70
     0
  9
$VISRETAIN
 70
     0
  9
$PLINEGEN
 70
     1
  9
$PSLTSCALE
 70
     0
  9
$TREEDEPTH
 70
  3020
  9
$CMLSTYLE
  2
STANDARD
  9
$CMLJUST
 70
     0
  9
$CMLSCALE
 40
1.0
  9
$PROXYGRAPHICS
 70
     0
  9
$MEASUREMENT
 70
     1
  9
$CELWEIGHT
370
    -1
  9
$ENDCAPS
280
     0
  9
$JOINSTYLE
280
     0
  9
$LWDISPLAY
290
     0
  9
$INSUNITS
 70
     0
  9
$HYPERLINKBASE
  1

  9
$STYLESHEET
  1

  9
$XEDIT
290
     1
  9
$CEPSNTYPE
380
     0
  9
$PSTYLEMODE
290
     1
  9
$FINGERPRINTGUID
  2
{3968F796-1C37-43B1-B776-B038445D12D6}
  9
$VERSIONGUID
  2
{93F66478-A872-4343-8EAE-7012D678E824}
  9
$EXTNAMES
290
     1
  9
$PSVPSCALE
 40
0.0
  9
$OLESTARTUP
290
     0
  0
ENDSEC
  0
SECTION
  2
CLASSES
  0
CLASS
  1
IMAGE
  2
AcDbRasterImage
  3
ISM
 90
    32895
280
     0
281
     1
  0
CLASS
  1
DICTIONARYVAR
  2
AcDbDictionaryVar
  3
ObjectDBX Classes
 90
        0
280
     0
281
     0
  0
CLASS
  1
RASTERVARIABLES
  2
AcDbRasterVariables
  3
ISM
 90
    32768
280
     0
281
     0
  0
CLASS
  1
IMAGEDEF
  2
AcDbRasterImageDef
  3
ISM
 90
    32768
280
     0
281
     0
  0
CLASS
  1
IMAGEDEF_REACTOR
  2
AcDbRasterImageDefReactor
  3
ISM
 90
    32769
280
     0
281
     0
  0
CLASS
  1
IDBUFFER
  2
AcDbIdBuffer
  3
ObjectDBX Classes
 90
        0
280
     0
281
     0
  0
CLASS
  1
SPATIAL_FILTER
  2
AcDbSpatialFilter
  3
ObjectDBX Classes
 90
    32768
280
     0
281
     0
  0
CLASS
  1
SORTENTSTABLE
  2
AcDbSortentsTable
  3
ObjectDBX Classes
 90
    32768
280
     0
281
     0
  0
CLASS
  1
LAYER_INDEX
  2
AcDbLayerIndex
  3
ObjectDBX Classes
 90
        0
280
     0
281
     0
  0
CLASS
  1
SPATIAL_INDEX
  2
AcDbSpatialIndex
  3
ObjectDBX Classes
 90
    32768
280
     0
281
     0
  0
CLASS
  1
OBJECT_PTR
  2
CAseDLPNTableRecord
  3
ASE-LPNTableRecord
 90
    32769
280
     0
281
     0
  0
CLASS
  1
LAYOUT
  2
AcDbLayout
  3
ObjectDBX Classes
 90
        0
280
     0
281
     0
  0
CLASS
  1
PLOTSETTINGS
  2
AcDbPlotSettings
  3
ObjectDBX Classes
 90
    32768
280
     0
281
     0
  0
CLASS
  1
ACDBDICTIONARYWDFLT
  2
AcDbDictionaryWithDefault
  3
ObjectDBX Classes
 90
        0
280
     0
281
     0
  0
CLASS
  1
ACDBPLACEHOLDER
  2
AcDbPlaceHolder
  3
ObjectDBX Classes
 90
        0
280
     0
281
     0
  0
CLASS
  1
VBA_PROJECT
  2
AcDbVbaProject
  3
acad
 90
    32768
280
     0
281
     0
  0
CLASS
  1
WIPEOUT
  2
AcDbWipeout
  3
"WipeOut|Product Desc: Object Enabler for WipeOut entity^I^I^I^I^I^I|Company: Autodesk, Inc.^I^I^I^I^I^I|WEB Address: www.autodesk.com"
 90
    32895
280
     0
281
     1
  0
CLASS
  1
WIPEOUTVARIABLES
  2
AcDbWipeoutVariables
  3
"WipeOut|Product Desc:     WipeOut Dbx Application|Company:          Autodesk, Inc.|WEB Address:      www.autodesk.com"
 90
    32768
280
     0
281
     0
  0
CLASS
  1
RTEXT
  2
RText
  3
RText|AutoCAD Express Tool|expresstools@autodesk.com
 90
    32768
280
     0
281
     1
  0
CLASS
  1
ARCALIGNEDTEXT
  2
AcDbArcAlignedText
  3
ATEXT|AutoCAD Express Tool|expresstools@autodesk.com
 90
    32768
280
     0
281
     1
  0
CLASS
  1
TABLESTYLE
  2
AcDbTableStyle
  3
ObjectDBX Classes
 90
     2047
280
     0
281
     0
  0
CLASS
  1
AMGSETTINGSOBJ
  2
AmgSettingsObj
  3
"AcadM|Product Description: AutoCAD Mechanical 2000|Company: Autodesk"
 90
        0
280
     0
281
     0
  0
CLASS
  1
ACME_DOCUMENT
  2
AcMeDbDoc
  3
AcMeServices
 90
        0
280
     0
281
     0
  0
CLASS
  1
ACMESCOPE
  2
AcMeScope
  3
AcMeServices
 90
        0
280
     0
281
     0
  0
CLASS
  1
ACMECOMMANDHISTORY
  2
AcMeCommandHistory
  3
AcMeServices
 90
        0
280
     0
281
     0
  0
CLASS
  1
ACIMSYSVARMAN
  2
AcImSysVarManager
  3
AcMeServices
 90
        0
280
     0
281
     0
  0
CLASS
  1
ACIMREALSYSVAR
  2
AcImRealSysVar
  3
AcMeServices
 90
        0
280
     0
281
     0
  0
CLASS
  1
ACIMINTSYSVAR
  2
AcImIntSysVar
  3
AcMeServices
 90
        0
280
     0
281
     0
  0
CLASS
  1
ACMEDRAWINGMAN
  2
AcMeDrawingMan
  3
AcMeServices
 90
        0
280
     0
281
     0
  0
CLASS
  1
ACMEVIEW
  2
AcMeView
  3
AcMeServices
 90
        0
280
     0
281
     0
  0
CLASS
  1
ACDBENTITYCACHE
  2
AcMeEntityCache
  3
AcMeServices
 90
        0
280
     0
281
     0
  0
CLASS
  1
GSMANAGER
  2
AcMeGSManager
  3
AcMeServices
 90
        0
280
     0
281
     0
  0
CLASS
  1
AMDTINTERNALREACTOR
  2
AmdtInternalReactor
  3
AcMeServices
 90
        0
280
     0
281
     0
  0
CLASS
  1
ACMESTATEMGR
  2
AcMeStateMgr
  3
AcMeServices
 90
        0
280
     0
281
     0
  0
CLASS
  1
ACGREFMASTER
  2
AcGrefMaster
  3
AcAttribServices
 90
        0
280
     0
281
     0
  0
CLASS
  1
AM_DRAWING_MGR
  2
AcDmDwgMgr
  3
AcMechDwgViewMgmt
 90
        0
280
     0
281
     0
  0
CLASS
  1
AM_DWG_DOCUMENT
  2
AcDmDwgDocument
  3
AcMechDwgViewMgmt
 90
        0
280
     0
281
     0
  0
CLASS
  1
AM_DWG_SHEET
  2
AcDmSheet
  3
AcMechDwgViewMgmt
 90
        0
280
     0
281
     0
  0
CLASS
  1
AM_VIEWDIMPARMAP
  2
AcDmViewDimParMap
  3
AcMechDwgViewMgmt
 90
        0
280
     0
281
     0
  0
CLASS
  1
AM_DWGMGR_NAME
  2
AcDmDwgMgrName
  3
AcMechDwgViewMgmt
 90
        0
280
     0
281
     0
  0
CLASS
  1
ACME_DATABASE
  2
AcMeDbDatabase
  3
AcMeServices
 90
        0
280
     0
281
     0
  0
CLASS
  1
ACRFINSADJUSTERMGR
  2
AcRfInsAdjusterMgr
  3
AcMeServices
 90
        0
280
     0
281
     0
  0
CLASS
  1
ACGREFACADMASTER
  2
AcGrefacadMaster
  3
AcGrefServices
 90
        0
280
     0
281
     0
  0
CLASS
  1
AMDTMENUSTATEMGR
  2
AmdtMenuStateMgr
  3
McadcomServices
 90
        0
280
     0
281
     0
  0
CLASS
  1
AMDTMCOMMENUSTATE
  2
AmdtMcomMenuState
  3
McadcomServices
 90
        0
280
     0
281
     0
  0
CLASS
  1
AMIMASTER
  2
AmiMaster
  3
AmiServices
 90
        0
280
     0
281
     0
  0
CLASS
  1
ASAPP
  2
AcAsAppObject
  3
AutoSurfServices
 90
        0
280
     0
281
     0
  0
CLASS
  1
IM_STATIC_MAN
  2
AcImStaticVarManager
  3
AcMeServices
 90
        0
280
     0
281
     0
  0
CLASS
  1
ACIMSTRSYSVAR
  2
AcImStrSysVar
  3
AcMeServices
 90
        0
280
     0
281
     0
  0
CLASS
  1
ACIMDBLSTATICVAR
  2
AcImDblStaticVar
  3
AcMeServices
 90
        0
280
     0
281
     0
  0
CLASS
  1
ACIMSTRSTATICVAR
  2
AcImStrStaticVar
  3
AcMeServices
 90
        0
280
     0
281
     0
  0
CLASS
  1
ACIMINTSTATICVAR
  2
AcImIntStaticVar
  3
AcMeServices
 90
        0
280
     0
281
     0
  0
CLASS
  1
ACASGREFMASTER
  2
AcAsGrefMaster
  3
AutoSurfResolverServices
 90
        0
280
     0
281
     0
  0
CLASS
  1
ACADGREFMODULE
  2
AcAdGrefModule
  3
AdGrefServices
 90
        0
280
     0
281
     0
  0
CLASS
  1
AMDTMAPISURFMOUDULE
  2
AmdtMApiSurfModule
  3
MApiSurfServices
 90
        0
280
     0
281
     0
  0
CLASS
  1
MAPIAMMOUDLE
  2
MApiAmModule
  3
MApiAmServices
 90
        0
280
     0
281
     0
  0
CLASS
  1
AMDTADMENUSTATE
  2
AmdtAdMenuState
  3
DesignerServices
 90
        0
280
     0
281
     0
  0
CLASS
  1
ADAPPL
  2
AcAdAppl
  3
DesignerServices
 90
        0
280
     0
281
     0
  0
CLASS
  1
DEPMGR
  2
AcAdDepMgr
  3
DesignerServices
 90
        0
280
     0
281
     0
  0
CLASS
  1
PARAMMGR
  2
AcAdParamMgr
  3
DesignerServices
 90
        0
280
     0
281
     0
  0
CLASS
  1
PARAMSCOPE
  2
AcAdParamScope
  3
DesignerServices
 90
        0
280
     0
281
     0
  0
CLASS
  1
NAMEDAPPL
  2
AcAdNamedAppl
  3
DesignerServices
 90
        0
280
     0
281
     0
  0
CLASS
  1
AMDTDMMENUSTATE
  2
AmdtDmMenuState
  3
AcMechDwgViewMgmt
 90
        0
280
     0
281
     0
  0
CLASS
  1
MAPIADMODULE
  2
MApiAdModule
  3
MApiAdServices
 90
        0
280
     0
281
     0
  0
CLASS
  1
AMDTAMMENUSTATE
  2
AmdtAmMenuState
  3
DesignerAssemblies
 90
        0
280
     0
281
     0
  0
CLASS
  1
ACAMPROJECT
  2
AcAmProject
  3
DesignerAssemblies
 90
        0
280
     0
281
     0
  0
CLASS
  1
ACAMGRCOMPDEF
  2
AcAmGrCompDef
  3
DesignerAssemblies
 90
        0
280
     0
281
     0
  0
CLASS
  1
ACCMCONTEXT
  2
AcCmContext
  3
DesignerAssemblies
 90
        0
280
     0
281
     0
  0
CLASS
  1
ACAMCOMPDEF
  2
AcAmCompDef
  3
DesignerAssemblies
 90
        0
280
     0
281
     0
  0
CLASS
  1
ACAMCOMPDEFMGR
  2
AcAmCompDefMgr
  3
DesignerAssemblies
 90
        0
280
     0
281
     0
  0
CLASS
  1
AMCONTEXTMGR
  2
AcAmContextMgr
  3
DesignerAssemblies
 90
        0
280
     0
281
     0
  0
CLASS
  1
ACAMCONTEXTMODELER
  2
AcAmContextModeler
  3
DesignerAssemblies
 90
        0
280
     0
281
     0
  0
CLASS
  1
ACMDATADICTIONARY
  2
AcmDataDictionary
  3
"AcmSymBB|Product Description: AutoCAD Mechanical 2004 DX|Company: Autodesk"
 90
        0
280
     0
281
     0
  0
CLASS
  1
ACMDATAENTRYBLOCK
  2
AcmDataEntryBlock
  3
"AcmSymBB|Product Description: AutoCAD Mechanical 2004 DX|Company: Autodesk"
 90
        0
280
     0
281
     0
  0
CLASS
  1
CATALOGSTATE
  2
AcAmCatalogState
  3
DesignerAssemblies
 90
        0
280
     0
281
     0
  0
CLASS
  1
ACAMGRCOMPDEFSET
  2
AcAmGrCompDefSet
  3
DesignerAssemblies
 90
        0
280
     0
281
     0
  0
CLASS
  1
AMDTBROWSERDBTAB
  2
AmdtBrowserDbTab
  3
McadcomServices
 90
        0
280
     0
281
     0
  0
CLASS
  1
CBROWSERAPPOBJECT
  2
CBrowserAppObject
  3
McadcomServices
 90
        0
280
     0
281
     0
  0
CLASS
  1
DM_PLACEHOLDER
  2
AcDmSelsetPlaceholder
  3
AcMechDwgViewMgmt
 90
        0
280
     0
281
     0
  0
CLASS
  1
ACMSTANDARDISO
  2
AcmStandardISO
  3
"Amdt_StdImp|Product Description: AutoCAD Mechanical 2004 DX|Company: Autodesk"
 90
        0
280
     0
281
     0
  0
CLASS
  1
AMGOBJPROPCFG
  2
AmgObjPropCfg
  3
"AmgLay|Product Description: AutoCAD Mechanical 2000|Company: Autodesk"
 90
        1
280
     0
281
     0
  0
CLASS
  1
AMDTEDGESTANDARDISO13715
  2
AmdtEdgeStdISO13715
  3
"Amdt_StdImp|Product Description: AutoCAD Mechanical 2004 DX|Company: Autodesk"
 90
        0
280
     0
281
     0
  0
CLASS
  1
ACMSURFSTANDARDISO
  2
AcmSurfTextStdISO
  3
"Amdt_StdImp|Product Description: AutoCAD Mechanical 2004 DX|Company: Autodesk"
 90
        0
280
     0
281
     0
  0
CLASS
  1
ACMFCFSTANDARDISO
  2
AcmFCFStdISO
  3
"Amdt_StdImp|Product Description: AutoCAD Mechanical 2004 DX|Company: Autodesk"
 90
        0
280
     0
281
     0
  0
CLASS
  1
ACMWELDSTANDARDISO
  2
AcmWeldingStdISO
  3
"Amdt_StdImp|Product Description: AutoCAD Mechanical 2004 DX|Company: Autodesk"
 90
        0
280
     0
281
     0
  0
CLASS
  1
ACMIDSTANDARDISO
  2
AcmIdStdISO
  3
"Amdt_StdImp|Product Description: AutoCAD Mechanical 2004 DX|Company: Autodesk"
 90
        0
280
     0
281
     0
  0
CLASS
  1
ACMDATUMSTANDARDISO
  2
AcmDatumStdISO
  3
"Amdt_StdImp|Product Description: AutoCAD Mechanical 2004 DX|Company: Autodesk"
 90
        0
280
     0
281
     0
  0
CLASS
  1
ACMBOMSTANDARDISO
  2
AcmBOMStdISO
  3
"Amdt_StdImp|Product Description: AutoCAD Mechanical 2004 DX|Company: Autodesk"
 90
        0
280
     0
281
     0
  0
CLASS
  1
ACMDETAILSTANDARDISO
  2
AmdtDetailSymStdISO
  3
"Amdt_StdImp|Product Description: AutoCAD Mechanical 2004 DX|Company: Autodesk"
 90
        0
280
     0
281
     0
  0
CLASS
  1
ACMSECTIONSTANDARDISO
  2
AmdtSectionSymStdISO
  3
"Amdt_StdImp|Product Description: AutoCAD Mechanical 2004 DX|Company: Autodesk"
 90
        0
280
     0
281
     0
  0
CLASS
  1
ACMCENTERLINESTANDARDISO
  2
AmdtCenterLineStdISO
  3
"Amdt_StdImp|Product Description: AutoCAD Mechanical 2004 DX|Company: Autodesk"
 90
        0
280
     0
281
     0
  0
CLASS
  1
ACMTHREADLINESTANDARDISO
  2
AmdtThreadLineStdISO
  3
"Amdt_StdImp|Product Description: AutoCAD Mechanical 2004 DX|Company: Autodesk"
 90
        0
280
     0
281
     0
  0
CLASS
  1
ACMNOTESTANDARDISO
  2
AmdtNoteStdISO
  3
"Amdt_StdImp|Product Description: AutoCAD Mechanical 2004 DX|Company: Autodesk"
 90
        0
280
     0
281
     0
  0
CLASS
  1
AMDTNOTETEMPLATEDB
  2
AmdtNoteTemplateDB
  3
AMDT_STDIMP_MODULE_NAME
 90
        0
280
     0
281
     0
  0
CLASS
  1
ACAMGLAYSTD
  2
AcAmgLayStd
  3
"AcAmgLayStd|Product Description: AutoCAD Mechanical 2000|Company: Autodesk"
 90
        0
280
     0
281
     0
  0
CLASS
  1
ACAMGDIMSTD
  2
AcAmgDimStd
  3
"AcAmgDimStd|Product Description: AutoCAD Mechanical 2000|Company: Autodesk"
 90
        0
280
     0
281
     0
  0
CLASS
  1
ACAMGHOLECHARTSTDISO
  2
AcAmgHoleChartStdISO
  3
ACMSYMBB_MODULE_NAME
 90
        0
280
     0
281
     0
  0
CLASS
  1
ACAMGTITLESTD
  2
AcAmgTitleStd
  3
"TITLEAPP"
 90
        0
280
     0
281
     0
  0
CLASS
  1
ACAMGFILTERDAT
  2
AcAmgFilterDat
  3
"AcadM|Product Description: AutoCAD Mechanical 2000|Company: Autodesk"
 90
        0
280
     0
281
     0
  0
ENDSEC
  0
SECTION
  2
TABLES
  0
TABLE
  2
VPORT
  5
7
330
0
100
AcDbSymbolTable
 70
     3
  0
VPORT
  5
488
330
7
100
AcDbSymbolTableRecord
100
AcDbViewportTableRecord
  2
*Active
 70
     0
 10
0.0
 20
0.0
 11
1.0
 21
1.0
 12
420.2303463176931
 22
96.2188772016786
 13
0.0
 23
0.0
 14
1.0
 24
1.0
 15
0.0
 25
0.0
 16
0.0
 26
0.0
 36
1.0
 17
8.53664292203609
 27
4.579183999999999
 37
0.0
 40
360.2974809451682
 41
1.113389626055488
 42
50.0
 43
0.0
 44
0.0
 50
0.0
 51
0.0
 71
     0
 72
   100
 73
     1
 74
     1
 75
     0
 76
     0
 77
     0
 78
     0
281
     0
 65
     0
110
0.0
120
0.0
130
0.0
111
1.0
121
0.0
131
0.0
112
0.0
122
1.0
132
0.0
 79
     0
146
0.0
  0
ENDTAB
  0
TABLE
  2
LTYPE
  5
4
330
0
100
AcDbSymbolTable
 70
    23
  0
LTYPE
  5
11
330
4
100
AcDbSymbolTableRecord
100
AcDbLinetypeTableRecord
  2
BYBLOCK
 70
     0
  3

 72
    65
 73
     0
 40
0.0
  0
LTYPE
  5
12
330
4
100
AcDbSymbolTableRecord
100
AcDbLinetypeTableRecord
  2
BYLAYER
 70
     0
  3

 72
    65
 73
     0
 40
0.0
  0
LTYPE
  5
13
330
4
100
AcDbSymbolTableRecord
100
AcDbLinetypeTableRecord
  2
CONTINUOUS
 70
     0
  3
Solid line
 72
    65
 73
     0
 40
0.0
  0
LTYPE
  5
1D
330
4
100
AcDbSymbolTableRecord
100
AcDbLinetypeTableRecord
  2
DASHED
 70
     0
  3
Dashed
 72
    65
 73
     2
 40
15.0
 49
12.0
 74
     0
 49
-3.0
 74
     0
  0
LTYPE
  5
1E
330
4
100
AcDbSymbolTableRecord
100
AcDbLinetypeTableRecord
  2
DOTTED
 70
     0
  3
Dotted
 72
    65
 73
     2
 40
3.5
 49
0.5
 74
     0
 49
-3.0
 74
     0
  0
LTYPE
  5
1F
330
4
100
AcDbSymbolTableRecord
100
AcDbLinetypeTableRecord
  2
DOT_CENTER
 70
     0
  3
Dot_Center
 72
    65
 73
     4
 40
2.0
 49
1.25
 74
     0
 49
-0.25
 74
     0
 49
0.25
 74
     0
 49
-0.25
 74
     0
  0
LTYPE
  5
20
330
4
100
AcDbSymbolTableRecord
100
AcDbLinetypeTableRecord
  2
LONG_DASHED
 70
     0
  3
Long_Dashed
 72
    65
 73
     2
 40
2.0
 49
1.5
 74
     0
 49
-0.5
 74
     0
  0
LTYPE
  5
21
330
4
100
AcDbSymbolTableRecord
100
AcDbLinetypeTableRecord
  2
DASH_CENTER
 70
     0
  3
Dash_Center
 72
    65
 73
     4
 40
36.0
 49
24.0
 74
     0
 49
-3.0
 74
     0
 49
6.0
 74
     0
 49
-3.0
 74
     0
  0
LTYPE
  5
22
330
4
100
AcDbSymbolTableRecord
100
AcDbLinetypeTableRecord
  2
PHANTOM
 70
     0
  3
Phantom
 72
    65
 73
     6
 40
2.5
 49
1.25
 74
     0
 49
-0.25
 74
     0
 49
0.25
 74
     0
 49
-0.25
 74
     0
 49
0.25
 74
     0
 49
-0.25
 74
     0
  0
LTYPE
  5
23
330
4
100
AcDbSymbolTableRecord
100
AcDbLinetypeTableRecord
  2
CENTER_DASH_DASH
 70
     0
  3
Center_Dash_Dash
 72
    65
 73
     6
 40
22.0
 49
12.0
 74
     0
 49
-3.0
 74
     0
 49
0.5
 74
     0
 49
-3.0
 74
     0
 49
0.5
 74
     0
 49
-3.0
 74
     0
  0
LTYPE
  5
393
330
4
100
AcDbSymbolTableRecord
100
AcDbLinetypeTableRecord
  2
HIDDEN
 70
     0
  3
Hidden __ __ __ __ __ __ __ __ __ __ __ __ __ _
 72
    65
 73
     2
 40
9.524999999999998
 49
6.349999999999999
 74
     0
 49
-3.174999999999999
 74
     0
  0
LTYPE
  5
394
330
4
100
AcDbSymbolTableRecord
100
AcDbLinetypeTableRecord
  2
PHANTOM2
 70
     0
  3
Phantom (.5x) ___ _ _ ___ _ _ ___ _ _ ___ _ _
 72
    65
 73
     6
 40
31.75
 49
15.875
 74
     0
 49
-3.174999999999999
 74
     0
 49
3.174999999999999
 74
     0
 49
-3.174999999999999
 74
     0
 49
3.174999999999999
 74
     0
 49
-3.174999999999999
 74
     0
  0
LTYPE
  5
395
330
4
100
AcDbSymbolTableRecord
100
AcDbLinetypeTableRecord
  2
CENTER
 70
     0
  3
Center ____ _ ____ _ ____ _ ____ _ ____ _ ____
 72
    65
 73
     4
 40
50.8
 49
31.75
 74
     0
 49
-6.349999999999999
 74
     0
 49
6.349999999999999
 74
     0
 49
-6.349999999999999
 74
     0
  0
LTYPE
  5
3E4
330
4
100
AcDbSymbolTableRecord
100
AcDbLinetypeTableRecord
  2
ASULTYPE
 70
     0
  3
実線
 72
    65
 73
     2
 40
3.0
 49
2.5
 74
     0
 49
0.5
 74
     0
  0
LTYPE
  5
3E5
330
4
100
AcDbSymbolTableRecord
100
AcDbLinetypeTableRecord
  2
ASVLTYPE
 70
     0
  3
__ __ __ __ __ __ __ __ __ __ __ __ __ __ __ __ __ __ __ __ __
 72
    65
 73
     2
 40
0.75
 49
0.5
 74
     0
 49
-0.25
 74
     0
  0
LTYPE
  5
42C
330
4
100
AcDbSymbolTableRecord
100
AcDbLinetypeTableRecord
  2
AM_ISO02W050
 70
     0
  3
__ __ __ __ __ __ __ __ __ __ __ __ __ __ __
 72
    65
 73
     2
 40
7.5
 49
6.0
 74
     0
 49
-1.5
 74
     0
  0
LTYPE
  5
42D
330
4
100
AcDbSymbolTableRecord
100
AcDbLinetypeTableRecord
  2
AM_ISO08W050
 70
     0
  3
____ . ____ . ____ . ____ . ____ . ____ . ____
 72
    65
 73
     4
 40
18.0
 49
12.0
 74
     0
 49
-1.5
 74
     0
 49
3.0
 74
     0
 49
-1.5
 74
     0
  0
LTYPE
  5
42E
330
4
100
AcDbSymbolTableRecord
100
AcDbLinetypeTableRecord
  2
AM_ISO09W050
 70
     0
  3
_____ . . _____ . . _____ . . ____ .. ____
 72
    65
 73
     6
 40
22.5
 49
12.0
 74
     0
 49
-1.5
 74
     0
 49
3.0
 74
     0
 49
-1.5
 74
     0
 49
3.0
 74
     0
 49
-1.5
 74
     0
  0
LTYPE
  5
42F
330
4
100
AcDbSymbolTableRecord
100
AcDbLinetypeTableRecord
  2
Amconstr
 70
     0
  3
_______________________
 72
    65
 73
     2
 40
9999.0
 49
9999.0
 74
     0
 49
0.0
 74
     0
  0
LTYPE
  5
430
330
4
100
AcDbSymbolTableRecord
100
AcDbLinetypeTableRecord
  2
AM_ISO08W050x2
 70
     0
  3
__ . __ . __ . __ . __ . __
 72
    65
 73
     4
 40
9.0
 49
6.0
 74
     0
 49
-0.75
 74
     0
 49
1.5
 74
     0
 49
-0.75
 74
     0
  0
LTYPE
  5
431
330
4
100
AcDbSymbolTableRecord
100
AcDbLinetypeTableRecord
  2
AM_ISO02W050x2
 70
     0
  3
 _ _ _ _ _ _ _ _ _ _ _ _
 72
    65
 73
     2
 40
3.75
 49
3.0
 74
     0
 49
-0.75
 74
     0
  0
LTYPE
  5
434
330
4
100
AcDbSymbolTableRecord
100
AcDbLinetypeTableRecord
  2
Amzigzag
 70
     0
  3
/\/-/\/-/\/-/\/-/\/-/\/
 72
    65
 73
     2
 40
11.0001
 49
0.0001
 74
     4
 75
   136
340
433
 46
0.04
 50
0.0
 44
0.0
 45
0.0
 49
-11.0
 74
     0
  0
LTYPE
  5
443
330
4
100
AcDbSymbolTableRecord
100
AcDbLinetypeTableRecord
  2
ACISOWELD
 70
     0
  3
_ _ _ _ _
 72
    65
 73
     2
 40
2.0
 49
2.0
 74
     0
 49
-1.0
 74
     0
  0
LTYPE
  5
444
330
4
100
AcDbSymbolTableRecord
100
AcDbLinetypeTableRecord
  2
ACISOTGB
 70
     0
  3
__ . . __ . .
 72
    65
 73
     6
 40
9.0
 49
4.0
 74
     0
 49
-1.0
 74
     0
 49
1.0
 74
     0
 49
-1.0
 74
     0
 49
1.0
 74
     0
 49
-1.0
 74
     0
  0
LTYPE
  5
445
330
4
100
AcDbSymbolTableRecord
100
AcDbLinetypeTableRecord
  2
ACISOTGL
 70
     0
  3
_ _ _ _ _
 72
    65
 73
     2
 40
3.0
 49
2.0
 74
     0
 49
-1.0
 74
     0
  0
ENDTAB
  0
TABLE
  2
LAYER
  5
2
330
0
100
AcDbSymbolTable
 70
     2
  0
LAYER
  5
14
330
2
100
AcDbSymbolTableRecord
100
AcDbLayerTableRecord
  2
0
 70
     0
 62
     7
  6
CONTINUOUS
370
    -3
390
351
  0
LAYER
  5
24
330
2
100
AcDbSymbolTableRecord
100
AcDbLayerTableRecord
  2
1
 70
     0
 62
     7
  6
CONTINUOUS
370
    -3
390
351
  0
ENDTAB
  0
TABLE
  2
STYLE
  5
3
330
0
100
AcDbSymbolTable
 70
     5
  0
STYLE
  5
17
330
3
100
AcDbSymbolTableRecord
100
AcDbTextStyleTableRecord
  2
STANDARD
 70
     0
 40
0.0
 41
1.0
 50
0.0
 71
     0
 42
0.0
  3
txt
  4

  0
STYLE
  5
34B
330
3
100
AcDbSymbolTableRecord
100
AcDbTextStyleTableRecord
  2
CONVERTER_1
 70
     0
 40
0.0
 41
0.9
 50
0.0
 71
     0
 42
0.0
  3
txt
  4

  0
STYLE
  5
433
330
3
100
AcDbSymbolTableRecord
100
AcDbTextStyleTableRecord
  2

 70
     1
 40
0.0
 41
1.0
 50
0.0
 71
     0
 42
0.2
  3
genltshp.shx
  4

  0
STYLE
  5
435
330
3
100
AcDbSymbolTableRecord
100
AcDbTextStyleTableRecord
  2
ACISOTS
 70
     0
 40
1.0
 41
1.0
 50
0.0
 71
     0
 42
0.2
  3
isocp.shx
  4
extfont.shx
  0
STYLE
  5
442
330
3
100
AcDbSymbolTableRecord
100
AcDbTextStyleTableRecord
  2
ACISOGDT
 70
     0
 40
0.0
 41
1.0
 50
0.0
 71
     0
 42
0.2
  3
AMGDT
  4

  0
ENDTAB
  0
TABLE
  2
VIEW
  5
5
330
0
100
AcDbSymbolTable
 70
     0
  0
ENDTAB
  0
TABLE
  2
UCS
  5
6
330
0
100
AcDbSymbolTable
 70
     0
  0
ENDTAB
  0
TABLE
  2
APPID
  5
8
330
0
100
AcDbSymbolTable
 70
    16
  0
APPID
  5
16
330
8
100
AcDbSymbolTableRecord
100
AcDbRegAppTableRecord
  2
ACAD
 70
     0
  0
APPID
  5
35F
330
8
100
AcDbSymbolTableRecord
100
AcDbRegAppTableRecord
  2
GENIUS_GENDIM_13
 70
     0
  0
APPID
  5
360
330
8
100
AcDbSymbolTableRecord
100
AcDbRegAppTableRecord
  2
GENIUS_GENDTOL_13
 70
     0
  0
APPID
  5
361
330
8
100
AcDbSymbolTableRecord
100
AcDbRegAppTableRecord
  2
GENIUS_GE3DTOL_13
 70
     0
  0
APPID
  5
364
330
8
100
AcDbSymbolTableRecord
100
AcDbRegAppTableRecord
  2
MCAD_NO_VIS
 70
     0
  0
APPID
  5
365
330
8
100
AcDbSymbolTableRecord
100
AcDbRegAppTableRecord
  2
ACAD_TEMP_GRAPHIC
 70
     0
  0
APPID
  5
397
330
8
100
AcDbSymbolTableRecord
100
AcDbRegAppTableRecord
  2
AD_DRAW
 70
     0
  0
APPID
  5
39A
330
8
100
AcDbSymbolTableRecord
100
AcDbRegAppTableRecord
  2
ACATTRIBSERVICES
 70
     0
  0
APPID
  5
3E6
330
8
100
AcDbSymbolTableRecord
100
AcDbRegAppTableRecord
  2
ASURF_PCURVE_APPNAME
 70
     0
  0
APPID
  5
3EB
330
8
100
AcDbSymbolTableRecord
100
AcDbRegAppTableRecord
  2
AMG_3D2D_5.0
 70
     0
  0
APPID
  5
41C
330
8
100
AcDbSymbolTableRecord
100
AcDbRegAppTableRecord
  2
DESIGNERASSEMBLIES
 70
     0
  0
APPID
  5
423
330
8
100
AcDbSymbolTableRecord
100
AcDbRegAppTableRecord
  2
ACADM_DIM_EDIT
 70
     0
  0
APPID
  5
424
330
8
100
AcDbSymbolTableRecord
100
AcDbRegAppTableRecord
  2
AMDT_DM_ADJ
 70
     0
  0
APPID
  5
452
330
8
100
AcDbSymbolTableRecord
100
AcDbRegAppTableRecord
  2
ACAD_DSTYLE_DIMARC_LENGTH_SYMBOL
 70
     0
  0
APPID
  5
453
330
8
100
AcDbSymbolTableRecord
100
AcDbRegAppTableRecord
  2
ACAD_DSTYLE_DIMJOGGED_JOGANGLE_SYMBOL
 70
     0
  0
APPID
  5
47C
330
8
100
AcDbSymbolTableRecord
100
AcDbRegAppTableRecord
  2
DCO15
 70
     0
  0
ENDTAB
  0
TABLE
  2
DIMSTYLE
  5
9
330
0
100
AcDbSymbolTable
 70
     8
100
AcDbDimStyleTable
 71
     0
  0
DIMSTYLE
105
18
330
9
100
AcDbSymbolTableRecord
100
AcDbDimStyleTableRecord
  2
STANDARD
 70
     0
340
17
  0
DIMSTYLE
105
451
330
9
100
AcDbSymbolTableRecord
100
AcDbDimStyleTableRecord
  2
AM_ISO
 70
     0
  4
"
 41
2.5
 42
1.0
 43
10.0
 44
1.0
 47
0.1
 48
0.1
 73
     0
 74
     0
 77
     1
 78
     8
 79
     2
140
3.5
141
0.0
143
0.0393701
146
0.71
147
1.5
172
     1
176
   256
177
   256
178
     2
271
     2
272
     3
274
     4
283
     0
284
     8
340
17
371
    -1
372
    -1
1001
ACAD_DSTYLE_DIMARC_LENGTH_SYMBOL
1070
   379
1070
     1
1001
ACAD_DSTYLE_DIMJOGGED_JOGANGLE_SYMBOL
1070
   384
1040
0.7853981633974483
  0
DIMSTYLE
105
45A
330
9
100
AcDbSymbolTableRecord
100
AcDbDimStyleTableRecord
  2
AM_ISO$3
 70
     0
  4
"
 41
2.5
 42
1.0
 43
10.0
 44
1.0
 47
0.1
 48
0.1
 73
     0
 77
     1
 78
     8
 79
     2
140
3.5
141
0.0
143
0.0393701
146
0.71
147
1.5
176
   256
177
   256
178
     2
271
     2
272
     3
274
     4
283
     0
284
     8
288
     1
289
     0
340
17
371
    -1
372
    -1
1001
ACAD_DSTYLE_DIMARC_LENGTH_SYMBOL
1070
   379
1070
     1
1001
ACAD_DSTYLE_DIMJOGGED_JOGANGLE_SYMBOL
1070
   384
1040
0.7853981633974483
  0
DIMSTYLE
105
45D
330
9
100
AcDbSymbolTableRecord
100
AcDbDimStyleTableRecord
  2
AM_ISO$4
 70
     0
  4
"
 41
2.5
 42
1.0
 43
10.0
 44
1.0
 47
0.1
 48
0.1
 73
     0
 77
     1
 78
     8
 79
     2
140
3.5
141
0.0
143
0.0393701
146
0.71
147
1.5
176
   256
177
   256
178
     2
271
     2
272
     3
274
     4
283
     0
284
     8
288
     1
289
     0
340
17
371
    -1
372
    -1
1001
ACAD_DSTYLE_DIMARC_LENGTH_SYMBOL
1070
   379
1070
     1
1001
ACAD_DSTYLE_DIMJOGGED_JOGANGLE_SYMBOL
1070
   384
1040
0.7853981633974483
  0
DIMSTYLE
105
460
330
9
100
AcDbSymbolTableRecord
100
AcDbDimStyleTableRecord
  2
AM_ISO$6
 70
     0
  4
"
 41
2.5
 42
1.0
 43
10.0
 44
1.0
 47
0.1
 48
0.1
 73
     0
 74
     0
 78
     8
 79
     2
140
3.5
141
0.0
143
0.0393701
146
0.71
147
1.5
172
     1
176
   256
177
   256
178
     2
271
     2
272
     3
274
     4
283
     0
284
     8
340
17
371
    -1
372
    -1
1001
ACAD_DSTYLE_DIMARC_LENGTH_SYMBOL
1070
   379
1070
     1
1001
ACAD_DSTYLE_DIMJOGGED_JOGANGLE_SYMBOL
1070
   384
1040
0.7853981633974483
  0
DIMSTYLE
105
463
330
9
100
AcDbSymbolTableRecord
100
AcDbDimStyleTableRecord
  2
AM_ISO$7
 70
     0
  4
"
 41
2.5
 42
1.0
 43
10.0
 44
1.0
 47
0.1
 48
0.1
 73
     0
 74
     0
 77
     1
 78
     8
 79
     2
140
5.0
141
0.0
143
0.0393701
146
0.71
147
1.5
172
     1
176
   256
177
   256
178
     2
271
     2
272
     3
274
     4
283
     0
284
     8
340
17
371
    -1
372
    -1
1001
ACAD_DSTYLE_DIMARC_LENGTH_SYMBOL
1070
   379
1070
     1
1001
ACAD_DSTYLE_DIMJOGGED_JOGANGLE_SYMBOL
1070
   384
1040
0.7853981633974483
  0
DIMSTYLE
105
466
330
9
100
AcDbSymbolTableRecord
100
AcDbDimStyleTableRecord
  2
AM_ISO$SF
 70
     0
  4
"
 41
2.5
 42
1.0
 43
10.0
 44
1.0
 47
0.1
 48
0.1
 73
     0
 74
     0
 75
     1
 76
     1
 77
     1
 78
     8
 79
     2
140
3.5
141
0.0
143
0.0393701
146
0.71
147
1.5
172
     1
176
   256
177
   256
178
     2
271
     2
272
     3
274
     4
283
     0
284
     8
340
17
371
    -1
372
    -1
1001
ACAD_DSTYLE_DIMARC_LENGTH_SYMBOL
1070
   379
1070
     1
1001
ACAD_DSTYLE_DIMJOGGED_JOGANGLE_SYMBOL
1070
   384
1040
0.7853981633974483
  0
DIMSTYLE
105
46D
330
9
100
AcDbSymbolTableRecord
100
AcDbDimStyleTableRecord
  2
AM_ISO$SH
 70
     0
  4
"
 41
2.5
 42
1.0
 43
10.0
 44
1.0
 47
0.1
 48
0.1
 73
     0
 74
     0
 75
     1
 76
     1
 77
     1
 78
     8
 79
     2
140
3.5
141
0.0
143
0.0393701
144
2.0
146
0.71
147
1.5
172
     1
173
     1
176
   256
177
   256
178
     2
271
     2
272
     3
274
     4
283
     0
284
     8
340
17
343
467
371
    -1
372
    -1
1001
ACAD_DSTYLE_DIMARC_LENGTH_SYMBOL
1070
   379
1070
     1
1001
ACAD_DSTYLE_DIMJOGGED_JOGANGLE_SYMBOL
1070
   384
1040
0.7853981633974483
  0
ENDTAB
  0
TABLE
  2
BLOCK_RECORD
  5
1
330
0
100
AcDbSymbolTable
 70
     2
  0
BLOCK_RECORD
  5
A
102
{ACAD_XDICTIONARY
360
47E
102
}
330
1
100
AcDbSymbolTableRecord
100
AcDbBlockTableRecord
  2
*MODEL_SPACE
340
358
  0
BLOCK_RECORD
  5
B
330
1
100
AcDbSymbolTableRecord
100
AcDbBlockTableRecord
  2
*PAPER_SPACE
340
359
  0
BLOCK_RECORD
  5
467
330
1
100
AcDbSymbolTableRecord
100
AcDbBlockTableRecord
  2
GENAXEH
340
0
  0
ENDTAB
  0
ENDSEC
  0
SECTION
  2
BLOCKS
  0
BLOCK
  5
D
330
A
100
AcDbEntity
  8
0
100
AcDbBlockBegin
  2
*MODEL_SPACE
 70
     0
 10
0.0
 20
0.0
 30
0.0
  3
*MODEL_SPACE
  1

  0
ENDBLK
  5
E
330
A
100
AcDbEntity
  8
0
100
AcDbBlockEnd
  0
BLOCK
  5
F
330
B
100
AcDbEntity
 67
     1
  8
0
100
AcDbBlockBegin
  2
*PAPER_SPACE
 70
     0
 10
0.0
 20
0.0
 30
0.0
  3
*PAPER_SPACE
  1

  0
ENDBLK
  5
10
330
B
100
AcDbEntity
 67
     1
  8
0
100
AcDbBlockEnd
  0
BLOCK
  5
469
330
467
100
AcDbEntity
  8
0
100
AcDbBlockBegin
  2
GENAXEH
 70
     0
 10
0.0
 20
0.0
 30
0.0
  3
GENAXEH
  1

  0
LINE
  5
468
330
467
100
AcDbEntity
  8
0
100
AcDbLine
 10
-1.0
 20
0.0
 30
0.0
 11
1.0
 21
0.0
 31
0.0
  0
ENDBLK
  5
46A
330
467
100
AcDbEntity
  8
0
100
AcDbBlockEnd
  0
ENDSEC
  0
SECTION
  2
ENTITIES
  0
MTEXT
  5
34C
330
A
100
AcDbEntity
  8
1
 62
     1
100
AcDbMText
 10
560.3069917316
 20
72.11403364689999
 30
0.0
 40
3.174999999999999
 41
0.0
 71
     2
 72
     1
  1
Bruco
  7
CONVERTER_1
 73
     1
 44
1.0
1001
ACAD
1000
MTEXTBEGIN
1070
    73
1070
     1
1070
    44
1040
1.0
1070
    74
1070
     0
1000
MTEXTEND
  0
ARC
  5
34A
330
A
100
AcDbEntity
  8
1
  6
Continuous
 62
     3
100
AcDbCircle
 10
553.923173272286
 20
132.780035610098
 30
0.0
 40
0.200000000001
100
AcDbArc
 50
0.0
 51
90.0
  0
ARC
  5
349
330
A
100
AcDbEntity
  8
1
  6
Continuous
 62
     3
100
AcDbCircle
 10
549.923173272286
 20
133.280035610098
 30
0.0
 40
0.3
100
AcDbArc
 50
-160.528779364907
 51
-90.0
  0
ARC
  5
348
330
A
100
AcDbEntity
  8
1
  6
Continuous
 62
     3
100
AcDbCircle
 10
549.923173272286
 20
130.680035610097
 30
0.0
 40
0.2999999999989999
100
AcDbArc
 50
90.0
 51
180.0
  0
ARC
  5
347
330
A
100
AcDbEntity
  8
1
  6
Continuous
 62
     3
100
AcDbCircle
 10
553.923173272286
 20
131.180035610097
 30
0.0
 40
0.200000000001
100
AcDbArc
 50
-90.0
 51
0.0
  0
ARC
  5
346
330
A
100
AcDbEntity
  8
1
  6
Continuous
 62
     3
100
AcDbCircle
 10
547.1231732722869
 20
125.480035610097
 30
0.0
 40
0.5
100
AcDbArc
 50
180.0
 51
-90.0
  0
ARC
  5
345
330
A
100
AcDbEntity
  8
1
  6
Continuous
 62
     3
100
AcDbCircle
 10
547.1231732722869
 20
130.480035610097
 30
0.0
 40
0.5
100
AcDbArc
 50
90.0
 51
180.0
  0
ARC
  5
344
330
A
100
AcDbEntity
  8
1
  6
Continuous
 62
     3
100
AcDbCircle
 10
546.323173272287
 20
121.580035610101
 30
0.0
 40
0.2
100
AcDbArc
 50
90.0
 51
180.0
  0
ARC
  5
343
330
A
100
AcDbEntity
  8
1
  6
Continuous
 62
     3
100
AcDbCircle
 10
548.4873868346599
 20
122.130035610099
 30
0.0
 40
1.0
100
AcDbArc
 50
90.0
 51
135.00000000001
  0
ARC
  5
342
330
A
100
AcDbEntity
  8
1
  6
Continuous
 62
     3
100
AcDbCircle
 10
547.008959709912
 20
123.480035610097
 30
0.0
 40
1.0
100
AcDbArc
 50
-90.0
 51
-44.999999999981
  0
ARC
  5
341
330
A
100
AcDbEntity
  8
1
  6
Continuous
 62
     3
100
AcDbCircle
 10
547.008959709912
 20
132.480035610097
 30
0.0
 40
1.0
100
AcDbArc
 50
44.99999999999601
 51
90.0
  0
ARC
  5
340
330
A
100
AcDbEntity
  8
1
  6
Continuous
 62
     3
100
AcDbCircle
 10
548.4873868346599
 20
133.830035610096
 30
0.0
 40
1.000000000001
100
AcDbArc
 50
-135.000000000005
 51
-90.0
  0
ARC
  5
33F
330
A
100
AcDbEntity
  8
1
  6
Continuous
 62
     3
100
AcDbCircle
 10
546.323173272287
 20
134.380035610094
 30
0.0
 40
0.2
100
AcDbArc
 50
180.0
 51
-90.0
  0
ARC
  5
33E
330
A
100
AcDbEntity
  8
1
  6
Continuous
 62
     3
100
AcDbCircle
 10
416.524044237323
 20
121.580035610098
 30
0.0
 40
0.2
100
AcDbArc
 50
90.0
 51
180.0
  0
ARC
  5
33D
330
A
100
AcDbEntity
  8
1
  6
Continuous
 62
     3
100
AcDbCircle
 10
418.6882577996959
 20
122.130035610098
 30
0.0
 40
1.0
100
AcDbArc
 50
90.0
 51
135.000000000056
  0
ARC
  5
33C
330
A
100
AcDbEntity
  8
1
  6
Continuous
 62
     3
100
AcDbCircle
 10
417.209830674948
 20
123.480035610096
 30
0.0
 40
1.0
100
AcDbArc
 50
-90.0
 51
-45.000000000024
  0
ARC
  5
33B
330
A
100
AcDbEntity
  8
1
  6
Continuous
 62
     3
100
AcDbCircle
 10
417.209830674948
 20
132.480035610096
 30
0.0
 40
1.0
100
AcDbArc
 50
44.999999999967
 51
90.0
  0
ARC
  5
33A
330
A
100
AcDbEntity
  8
1
  6
Continuous
 62
     3
100
AcDbCircle
 10
418.6882577996959
 20
133.830035610093
 30
0.0
 40
1.0
100
AcDbArc
 50
-135.0000000000149
 51
-90.0
  0
ARC
  5
339
330
A
100
AcDbEntity
  8
1
  6
Continuous
 62
     3
100
AcDbCircle
 10
416.524044237323
 20
134.380035610092
 30
0.0
 40
0.2
100
AcDbArc
 50
180.0
 51
-90.0
  0
ARC
  5
338
330
A
100
AcDbEntity
  8
1
  6
Continuous
 62
     3
100
AcDbCircle
 10
417.324044237323
 20
125.480035610096
 30
0.0
 40
0.5
100
AcDbArc
 50
180.0
 51
-90.0
  0
ARC
  5
337
330
A
100
AcDbEntity
  8
1
  6
Continuous
 62
     3
100
AcDbCircle
 10
417.324044237323
 20
130.480035610096
 30
0.0
 40
0.5
100
AcDbArc
 50
90.0
 51
180.0
  0
ARC
  5
336
330
A
100
AcDbEntity
  8
1
  6
Continuous
 62
     3
100
AcDbCircle
 10
424.124044237322
 20
124.780035610095
 30
0.0
 40
0.2
100
AcDbArc
 50
0.0
 51
90.000000000016
  0
ARC
  5
335
330
A
100
AcDbEntity
  8
1
  6
Continuous
 62
     3
100
AcDbCircle
 10
420.124044237322
 20
125.280035610095
 30
0.0
 40
0.2999999999989999
100
AcDbArc
 50
180.0
 51
-90.0
  0
ARC
  5
334
330
A
100
AcDbEntity
  8
1
  6
Continuous
 62
     3
100
AcDbCircle
 10
420.124044237322
 20
122.680035610095
 30
0.0
 40
0.300000000001
100
AcDbArc
 50
90.0
 51
160.52877936491
  0
ARC
  5
333
330
A
100
AcDbEntity
  8
1
  6
Continuous
 62
     3
100
AcDbCircle
 10
424.124044237322
 20
123.180035610095
 30
0.0
 40
0.199999999999
100
AcDbArc
 50
-90.000000000016
 51
0.0
  0
ARC
  5
332
330
A
100
AcDbEntity
  8
1
  6
Continuous
 62
     3
100
AcDbCircle
 10
482.2236087548049
 20
125.480035610096
 30
0.0
 40
0.5
100
AcDbArc
 50
180.0
 51
-90.0
  0
ARC
  5
331
330
A
100
AcDbEntity
  8
1
  6
Continuous
 62
     3
100
AcDbCircle
 10
482.2236087548049
 20
130.480035610096
 30
0.0
 40
0.5
100
AcDbArc
 50
90.0
 51
180.0
  0
ARC
  5
330
330
A
100
AcDbEntity
  8
1
  6
Continuous
 62
     3
100
AcDbCircle
 10
481.4236087548049
 20
121.580035610098
 30
0.0
 40
0.2
100
AcDbArc
 50
90.0
 51
180.0
  0
ARC
  5
32F
330
A
100
AcDbEntity
  8
1
  6
Continuous
 62
     3
100
AcDbCircle
 10
483.5878223171779
 20
122.130035610098
 30
0.0
 40
1.0
100
AcDbArc
 50
90.0
 51
135.000000000056
  0
ARC
  5
32E
330
A
100
AcDbEntity
  8
1
  6
Continuous
 62
     3
100
AcDbCircle
 10
482.1093951924299
 20
123.480035610096
 30
0.0
 40
1.0
100
AcDbArc
 50
-90.0
 51
-45.00000000002099
  0
ARC
  5
32D
330
A
100
AcDbEntity
  8
1
  6
Continuous
 62
     3
100
AcDbCircle
 10
482.1093951924299
 20
132.480035610096
 30
0.0
 40
1.0
100
AcDbArc
 50
44.999999999964
 51
90.0
  0
ARC
  5
32C
330
A
100
AcDbEntity
  8
1
  6
Continuous
 62
     3
100
AcDbCircle
 10
483.5878223171779
 20
133.830035610093
 30
0.0
 40
1.0
100
AcDbArc
 50
-135.0000000000149
 51
-90.0
  0
ARC
  5
32B
330
A
100
AcDbEntity
  8
1
  6
Continuous
 62
     3
100
AcDbCircle
 10
481.4236087548049
 20
134.380035610092
 30
0.0
 40
0.2
100
AcDbArc
 50
180.0
 51
-90.0
  0
ARC
  5
32A
330
A
100
AcDbEntity
  8
1
  6
Continuous
 62
     3
100
AcDbCircle
 10
489.0236087548049
 20
128.780035610095
 30
0.0
 40
0.2
100
AcDbArc
 50
0.0
 51
90.0
  0
ARC
  5
329
330
A
100
AcDbEntity
  8
1
  6
Continuous
 62
     3
100
AcDbCircle
 10
485.0236087548049
 20
129.280035610095
 30
0.0
 40
0.3
100
AcDbArc
 50
180.0
 51
-90.0
  0
ARC
  5
328
330
A
100
AcDbEntity
  8
1
  6
Continuous
 62
     3
100
AcDbCircle
 10
485.0236087548049
 20
126.680035610095
 30
0.0
 40
0.300000000001
100
AcDbArc
 50
90.0
 51
180.0
  0
ARC
  5
327
330
A
100
AcDbEntity
  8
1
  6
Continuous
 62
     3
100
AcDbCircle
 10
489.0236087548049
 20
127.180035610095
 30
0.0
 40
0.199999999999
100
AcDbArc
 50
-90.0
 51
0.0
  0
ARC
  5
326
330
A
100
AcDbEntity
  8
1
  6
Continuous
 62
     3
100
AcDbCircle
 10
489.223608754805
 20
128.480035610096
 30
0.0
 40
0.5
100
AcDbArc
 50
0.0
 51
90.0
  0
ARC
  5
325
330
A
100
AcDbEntity
  8
1
  6
Continuous
 62
     3
100
AcDbCircle
 10
551.3731732722869
 20
148.980035610096
 30
0.0
 40
0.5
100
AcDbArc
 50
90.0
 51
180.0
  0
ARC
  5
324
330
A
100
AcDbEntity
  8
1
  6
Continuous
 62
     3
100
AcDbCircle
 10
558.873173272287
 20
148.980035610096
 30
0.0
 40
0.5
100
AcDbArc
 50
0.0
 51
90.0
  0
ARC
  5
323
330
A
100
AcDbEntity
  8
1
  6
Continuous
 62
     3
100
AcDbCircle
 10
558.873173272287
 20
133.480035610096
 30
0.0
 40
0.5
100
AcDbArc
 50
-90.0
 51
0.0
  0
ARC
  5
322
330
A
100
AcDbEntity
  8
1
  6
Continuous
 62
     3
100
AcDbCircle
 10
551.3731732722869
 20
133.480035610096
 30
0.0
 40
0.5
100
AcDbArc
 50
180.0
 51
-90.0
  0
ARC
  5
321
330
A
100
AcDbEntity
  8
1
  6
Continuous
 62
     3
100
AcDbCircle
 10
551.3731732722869
 20
130.480035610096
 30
0.0
 40
0.5
100
AcDbArc
 50
90.0
 51
180.0
  0
ARC
  5
320
330
A
100
AcDbEntity
  8
1
  6
Continuous
 62
     3
100
AcDbCircle
 10
551.3731732722869
 20
130.480035610096
 30
0.0
 40
0.5
100
AcDbArc
 50
180.0
 51
-90.0
  0
ARC
  5
31F
330
A
100
AcDbEntity
  8
1
  6
Continuous
 62
     3
100
AcDbCircle
 10
558.873173272287
 20
130.480035610096
 30
0.0
 40
0.5
100
AcDbArc
 50
-90.0
 51
0.0
  0
ARC
  5
31E
330
A
100
AcDbEntity
  8
1
  6
Continuous
 62
     3
100
AcDbCircle
 10
558.873173272287
 20
130.480035610096
 30
0.0
 40
0.5
100
AcDbArc
 50
0.0
 51
90.0
  0
ARC
  5
31D
330
A
100
AcDbEntity
  8
1
  6
Continuous
 62
     3
100
AcDbCircle
 10
554.1231732722869
 20
132.480035610096
 30
0.0
 40
0.5
100
AcDbArc
 50
0.0
 51
90.0
  0
ARC
  5
31C
330
A
100
AcDbEntity
  8
1
  6
Continuous
 62
     3
100
AcDbCircle
 10
554.1231732722869
 20
131.480035610096
 30
0.0
 40
0.5
100
AcDbArc
 50
-90.0
 51
0.0
  0
ARC
  5
31B
330
A
100
AcDbEntity
  8
1
  6
Continuous
 62
     3
100
AcDbCircle
 10
556.123173272287
 20
131.480035610096
 30
0.0
 40
0.5
100
AcDbArc
 50
180.0
 51
-90.0
  0
ARC
  5
31A
330
A
100
AcDbEntity
  8
1
  6
Continuous
 62
     3
100
AcDbCircle
 10
556.123173272287
 20
132.480035610096
 30
0.0
 40
0.5
100
AcDbArc
 50
90.0
 51
180.0
  0
ARC
  5
319
330
A
100
AcDbEntity
  8
1
  6
Continuous
 62
     3
100
AcDbCircle
 10
491.223608754805
 20
128.480035610096
 30
0.0
 40
0.5
100
AcDbArc
 50
90.0
 51
180.0
  0
ARC
  5
318
330
A
100
AcDbEntity
  8
1
  6
Continuous
 62
     3
100
AcDbCircle
 10
491.223608754805
 20
127.480035610096
 30
0.0
 40
0.5
100
AcDbArc
 50
180.0
 51
-90.0
  0
ARC
  5
317
330
A
100
AcDbEntity
  8
1
  6
Continuous
 62
     3
100
AcDbCircle
 10
489.223608754805
 20
127.480035610096
 30
0.0
 40
0.5
100
AcDbArc
 50
-90.0
 51
0.0
  0
ARC
  5
316
330
A
100
AcDbEntity
  8
1
  6
Continuous
 62
     3
100
AcDbCircle
 10
493.973608754805
 20
126.480035610096
 30
0.0
 40
0.5
100
AcDbArc
 50
0.0
 51
90.0
  0
ARC
  5
315
330
A
100
AcDbEntity
  8
1
  6
Continuous
 62
     3
100
AcDbCircle
 10
493.973608754805
 20
126.480035610096
 30
0.0
 40
0.5
100
AcDbArc
 50
-90.0
 51
0.0
  0
ARC
  5
314
330
A
100
AcDbEntity
  8
1
  6
Continuous
 62
     3
100
AcDbCircle
 10
486.473608754805
 20
126.480035610096
 30
0.0
 40
0.5
100
AcDbArc
 50
180.0
 51
-90.0
  0
ARC
  5
313
330
A
100
AcDbEntity
  8
1
  6
Continuous
 62
     3
100
AcDbCircle
 10
486.473608754805
 20
126.480035610096
 30
0.0
 40
0.5
100
AcDbArc
 50
90.0
 51
180.0
  0
ARC
  5
312
330
A
100
AcDbEntity
  8
1
  6
Continuous
 62
     3
100
AcDbCircle
 10
486.473608754805
 20
129.480035610096
 30
0.0
 40
0.5
100
AcDbArc
 50
180.0
 51
-90.0
  0
ARC
  5
311
330
A
100
AcDbEntity
  8
1
  6
Continuous
 62
     3
100
AcDbCircle
 10
493.973608754805
 20
129.480035610096
 30
0.0
 40
0.5
100
AcDbArc
 50
-90.0
 51
0.0
  0
ARC
  5
310
330
A
100
AcDbEntity
  8
1
  6
Continuous
 62
     3
100
AcDbCircle
 10
493.973608754805
 20
144.980035610096
 30
0.0
 40
0.5
100
AcDbArc
 50
0.0
 51
90.0
  0
ARC
  5
30F
330
A
100
AcDbEntity
  8
1
  6
Continuous
 62
     3
100
AcDbCircle
 10
486.473608754805
 20
144.980035610096
 30
0.0
 40
0.5
100
AcDbArc
 50
90.0
 51
180.0
  0
ARC
  5
30E
330
A
100
AcDbEntity
  8
1
  6
Continuous
 62
     3
100
AcDbCircle
 10
421.574044237322
 20
140.980035610096
 30
0.0
 40
0.5
100
AcDbArc
 50
90.0
 51
180.0
  0
ARC
  5
30D
330
A
100
AcDbEntity
  8
1
  6
Continuous
 62
     3
100
AcDbCircle
 10
429.074044237322
 20
140.980035610096
 30
0.0
 40
0.5
100
AcDbArc
 50
0.0
 51
90.0
  0
ARC
  5
30C
330
A
100
AcDbEntity
  8
1
  6
Continuous
 62
     3
100
AcDbCircle
 10
429.074044237322
 20
125.480035610096
 30
0.0
 40
0.5
100
AcDbArc
 50
-90.0
 51
0.0
  0
ARC
  5
30B
330
A
100
AcDbEntity
  8
1
  6
Continuous
 62
     3
100
AcDbCircle
 10
421.574044237322
 20
125.480035610096
 30
0.0
 40
0.5
100
AcDbArc
 50
180.0
 51
-90.0
  0
ARC
  5
30A
330
A
100
AcDbEntity
  8
1
  6
Continuous
 62
     3
100
AcDbCircle
 10
421.574044237322
 20
122.480035610096
 30
0.0
 40
0.5
100
AcDbArc
 50
90.0
 51
180.0
  0
ARC
  5
309
330
A
100
AcDbEntity
  8
1
  6
Continuous
 62
     3
100
AcDbCircle
 10
421.574044237322
 20
122.480035610096
 30
0.0
 40
0.5
100
AcDbArc
 50
180.0
 51
-90.0
  0
ARC
  5
308
330
A
100
AcDbEntity
  8
1
  6
Continuous
 62
     3
100
AcDbCircle
 10
429.074044237322
 20
122.480035610096
 30
0.0
 40
0.5
100
AcDbArc
 50
-90.0
 51
0.0
  0
ARC
  5
307
330
A
100
AcDbEntity
  8
1
  6
Continuous
 62
     3
100
AcDbCircle
 10
429.074044237322
 20
122.480035610096
 30
0.0
 40
0.5
100
AcDbArc
 50
0.0
 51
90.0
  0
ARC
  5
306
330
A
100
AcDbEntity
  8
1
  6
Continuous
 62
     3
100
AcDbCircle
 10
424.3240442373219
 20
124.480035610096
 30
0.0
 40
0.5
100
AcDbArc
 50
0.0
 51
90.0
  0
ARC
  5
305
330
A
100
AcDbEntity
  8
1
  6
Continuous
 62
     3
100
AcDbCircle
 10
424.3240442373219
 20
123.480035610096
 30
0.0
 40
0.5
100
AcDbArc
 50
-90.0
 51
0.0
  0
ARC
  5
304
330
A
100
AcDbEntity
  8
1
  6
Continuous
 62
     3
100
AcDbCircle
 10
426.324044237322
 20
123.480035610096
 30
0.0
 40
0.5
100
AcDbArc
 50
180.0
 51
-90.0
  0
ARC
  5
303
330
A
100
AcDbEntity
  8
1
  6
Continuous
 62
     3
100
AcDbCircle
 10
426.324044237322
 20
124.480035610096
 30
0.0
 40
0.5
100
AcDbArc
 50
90.0
 51
180.0
  0
ARC
  5
302
330
A
100
AcDbEntity
  8
1
  6
Continuous
 62
     3
100
AcDbCircle
 10
360.322078865076
 20
113.442390590279
 30
0.0
 40
0.5
100
AcDbArc
 50
90.0
 51
180.0
  0
ARC
  5
301
330
A
100
AcDbEntity
  8
1
  6
Continuous
 62
     3
100
AcDbCircle
 10
360.322078865076
 20
112.442390590279
 30
0.0
 40
0.5
100
AcDbArc
 50
180.0
 51
-90.0
  0
ARC
  5
300
330
A
100
AcDbEntity
  8
1
  6
Continuous
 62
     3
100
AcDbCircle
 10
358.322078865076
 20
112.442390590279
 30
0.0
 40
0.5
100
AcDbArc
 50
-90.0
 51
0.0
  0
ARC
  5
2FF
330
A
100
AcDbEntity
  8
1
  6
Continuous
 62
     3
100
AcDbCircle
 10
358.322078865076
 20
113.442390590279
 30
0.0
 40
0.5
100
AcDbArc
 50
0.0
 51
90.0
  0
ARC
  5
2FE
330
A
100
AcDbEntity
  8
1
  6
Continuous
 62
     3
100
AcDbCircle
 10
363.072078865076
 20
111.442390590279
 30
0.0
 40
0.5
100
AcDbArc
 50
0.0
 51
90.0
  0
ARC
  5
2FD
330
A
100
AcDbEntity
  8
1
  6
Continuous
 62
     3
100
AcDbCircle
 10
363.072078865076
 20
111.442390590279
 30
0.0
 40
0.5
100
AcDbArc
 50
-90.0
 51
0.0
  0
ARC
  5
2FC
330
A
100
AcDbEntity
  8
1
  6
Continuous
 62
     3
100
AcDbCircle
 10
355.572078865076
 20
111.442390590279
 30
0.0
 40
0.5
100
AcDbArc
 50
180.0
 51
-90.0
  0
ARC
  5
2FB
330
A
100
AcDbEntity
  8
1
  6
Continuous
 62
     3
100
AcDbCircle
 10
355.572078865076
 20
111.442390590279
 30
0.0
 40
0.5
100
AcDbArc
 50
90.0
 51
180.0
  0
ARC
  5
2FA
330
A
100
AcDbEntity
  8
1
  6
Continuous
 62
     3
100
AcDbCircle
 10
355.572078865076
 20
114.442390590279
 30
0.0
 40
0.5
100
AcDbArc
 50
180.0
 51
-90.0
  0
ARC
  5
2F9
330
A
100
AcDbEntity
  8
1
  6
Continuous
 62
     3
100
AcDbCircle
 10
363.072078865076
 20
114.442390590279
 30
0.0
 40
0.5
100
AcDbArc
 50
-90.0
 51
0.0
  0
ARC
  5
2F8
330
A
100
AcDbEntity
  8
1
  6
Continuous
 62
     3
100
AcDbCircle
 10
363.072078865076
 20
129.942390590279
 30
0.0
 40
0.5
100
AcDbArc
 50
0.0
 51
90.0
  0
ARC
  5
2F7
330
A
100
AcDbEntity
  8
1
  6
Continuous
 62
     3
100
AcDbCircle
 10
355.572078865076
 20
129.942390590279
 30
0.0
 40
0.5
100
AcDbArc
 50
90.0
 51
180.0
  0
ARC
  5
2F6
330
A
100
AcDbEntity
  8
1
  6
Continuous
 62
     3
100
AcDbCircle
 10
288.019170275188
 20
107.785024619272
 30
0.0
 40
0.200000000001
100
AcDbArc
 50
-90.0
 51
0.0
  0
ARC
  5
2F5
330
A
100
AcDbEntity
  8
1
  6
Continuous
 62
     3
100
AcDbCircle
 10
286.419170275188
 20
107.785024619272
 30
0.0
 40
0.2
100
AcDbArc
 50
180.0
 51
-90.0
  0
ARC
  5
2F4
330
A
100
AcDbEntity
  8
1
  6
Continuous
 62
     3
100
AcDbCircle
 10
319.757098023369
 20
107.785024619272
 30
0.0
 40
0.200000000001
100
AcDbArc
 50
-90.0
 51
0.0
  0
ARC
  5
2F3
330
A
100
AcDbEntity
  8
1
  6
Continuous
 62
     3
100
AcDbCircle
 10
318.157098023369
 20
107.785024619272
 30
0.0
 40
0.2
100
AcDbArc
 50
180.0
 51
-90.0
  0
ARC
  5
2F2
330
A
100
AcDbEntity
  8
1
  6
Continuous
 62
     3
100
AcDbCircle
 10
297.719170275188
 20
113.485024619272
 30
0.0
 40
0.4
100
AcDbArc
 50
-91.76489838054299
 51
0.0
  0
ARC
  5
2F1
330
A
100
AcDbEntity
  8
1
  6
Continuous
 62
     3
100
AcDbCircle
 10
284.719170275189
 20
113.485024619272
 30
0.0
 40
0.4
100
AcDbArc
 50
180.0
 51
-88.23510161948098
  0
ARC
  5
2F0
330
A
100
AcDbEntity
  8
1
  6
Continuous
 62
     3
100
AcDbCircle
 10
289.419170275188
 20
115.385024619271
 30
0.0
 40
0.200000000001
100
AcDbArc
 50
90.0
 51
180.0
  0
ARC
  5
2EF
330
A
100
AcDbEntity
  8
1
  6
Continuous
 62
     3
100
AcDbCircle
 10
290.019170275188
 20
115.385024619271
 30
0.0
 40
0.2
100
AcDbArc
 50
0.0
 51
90.0
  0
ARC
  5
2EE
330
A
100
AcDbEntity
  8
1
  6
Continuous
 62
     3
100
AcDbCircle
 10
292.419170275188
 20
115.385024619271
 30
0.0
 40
0.200000000001
100
AcDbArc
 50
90.0
 51
180.0
  0
ARC
  5
2ED
330
A
100
AcDbEntity
  8
1
  6
Continuous
 62
     3
100
AcDbCircle
 10
293.019170275188
 20
115.385024619271
 30
0.0
 40
0.2
100
AcDbArc
 50
0.0
 51
90.0
  0
SPLINE
  5
2EC
330
A
100
AcDbEntity
  8
1
  6
Continuous
 62
     3
100
AcDbSpline
210
0.0
220
0.0
230
1.0
 70
     8
 71
     3
 72
    45
 73
    41
 74
    39
 42
0.0000000001
 43
0.0000000001
 44
0.00000000001
 40
0.0
 40
0.0
 40
0.0
 40
0.0
 40
0.0184950841822852
 40
0.039190537497822
 40
0.0699527019319183
 40
0.1017372486797395
 40
0.1374488200734686
 40
0.1719928471723831
 40
0.2049785827302303
 40
0.2379513014210814
 40
0.269679636125932
 40
0.3013903060083019
 40
0.3317253040975321
 40
0.3620388121602743
 40
0.3910059788027694
 40
0.4199502856045776
 40
0.4477544480530468
 40
0.4755387349001895
 40
0.5025563119104055
 40
0.5295621520984298
 40
0.5562972930874331
 40
0.5830324340763771
 40
0.6100382742642966
 40
0.6370558512744581
 40
0.6648401381216007
 40
0.6926443005701698
 40
0.7215886073720009
 40
0.7505557740143246
 40
0.780869282076866
 40
0.8112042801662745
 40
0.8429149500486746
 40
0.874643284753079
 40
0.9076160034436986
 40
0.9406017390017307
 40
0.9751457659831338
 40
1.010857337021168
 40
1.042641884332918
 40
1.073404049512026
 40
1.094099505546499
 40
1.112594592862147
 40
1.112594592862147
 40
1.112594592862147
 40
1.112594592862147
 10
313.5386017832687
 20
113.4850246092378
 30
0.0
 10
313.5385202753398
 20
113.4788596152006
 30
0.0
 10
313.5383475624442
 20
113.4657961747963
 30
0.0
 10
313.5371019506804
 20
113.4425062316765
 30
0.0
 10
313.5343662232799
 20
113.4148738182768
 30
0.0
 10
313.5287719171363
 20
113.3825770953378
 30
0.0
 10
313.5209111339341
 20
113.3494603950795
 30
0.0
 10
313.5106567704717
 20
113.3165770362029
 30
0.0
 10
313.4983032214531
 20
113.2854048942183
 30
0.0
 10
313.4841074072728
 20
113.2560653884733
 30
0.0
 10
313.4679047324075
 20
113.2282740114375
 30
0.0
 10
313.450027338033
 20
113.2025891791902
 30
0.0
 10
313.4303619046975
 20
113.1788542151325
 30
0.0
 10
313.4093191808854
 20
113.1575934974661
 30
0.0
 10
313.3867670494182
 20
113.1386520215226
 30
0.0
 10
313.3631601787995
 20
113.1224716150607
 30
0.0
 10
313.3383938036035
 20
113.1089288337081
 30
0.0
 10
313.3129101644204
 20
113.0983574393977
 30
0.0
 10
313.2866903185523
 20
113.0906650556665
 30
0.0
 10
313.2601054711508
 20
113.0860775476316
 30
0.0
 10
313.2332673410186
 20
113.0845016988221
 30
0.0
 10
313.2064292108861
 20
113.0860775476315
 30
0.0
 10
313.1798443634848
 20
113.0906650556664
 30
0.0
 10
313.1536245176168
 20
113.0983574393978
 30
0.0
 10
313.1281408784336
 20
113.1089288337082
 30
0.0
 10
313.1033745032376
 20
113.1224716150607
 30
0.0
 10
313.0797676326189
 20
113.1386520215225
 30
0.0
 10
313.0572155011516
 20
113.1575934974658
 30
0.0
 10
313.0361727773396
 20
113.1788542151322
 30
0.0
 10
313.0165073440044
 20
113.20258917919
 30
0.0
 10
312.9986299496295
 20
113.2282740114371
 30
0.0
 10
312.9824272747645
 20
113.2560653884727
 30
0.0
 10
312.9682314605831
 20
113.2854048942172
 30
0.0
 10
312.9558779115823
 20
113.3165770361665
 30
0.0
 10
312.9456235481497
 20
113.3494603948866
 30
0.0
 10
312.937762764926
 20
113.3825770951714
 30
0.0
 10
312.9321684587545
 20
113.4148738184288
 30
0.0
 10
312.9294327312243
 20
113.442506233165
 30
0.0
 10
312.9281871194099
 20
113.4657961784875
 30
0.0
 10
312.9280144066397
 20
113.478859620845
 30
0.0
 10
312.9279328987684
 20
113.4850246159278
 30
0.0
 11
313.5386017832687
 21
113.4850246092378
 31
0.0
 11
313.5382403043292
 21
113.4665330578727
 31
0.0
 11
313.5371558681776
 21
113.4458660361674
 31
0.0
 11
313.5340356522304
 21
113.4152625230829
 31
0.0
 11
313.5286946294736
 21
113.3839299380016
 31
0.0
 11
313.5204166069349
 21
113.3491910451831
 31
0.0
 11
313.5100850810937
 21
113.3162281966714
 31
0.0
 11
313.4979320779135
 21
113.2855628536276
 31
0.0
 11
313.4835445071088
 21
113.2558947228438
 31
0.0
 11
313.4675433511878
 21
113.2284967259766
 31
0.0
 11
313.4494039853632
 21
113.2024865358221
 31
0.0
 11
313.4300252354792
 21
113.1791482376407
 31
0.0
 11
313.408680470837
 21
113.1576236053921
 31
0.0
 11
313.386474485127
 21
113.139022773638
 31
0.0
 11
313.3625867811908
 21
113.1226780345183
 31
0.0
 11
313.3381721916608
 21
113.10937392735
 31
0.0
 11
313.3125044627306
 21
113.0987374670755
 31
0.0
 11
313.2865692291287
 21
113.0911669237981
 31
0.0
 11
313.259957969403
 21
113.0865673303303
 31
0.0
 11
313.2332673410185
 21
113.0850252148535
 31
0.0
 11
313.206576712634
 21
113.0865673303303
 31
0.0
 11
313.1799654529084
 21
113.0911669237981
 31
0.0
 11
313.1540302193065
 21
113.0987374670755
 31
0.0
 11
313.1283624903763
 21
113.10937392735
 31
0.0
 11
313.1039479008463
 21
113.1226780345183
 31
0.0
 11
313.0800601969099
 21
113.1390227736379
 31
0.0
 11
313.0578542112
 21
113.1576236053918
 31
0.0
 11
313.036509446558
 21
113.1791482376403
 31
0.0
 11
313.0171306966739
 21
113.202486535822
 31
0.0
 11
312.9989913308492
 21
113.2284967259764
 31
0.0
 11
312.9829901749283
 21
113.2558947228431
 31
0.0
 11
312.9686026041235
 21
113.2855628536266
 31
0.0
 11
312.9564496009432
 21
113.3162281966706
 31
0.0
 11
312.9461180751258
 21
113.3491910450666
 31
0.0
 11
312.937840052658
 21
113.3839299375364
 31
0.0
 11
312.9324990298164
 21
113.4152625231752
 31
0.0
 11
312.929378813804
 21
113.445866037002
 31
0.0
 11
312.9282943775828
 21
113.4665330614263
 31
0.0
 11
312.9279328987684
 21
113.4850246159278
 31
0.0
  0
SPLINE
  5
2EB
330
A
100
AcDbEntity
  8
1
  6
Continuous
 62
     3
100
AcDbSpline
210
0.0
220
0.0
230
1.0
 70
     8
 71
     3
 72
    45
 73
    41
 74
    39
 42
0.0000000001
 43
0.0000000001
 44
0.00000000001
 40
0.0
 40
0.0
 40
0.0
 40
0.0
 40
0.0184950841822841
 40
0.0391905374978238
 40
0.0699527019319029
 40
0.1017372486797145
 40
0.1374488200734436
 40
0.1719928471724092
 40
0.2049785827301958
 40
0.2379513014210604
 40
0.2696796361258618
 40
0.3013903060082784
 40
0.3317253040976285
 40
0.3620388121603206
 40
0.3910059788027285
 40
0.4199502856046935
 40
0.4477544480531559
 40
0.4755387349002406
 40
0.5025563119104686
 40
0.5295621520983737
 40
0.5562972930873745
 40
0.5830324340763159
 40
0.6100382742642915
 40
0.637055851274453
 40
0.6648401381215431
 40
0.6926443005701621
 40
0.7215886073720869
 40
0.7505557740143236
 40
0.780869282076865
 40
0.8112042801663461
 40
0.8429149500486484
 40
0.8746432847531105
 40
0.9076160034437052
 40
0.9406017390017582
 40
0.9751457659831272
 40
1.010857337021149
 40
1.042641884332927
 40
1.073404049512041
 40
1.094099505546508
 40
1.112594592862154
 40
1.112594592862154
 40
1.112594592862154
 40
1.112594592862154
 10
324.3755942634696
 20
113.4850246092378
 30
0.0
 10
324.3756757713985
 20
113.4788596152006
 30
0.0
 10
324.3758484842938
 20
113.4657961747963
 30
0.0
 10
324.377094096058
 20
113.4425062316765
 30
0.0
 10
324.3798298234581
 20
113.4148738182768
 30
0.0
 10
324.3854241296018
 20
113.3825770953378
 30
0.0
 10
324.3932849128039
 20
113.3494603950795
 30
0.0
 10
324.4035392762666
 20
113.316577036203
 30
0.0
 10
324.4158928252852
 20
113.2854048942183
 30
0.0
 10
324.4300886394653
 20
113.2560653884733
 30
0.0
 10
324.4462913143306
 20
113.2282740114375
 30
0.0
 10
324.4641687087052
 20
113.2025891791901
 30
0.0
 10
324.4838341420408
 20
113.1788542151325
 30
0.0
 10
324.5048768658528
 20
113.1575934974661
 30
0.0
 10
324.52742899732
 20
113.1386520215225
 30
0.0
 10
324.5510358679388
 20
113.1224716150607
 30
0.0
 10
324.5758022431348
 20
113.1089288337081
 30
0.0
 10
324.601285882318
 20
113.0983574393978
 30
0.0
 10
324.6275057281859
 20
113.0906650556664
 30
0.0
 10
324.6540905755875
 20
113.0860775476316
 30
0.0
 10
324.6809287057196
 20
113.0845016988221
 30
0.0
 10
324.7077668358521
 20
113.0860775476316
 30
0.0
 10
324.7343516832534
 20
113.0906650556665
 30
0.0
 10
324.7605715291214
 20
113.0983574393977
 30
0.0
 10
324.7860551683045
 20
113.1089288337082
 30
0.0
 10
324.8108215435006
 20
113.1224716150607
 30
0.0
 10
324.8344284141194
 20
113.1386520215224
 30
0.0
 10
324.8569805455865
 20
113.1575934974658
 30
0.0
 10
324.8780232693985
 20
113.1788542151322
 30
0.0
 10
324.8976887027341
 20
113.2025891791899
 30
0.0
 10
324.9155660971086
 20
113.2282740114372
 30
0.0
 10
324.9317687719738
 20
113.2560653884726
 30
0.0
 10
324.9459645861551
 20
113.2854048942172
 30
0.0
 10
324.9583181351559
 20
113.3165770361664
 30
0.0
 10
324.9685724985885
 20
113.3494603948866
 30
0.0
 10
324.976433281812
 20
113.3825770951714
 30
0.0
 10
324.9820275879837
 20
113.4148738184287
 30
0.0
 10
324.9847633155141
 20
113.442506233165
 30
0.0
 10
324.9860089273283
 20
113.4657961784875
 30
0.0
 10
324.9861816400984
 20
113.478859620845
 30
0.0
 10
324.9862631479697
 20
113.4850246159278
 30
0.0
 11
324.3755942634696
 21
113.4850246092378
 31
0.0
 11
324.3759557424091
 21
113.4665330578727
 31
0.0
 11
324.3770401785607
 21
113.4458660361674
 31
0.0
 11
324.3801603945077
 21
113.4152625230829
 31
0.0
 11
324.3855014172645
 21
113.3839299380016
 31
0.0
 11
324.3937794398032
 21
113.3491910451831
 31
0.0
 11
324.4041109656445
 21
113.3162281966714
 31
0.0
 11
324.4162639688247
 21
113.2855628536276
 31
0.0
 11
324.4306515396293
 21
113.2558947228438
 31
0.0
 11
324.4466526955504
 21
113.2284967259767
 31
0.0
 11
324.4647920613749
 21
113.2024865358221
 31
0.0
 11
324.4841708112591
 21
113.1791482376407
 31
0.0
 11
324.5055155759013
 21
113.1576236053921
 31
0.0
 11
324.5277215616111
 21
113.139022773638
 31
0.0
 11
324.5516092655476
 21
113.1226780345183
 31
0.0
 11
324.5760238550775
 21
113.10937392735
 31
0.0
 11
324.6016915840076
 21
113.0987374670755
 31
0.0
 11
324.6276268176095
 21
113.0911669237981
 31
0.0
 11
324.6542380773352
 21
113.0865673303303
 31
0.0
 11
324.6809287057197
 21
113.0850252148535
 31
0.0
 11
324.7076193341041
 21
113.0865673303303
 31
0.0
 11
324.7342305938298
 21
113.0911669237981
 31
0.0
 11
324.7601658274317
 21
113.0987374670755
 31
0.0
 11
324.7858335563618
 21
113.10937392735
 31
0.0
 11
324.8102481458919
 21
113.1226780345183
 31
0.0
 11
324.8341358498284
 21
113.1390227736379
 31
0.0
 11
324.8563418355382
 21
113.1576236053918
 31
0.0
 11
324.8776866001802
 21
113.1791482376403
 31
0.0
 11
324.8970653500644
 21
113.202486535822
 31
0.0
 11
324.9152047158889
 21
113.2284967259764
 31
0.0
 11
324.9312058718099
 21
113.2558947228431
 31
0.0
 11
324.9455934426147
 21
113.2855628536266
 31
0.0
 11
324.957746445795
 21
113.3162281966706
 31
0.0
 11
324.9680779716123
 21
113.3491910450666
 31
0.0
 11
324.9763559940801
 21
113.3839299375364
 31
0.0
 11
324.9816970169219
 21
113.4152625231752
 31
0.0
 11
324.9848172329343
 21
113.445866037002
 31
0.0
 11
324.9859016691554
 21
113.4665330614263
 31
0.0
 11
324.9862631479697
 21
113.4850246159278
 31
0.0
  0
CIRCLE
  5
2EA
330
A
100
AcDbEntity
  8
1
  6
Continuous
 62
     3
100
AcDbCircle
 10
528.338245649605
 20
132.230035610096
 30
0.0
 40
0.75
  0
CIRCLE
  5
2E9
330
A
100
AcDbEntity
  8
1
  6
Continuous
 62
     3
100
AcDbCircle
 10
528.3382456496069
 20
127.980035610096
 30
0.0
 40
5.65
  0
CIRCLE
  5
2E8
330
A
100
AcDbEntity
  8
1
  6
Continuous
 62
     6
100
AcDbCircle
 10
528.3382456496069
 20
127.980035610096
 30
0.0
 40
6.299999999999999
  0
CIRCLE
  5
2E7
330
A
100
AcDbEntity
  8
1
  6
Continuous
 62
     3
100
AcDbCircle
 10
528.3382456496069
 20
127.980035610096
 30
0.0
 40
7.5
  0
CIRCLE
  5
2E6
330
A
100
AcDbEntity
  8
1
  6
Continuous
 62
     3
100
AcDbCircle
 10
463.438681132125
 20
127.980035610096
 30
0.0
 40
7.500000000001
  0
CIRCLE
  5
2E5
330
A
100
AcDbEntity
  8
1
  6
Continuous
 62
     6
100
AcDbCircle
 10
463.438681132125
 20
127.980035610096
 30
0.0
 40
6.300000000000999
  0
CIRCLE
  5
2E4
330
A
100
AcDbEntity
  8
1
  6
Continuous
 62
     3
100
AcDbCircle
 10
463.438681132125
 20
127.980035610096
 30
0.0
 40
5.65
  0
CIRCLE
  5
2E3
330
A
100
AcDbEntity
  8
1
  6
Continuous
 62
     3
100
AcDbCircle
 10
459.188681132126
 20
127.980035610097
 30
0.0
 40
0.75
  0
CIRCLE
  5
2E2
330
A
100
AcDbEntity
  8
1
  6
Continuous
 62
     3
100
AcDbCircle
 10
398.5391166146411
 20
123.730035610097
 30
0.0
 40
0.75
  0
CIRCLE
  5
2E1
330
A
100
AcDbEntity
  8
1
  6
Continuous
 62
     3
100
AcDbCircle
 10
398.539116614643
 20
127.980035610096
 30
0.0
 40
5.65
  0
CIRCLE
  5
2E0
330
A
100
AcDbEntity
  8
1
  6
Continuous
 62
     6
100
AcDbCircle
 10
398.539116614643
 20
127.980035610096
 30
0.0
 40
6.299999999999999
  0
CIRCLE
  5
2DF
330
A
100
AcDbEntity
  8
1
  6
Continuous
 62
     3
100
AcDbCircle
 10
398.539116614643
 20
127.980035610096
 30
0.0
 40
7.5
  0
CIRCLE
  5
2DE
330
A
100
AcDbEntity
  8
1
  6
Continuous
 62
     3
100
AcDbCircle
 10
318.957098023367
 20
85.588219665325
 30
0.0
 40
3.0
  0
CIRCLE
  5
2DD
330
A
100
AcDbEntity
  8
1
  6
Continuous
 62
     3
100
AcDbCircle
 10
318.95709802337
 20
81.58821966532499
 30
0.0
 40
1.0
  0
CIRCLE
  5
2DC
330
A
100
AcDbEntity
  8
1
  6
Continuous
 62
     3
100
AcDbCircle
 10
318.957098023371
 20
85.588219665325
 30
0.0
 40
6.45
  0
CIRCLE
  5
2DB
330
A
100
AcDbEntity
  8
1
  6
Continuous
 62
     3
100
AcDbCircle
 10
318.95709802337
 20
85.588219665325
 30
0.0
 40
7.5
  0
CIRCLE
  5
2DA
330
A
100
AcDbEntity
  8
1
  6
Continuous
 62
     3
100
AcDbCircle
 10
318.957098023369
 20
143.121756234798
 30
0.0
 40
7.499999999997999
  0
CIRCLE
  5
2D9
330
A
100
AcDbEntity
  8
1
  6
Continuous
 62
     6
100
AcDbCircle
 10
318.957098023369
 20
143.121756234798
 30
0.0
 40
6.299999999999999
  0
CIRCLE
  5
2D8
330
A
100
AcDbEntity
  8
1
  6
Continuous
 62
     3
100
AcDbCircle
 10
318.957098023369
 20
143.121756234798
 30
0.0
 40
5.65
  0
CIRCLE
  5
2D7
330
A
100
AcDbEntity
  8
1
  6
Continuous
 62
     3
100
AcDbCircle
 10
318.957098023369
 20
143.121756234798
 30
0.0
 40
5.75
  0
CIRCLE
  5
2D6
330
A
100
AcDbEntity
  8
1
  6
Continuous
 62
     3
100
AcDbCircle
 10
318.957098023367
 20
147.371756234798
 30
0.0
 40
0.75
  0
ARC
  5
2D5
330
A
100
AcDbEntity
  8
1
  6
Continuous
 62
     3
100
AcDbCircle
 10
528.3382456496069
 20
127.980035610096
 30
0.0
 40
1.249999999998999
100
AcDbArc
 50
113.578178478227
 51
156.421821521799
  0
ARC
  5
2D4
330
A
100
AcDbEntity
  8
1
  6
Continuous
 62
     3
100
AcDbCircle
 10
528.3382456496069
 20
127.980035610096
 30
0.0
 40
1.25
100
AcDbArc
 50
23.578178478197
 51
66.421821521773
  0
ARC
  5
2D3
330
A
100
AcDbEntity
  8
1
  6
Continuous
 62
     3
100
AcDbCircle
 10
528.3382456496069
 20
127.980035610096
 30
0.0
 40
1.25
100
AcDbArc
 50
-66.42182152180101
 51
-23.5781784782
  0
ARC
  5
2D2
330
A
100
AcDbEntity
  8
1
  6
Continuous
 62
     3
100
AcDbCircle
 10
528.3382456496069
 20
127.980035610096
 30
0.0
 40
1.25
100
AcDbArc
 50
-156.421821521795
 51
-113.578178478199
  0
ARC
  5
2D1
330
A
100
AcDbEntity
  8
1
  6
Continuous
 62
     3
100
AcDbCircle
 10
463.438681132125
 20
127.980035610096
 30
0.0
 40
1.25
100
AcDbArc
 50
23.5781784782
 51
66.421821521773
  0
ARC
  5
2D0
330
A
100
AcDbEntity
  8
1
  6
Continuous
 62
     3
100
AcDbCircle
 10
463.438681132125
 20
127.980035610096
 30
0.0
 40
1.25
100
AcDbArc
 50
-66.42182152180101
 51
-23.578178478203
  0
ARC
  5
2CF
330
A
100
AcDbEntity
  8
1
  6
Continuous
 62
     3
100
AcDbCircle
 10
463.438681132125
 20
127.980035610096
 30
0.0
 40
1.249999999998999
100
AcDbArc
 50
-156.421821521717
 51
-113.578178478199
  0
ARC
  5
2CE
330
A
100
AcDbEntity
  8
1
  6
Continuous
 62
     3
100
AcDbCircle
 10
463.438681132125
 20
127.980035610096
 30
0.0
 40
1.249999999998999
100
AcDbArc
 50
113.578178478227
 51
156.421821521834
  0
ARC
  5
2CD
330
A
100
AcDbEntity
  8
1
  6
Continuous
 62
     3
100
AcDbCircle
 10
398.539116614643
 20
127.980035610096
 30
0.0
 40
1.25
100
AcDbArc
 50
-156.421821521798
 51
-113.578178478216
  0
ARC
  5
2CC
330
A
100
AcDbEntity
  8
1
  6
Continuous
 62
     3
100
AcDbCircle
 10
398.539116614643
 20
127.980035610096
 30
0.0
 40
1.249999999998999
100
AcDbArc
 50
-66.42182152178399
 51
-23.578178478204
  0
ARC
  5
2CB
330
A
100
AcDbEntity
  8
1
  6
Continuous
 62
     3
100
AcDbCircle
 10
398.539116614643
 20
127.980035610096
 30
0.0
 40
1.25
100
AcDbArc
 50
23.578178478201
 51
66.42182152181501
  0
ARC
  5
2CA
330
A
100
AcDbEntity
  8
1
  6
Continuous
 62
     3
100
AcDbCircle
 10
398.539116614643
 20
127.980035610096
 30
0.0
 40
1.250000000001
100
AcDbArc
 50
113.578178478184
 51
156.421821521802
  0
ARC
  5
2C9
330
A
100
AcDbEntity
  8
1
  6
PHANTOM
 62
     1
100
AcDbCircle
 10
481.723608754808
 20
132.384010206303
 30
0.0
 40
1.0
100
AcDbArc
 50
52.75221516707201
 51
127.24778483292
  0
ARC
  5
2C8
330
A
100
AcDbEntity
  8
1
  6
PHANTOM
 62
     1
100
AcDbCircle
 10
481.723608754808
 20
123.576061013888
 30
0.0
 40
1.0
100
AcDbArc
 50
-127.247784832917
 51
-52.752215167075
  0
ARC
  5
2C7
330
A
100
AcDbEntity
  8
1
  6
Continuous
 62
     3
100
AcDbCircle
 10
318.957098023367
 20
85.588219665325
 30
0.0
 40
5.2
100
AcDbArc
 50
37.74841839344001
 51
52.25158160647101
  0
ARC
  5
2C6
330
A
100
AcDbEntity
  8
1
  6
Continuous
 62
     3
100
AcDbCircle
 10
318.957098023367
 20
85.588219665325
 30
0.0
 40
5.199999999999
100
AcDbArc
 50
-37.748418393436
 51
37.74841839344001
  0
ARC
  5
2C5
330
A
100
AcDbEntity
  8
1
  6
Continuous
 62
     3
100
AcDbCircle
 10
318.957098023369
 20
85.588219665324
 30
0.0
 40
5.299999999998
100
AcDbArc
 50
8.601749641874999
 51
39.73254364236401
  0
ARC
  5
2C4
330
A
100
AcDbEntity
  8
1
  6
Continuous
 62
     3
100
AcDbCircle
 10
322.071178324528
 20
88.70229996648099
 30
0.0
 40
1.0
100
AcDbArc
 50
3.975853406420999
 51
86.024146593488
  0
ARC
  5
2C3
330
A
100
AcDbEntity
  8
1
  6
Continuous
 62
     3
100
AcDbCircle
 10
318.957098023367
 20
85.588219665325
 30
0.0
 40
5.199999999999
100
AcDbArc
 50
-52.25158160651499
 51
-37.748418393436
  0
ARC
  5
2C2
330
A
100
AcDbEntity
  8
1
  6
Continuous
 62
     3
100
AcDbCircle
 10
318.957098023367
 20
85.588219665325
 30
0.0
 40
5.200000000001
100
AcDbArc
 50
-127.748418393514
 51
-52.25158160651499
  0
ARC
  5
2C1
330
A
100
AcDbEntity
  8
1
  6
Continuous
 62
     3
100
AcDbCircle
 10
318.957098023367
 20
85.588219665325
 30
0.0
 40
5.299999999999999
100
AcDbArc
 50
-129.732543642443
 51
-50.267456357588
  0
ARC
  5
2C0
330
A
100
AcDbEntity
  8
1
  6
Continuous
 62
     3
100
AcDbCircle
 10
322.071178324528
 20
82.47413936416601
 30
0.0
 40
1.0
100
AcDbArc
 50
-86.02414659368999
 51
-3.97585340624
  0
ARC
  5
2BF
330
A
100
AcDbEntity
  8
1
  6
Continuous
 62
     3
100
AcDbCircle
 10
318.957098023367
 20
85.588219665325
 30
0.0
 40
5.200000000001
100
AcDbArc
 50
-142.251581606453
 51
-127.748418393514
  0
ARC
  5
2BE
330
A
100
AcDbEntity
  8
1
  6
Continuous
 62
     3
100
AcDbCircle
 10
315.84301772221
 20
82.47413936416601
 30
0.0
 40
1.0
100
AcDbArc
 50
-176.024146593237
 51
-93.97585340671101
  0
ARC
  5
2BD
330
A
100
AcDbEntity
  8
1
  6
Continuous
 62
     3
100
AcDbCircle
 10
318.957098023367
 20
85.588219665325
 30
0.0
 40
5.299999999999999
100
AcDbArc
 50
-171.398250358096
 51
-140.267456357528
  0
ARC
  5
2BC
330
A
100
AcDbEntity
  8
1
  6
Continuous
 62
     3
100
AcDbCircle
 10
315.84301772221
 20
88.70229996648099
 30
0.0
 40
1.0
100
AcDbArc
 50
93.97585340679599
 51
176.024146593577
  0
ARC
  5
2BB
330
A
100
AcDbEntity
  8
1
  6
Continuous
 62
     3
100
AcDbCircle
 10
318.957098023369
 20
85.588219665324
 30
0.0
 40
5.299999999998
100
AcDbArc
 50
50.267456357598
 51
129.732543642412
  0
ARC
  5
2BA
330
A
100
AcDbEntity
  8
1
  6
Continuous
 62
     3
100
AcDbCircle
 10
318.957098023367
 20
85.588219665325
 30
0.0
 40
5.2
100
AcDbArc
 50
52.25158160647101
 51
127.748418393544
  0
ARC
  5
2B9
330
A
100
AcDbEntity
  8
1
  6
Continuous
 62
     3
100
AcDbCircle
 10
318.95709802339
 20
85.58821966531999
 30
0.0
 40
5.200000000018
100
AcDbArc
 50
127.748418393713
 51
142.251581606646
  0
ARC
  5
2B8
330
A
100
AcDbEntity
  8
1
  6
Continuous
 62
     3
100
AcDbCircle
 10
318.957098023365
 20
85.58821966532098
 30
0.0
 40
5.199999999996999
100
AcDbArc
 50
142.251581606485
 51
-142.251581606467
  0
ARC
  5
2B7
330
A
100
AcDbEntity
  8
1
  6
Continuous
 62
     3
100
AcDbCircle
 10
318.957098023367
 20
85.588219665325
 30
0.0
 40
5.799999999999999
100
AcDbArc
 50
18.080012624567
 51
161.919987375554
  0
ARC
  5
2B6
330
A
100
AcDbEntity
  8
1
  6
Continuous
 62
     3
100
AcDbCircle
 10
313.107098023371
 20
85.588219665325
 30
0.0
 40
1.0
100
AcDbArc
 50
-90.00000000000602
 51
-52.43830203836299
  0
ARC
  5
2B5
330
A
100
AcDbEntity
  8
1
  6
Continuous
 62
     3
100
AcDbCircle
 10
318.957098023367
 20
85.588219665325
 30
0.0
 40
5.799999999999999
100
AcDbArc
 50
-161.919987375596
 51
-18.080012624278
  0
ARC
  5
2B4
330
A
100
AcDbEntity
  8
1
  6
Continuous
 62
     3
100
AcDbCircle
 10
318.957098023371
 20
85.588219665325
 30
0.0
 40
6.199999999996
100
AcDbArc
 50
-9.281799086683999
 51
9.281799086683999
  0
ARC
  5
2B3
330
A
100
AcDbEntity
  8
1
  6
Continuous
 62
     3
100
AcDbCircle
 10
318.957098023369
 20
85.588219665324
 30
0.0
 40
5.949999999999
100
AcDbArc
 50
-160.358461740145
 51
-19.64153825985
  0
ARC
  5
2B2
330
A
100
AcDbEntity
  8
1
  6
Continuous
 62
     3
100
AcDbCircle
 10
318.957098023368
 20
85.588219665325
 30
0.0
 40
5.95
100
AcDbArc
 50
-9.675462517116999
 51
9.675462517108
  0
ARC
  5
2B1
330
A
100
AcDbEntity
  8
1
  6
Continuous
 62
     3
100
AcDbCircle
 10
318.95709802337
 20
85.588219665325
 30
0.0
 40
5.95
100
AcDbArc
 50
170.324537482892
 51
-170.324537482883
  0
ARC
  5
2B0
330
A
100
AcDbEntity
  8
1
  6
Continuous
 62
     3
100
AcDbCircle
 10
318.95709802337
 20
85.588219665325
 30
0.0
 40
5.95
100
AcDbArc
 50
19.641538259857
 51
160.358461740143
  0
ARC
  5
2AF
330
A
100
AcDbEntity
  8
1
  6
Continuous
 62
     3
100
AcDbCircle
 10
318.957098023365
 20
79.088219665324
 30
0.0
 40
0.4
100
AcDbArc
 50
180.0
 51
0.0
  0
ARC
  5
2AE
330
A
100
AcDbEntity
  8
1
  6
Continuous
 62
     3
100
AcDbCircle
 10
313.327932898767
 20
82.338219665326
 30
0.0
 40
0.400000000001
100
AcDbArc
 50
120.000000000009
 51
-59.999999999994
  0
ARC
  5
2AD
330
A
100
AcDbEntity
  8
1
  6
Continuous
 62
     3
100
AcDbCircle
 10
313.327932898771
 20
88.838219665323
 30
0.0
 40
0.4
100
AcDbArc
 50
60.00000000007499
 51
-120.000000000139
  0
ARC
  5
2AC
330
A
100
AcDbEntity
  8
1
  6
Continuous
 62
     3
100
AcDbCircle
 10
318.95709802337
 20
92.088219665325
 30
0.0
 40
0.4
100
AcDbArc
 50
0.0
 51
180.0
  0
ARC
  5
2AB
330
A
100
AcDbEntity
  8
1
  6
Continuous
 62
     3
100
AcDbCircle
 10
324.586263147968
 20
88.83821966532201
 30
0.0
 40
0.4
100
AcDbArc
 50
-59.999999999939
 51
119.999999999941
  0
ARC
  5
2AA
330
A
100
AcDbEntity
  8
1
  6
Continuous
 62
     3
100
AcDbCircle
 10
324.586263147965
 20
82.338219665322
 30
0.0
 40
0.399999999999
100
AcDbArc
 50
-120.000000000043
 51
60.00000000004201
  0
ARC
  5
2A9
330
A
100
AcDbEntity
  8
1
  6
Continuous
 62
     3
100
AcDbCircle
 10
318.957098023367
 20
85.588219665325
 30
0.0
 40
5.299999999999999
100
AcDbArc
 50
-39.73254364236499
 51
-8.601749641875999
  0
ARC
  5
2A8
330
A
100
AcDbEntity
  8
1
  6
Continuous
 62
     3
100
AcDbCircle
 10
318.957098023369
 20
85.588219665324
 30
0.0
 40
5.299999999998
100
AcDbArc
 50
140.267456357623
 51
171.398250358125
  0
ARC
  5
2A7
330
A
100
AcDbEntity
  8
1
  6
Continuous
 62
     3
100
AcDbCircle
 10
324.807098023367
 20
85.588219665325
 30
0.0
 40
1.0
100
AcDbArc
 50
-134.375597022635
 51
-89.99999999998699
  0
ARC
  5
2A6
330
A
100
AcDbEntity
  8
1
  6
Continuous
 62
     3
100
AcDbCircle
 10
318.957098023367
 20
85.588219665325
 30
0.0
 40
6.199999999996
100
AcDbArc
 50
170.718200913316
 51
-170.718200913316
  0
ARC
  5
2A5
330
A
100
AcDbEntity
  8
1
  6
Continuous
 62
     3
100
AcDbCircle
 10
313.107098023371
 20
85.588219665325
 30
0.0
 40
1.0
100
AcDbArc
 50
-52.43830203836299
 51
90.00000000000602
  0
ARC
  5
2A4
330
A
100
AcDbEntity
  8
1
  6
Continuous
 62
     3
100
AcDbCircle
 10
324.807098023367
 20
85.588219665325
 30
0.0
 40
1.0
100
AcDbArc
 50
89.99999999998699
 51
127.561697961939
  0
ARC
  5
2A3
330
A
100
AcDbEntity
  8
1
  6
Continuous
 62
     3
100
AcDbCircle
 10
324.807098023367
 20
85.588219665325
 30
0.0
 40
0.999999999999
100
AcDbArc
 50
127.561697961939
 51
134.375597022672
  0
ARC
  5
2A2
330
A
100
AcDbEntity
  8
1
  6
Continuous
 62
     3
100
AcDbCircle
 10
324.807098023367
 20
85.588219665325
 30
0.0
 40
1.0
100
AcDbArc
 50
134.375597022672
 51
-134.375597022635
  0
ARC
  5
2A1
330
A
100
AcDbEntity
  8
1
  6
Continuous
 62
     3
100
AcDbCircle
 10
318.957098023369
 20
143.121756234798
 30
0.0
 40
1.25
100
AcDbArc
 50
-156.421821521796
 51
-113.578178478199
  0
ARC
  5
2A0
330
A
100
AcDbEntity
  8
1
  6
Continuous
 62
     3
100
AcDbCircle
 10
318.957098023369
 20
143.121756234798
 30
0.0
 40
1.25
100
AcDbArc
 50
-66.42182152180101
 51
-23.578178478201
  0
ARC
  5
29F
330
A
100
AcDbEntity
  8
1
  6
Continuous
 62
     3
100
AcDbCircle
 10
318.957098023369
 20
143.121756234798
 30
0.0
 40
1.25
100
AcDbArc
 50
23.578178478201
 51
66.421821521795
  0
ARC
  5
29E
330
A
100
AcDbEntity
  8
1
  6
Continuous
 62
     3
100
AcDbCircle
 10
318.957098023369
 20
143.121756234798
 30
0.0
 40
1.25
100
AcDbArc
 50
113.578178478205
 51
156.421821521796
  0
ARC
  5
29D
330
A
100
AcDbEntity
  8
1
  6
Continuous
 62
     3
100
AcDbCircle
 10
318.957098023369
 20
113.485024619272
 30
0.0
 40
0.4
100
AcDbArc
 50
180.0
 51
0.0
  0
ARC
  5
29C
330
A
100
AcDbEntity
  8
1
  6
Continuous
 62
     3
100
AcDbCircle
 10
294.492885352762
 20
113.465024619272
 30
0.0
 40
0.376284922426
100
AcDbArc
 50
180.0
 51
0.0
  0
ARC
  5
29B
330
A
100
AcDbEntity
  8
1
  6
Continuous
 62
     3
100
AcDbCircle
 10
287.945455197615
 20
113.465024619272
 30
0.0
 40
0.376284922426
100
AcDbArc
 50
180.0
 51
0.0
  0
LINE
  5
29A
330
A
100
AcDbEntity
  8
1
  6
Continuous
 62
     3
100
AcDbLine
 10
414.324044237323
 20
133.280035610094
 30
0.0
 11
414.324044237323
 21
133.630035610095
 31
0.0
  0
LINE
  5
299
330
A
100
AcDbEntity
  8
1
  6
Continuous
 62
     3
100
AcDbLine
 10
479.223608754805
 20
122.330035610096
 30
0.0
 11
479.223608754805
 21
122.680035610097
 31
0.0
  0
LINE
  5
298
330
A
100
AcDbEntity
  8
1
  6
Continuous
 62
     3
100
AcDbLine
 10
479.223608754805
 20
133.280035610094
 30
0.0
 11
479.223608754805
 21
133.630035610095
 31
0.0
  0
LINE
  5
297
330
A
100
AcDbEntity
  8
1
  6
Continuous
 62
     3
100
AcDbLine
 10
413.324044237323
 20
134.480035610096
 30
0.0
 11
413.324044237323
 21
134.430035610097
 31
0.0
  0
LINE
  5
296
330
A
100
AcDbEntity
  8
1
  6
Continuous
 62
     3
100
AcDbLine
 10
543.123173272287
 20
134.480035610096
 30
0.0
 11
543.123173272287
 21
134.4300356101
 31
0.0
  0
LINE
  5
295
330
A
100
AcDbEntity
  8
1
  6
Continuous
 62
     3
100
AcDbLine
 10
414.324044237323
 20
122.330035610096
 30
0.0
 11
414.324044237323
 21
122.680035610097
 31
0.0
  0
LINE
  5
294
330
A
100
AcDbEntity
  8
1
  6
Continuous
 62
     3
100
AcDbLine
 10
544.123173272287
 20
133.280035610096
 30
0.0
 11
544.123173272287
 21
133.630035610095
 31
0.0
  0
LINE
  5
293
330
A
100
AcDbEntity
  8
1
  6
Continuous
 62
     3
100
AcDbLine
 10
413.324044237323
 20
120.480035610096
 30
0.0
 11
413.324044237323
 21
121.480035610096
 31
0.0
  0
LINE
  5
292
330
A
100
AcDbEntity
  8
1
  6
Continuous
 62
     3
100
AcDbLine
 10
544.123173272287
 20
122.680035610099
 30
0.0
 11
544.123173272287
 21
122.780035610099
 31
0.0
  0
LINE
  5
291
330
A
100
AcDbEntity
  8
1
  6
Continuous
 62
     3
100
AcDbLine
 10
478.2236087548049
 20
135.480035610096
 30
0.0
 11
478.2236087548049
 21
144.480035610096
 31
0.0
  0
LINE
  5
290
330
A
100
AcDbEntity
  8
1
  6
Continuous
 62
     3
100
AcDbLine
 10
543.123173272287
 20
120.480035610097
 30
0.0
 11
543.123173272287
 21
121.480035610096
 31
0.0
  0
LINE
  5
28F
330
A
100
AcDbEntity
  8
1
  6
DOTTED
 62
     1
100
AcDbLine
 10
485.223608754805
 20
127.288246791328
 30
0.0
 11
485.223608754805
 21
128.980035610096
 31
0.0
  0
LINE
  5
28E
330
A
100
AcDbEntity
  8
1
  6
Continuous
 62
     3
100
AcDbLine
 10
478.2236087548049
 20
120.480035610096
 30
0.0
 11
478.2236087548049
 21
121.480035610096
 31
0.0
  0
LINE
  5
28D
330
A
100
AcDbEntity
  8
1
  6
Continuous
 62
     3
100
AcDbLine
 10
486.473608754805
 20
128.980035610096
 30
0.0
 11
489.0236087548049
 21
128.980035610096
 31
0.0
  0
LINE
  5
28C
330
A
100
AcDbEntity
  8
1
  6
Continuous
 62
     3
100
AcDbLine
 10
489.0236087548049
 20
126.980035610096
 30
0.0
 11
489.223608754805
 21
126.980035610096
 31
0.0
  0
LINE
  5
28B
330
A
100
AcDbEntity
  8
1
  6
Continuous
 62
     3
100
AcDbLine
 10
421.574044237322
 20
124.980035610096
 30
0.0
 11
424.124044237322
 21
124.980035610096
 31
0.0
  0
LINE
  5
28A
330
A
100
AcDbEntity
  8
1
  6
Continuous
 62
     3
100
AcDbLine
 10
424.124044237322
 20
122.980035610096
 30
0.0
 11
424.3240442373219
 21
122.980035610096
 31
0.0
  0
LINE
  5
289
330
A
100
AcDbEntity
  8
1
  6
DOT_CENTER
 62
     1
100
AcDbLine
 10
518.7352660558079
 20
127.980035610096
 30
0.0
 11
538.334743006747
 21
127.980035610096
 31
0.0
  0
LINE
  5
288
330
A
100
AcDbEntity
  8
1
  6
DOT_CENTER
 62
     1
100
AcDbLine
 10
528.338245649604
 20
137.469548613534
 30
0.0
 11
528.3382456496069
 21
118.717509023236
 31
0.0
  0
LINE
  5
287
330
A
100
AcDbEntity
  8
1
  6
Continuous
 62
     3
100
AcDbLine
 10
527.8382456496069
 20
130.980035610096
 30
0.0
 11
528.8382456496069
 21
130.980035610096
 31
0.0
  0
LINE
  5
286
330
A
100
AcDbEntity
  8
1
  6
Continuous
 62
     3
100
AcDbLine
 10
528.8382456496069
 20
130.980035610096
 30
0.0
 11
528.8382456496069
 21
129.125679533833
 31
0.0
  0
LINE
  5
285
330
A
100
AcDbEntity
  8
1
  6
Continuous
 62
     3
100
AcDbLine
 10
528.8382456496069
 20
124.980035610096
 30
0.0
 11
527.8382456496069
 21
124.980035610096
 31
0.0
  0
LINE
  5
284
330
A
100
AcDbEntity
  8
1
  6
Continuous
 62
     3
100
AcDbLine
 10
527.8382456496069
 20
124.980035610096
 30
0.0
 11
527.8382456496069
 21
126.834391686357
 31
0.0
  0
LINE
  5
283
330
A
100
AcDbEntity
  8
1
  6
Continuous
 62
     3
100
AcDbLine
 10
525.3382456496069
 20
128.480035610096
 30
0.0
 11
527.192601725868
 21
128.480035610096
 31
0.0
  0
LINE
  5
282
330
A
100
AcDbEntity
  8
1
  6
Continuous
 62
     3
100
AcDbLine
 10
531.338245649607
 20
128.480035610096
 30
0.0
 11
531.338245649607
 21
127.480035610096
 31
0.0
  0
LINE
  5
281
330
A
100
AcDbEntity
  8
1
  6
Continuous
 62
     3
100
AcDbLine
 10
531.338245649607
 20
127.480035610096
 30
0.0
 11
529.483889573346
 21
127.480035610096
 31
0.0
  0
LINE
  5
280
330
A
100
AcDbEntity
  8
1
  6
Continuous
 62
     3
100
AcDbLine
 10
525.3382456496069
 20
127.480035610096
 30
0.0
 11
525.3382456496069
 21
128.480035610096
 31
0.0
  0
LINE
  5
27F
330
A
100
AcDbEntity
  8
1
  6
Continuous
 62
     3
100
AcDbLine
 10
528.8382456496069
 20
126.834391686357
 30
0.0
 11
528.8382456496069
 21
124.980035610096
 31
0.0
  0
LINE
  5
27E
330
A
100
AcDbEntity
  8
1
  6
Continuous
 62
     3
100
AcDbLine
 10
527.8382456496069
 20
129.125679533833
 30
0.0
 11
527.8382456496069
 21
130.980035610096
 31
0.0
  0
LINE
  5
27D
330
A
100
AcDbEntity
  8
1
  6
Continuous
 62
     3
100
AcDbLine
 10
529.483889573346
 20
128.480035610096
 30
0.0
 11
531.338245649607
 21
128.480035610096
 31
0.0
  0
LINE
  5
27C
330
A
100
AcDbEntity
  8
1
  6
Continuous
 62
     3
100
AcDbLine
 10
527.192601725868
 20
127.480035610096
 30
0.0
 11
525.3382456496069
 21
127.480035610096
 31
0.0
  0
LINE
  5
27B
330
A
100
AcDbEntity
  8
1
  6
Continuous
 62
     3
100
AcDbLine
 10
463.938681132125
 20
130.980035610096
 30
0.0
 11
463.938681132125
 21
129.125679533833
 31
0.0
  0
LINE
  5
27A
330
A
100
AcDbEntity
  8
1
  6
Continuous
 62
     3
100
AcDbLine
 10
462.938681132125
 20
124.980035610096
 30
0.0
 11
462.938681132125
 21
126.834391686357
 31
0.0
  0
LINE
  5
279
330
A
100
AcDbEntity
  8
1
  6
Continuous
 62
     3
100
AcDbLine
 10
460.438681132125
 20
128.480035610096
 30
0.0
 11
462.2930372083869
 21
128.480035610094
 31
0.0
  0
LINE
  5
278
330
A
100
AcDbEntity
  8
1
  6
Continuous
 62
     3
100
AcDbLine
 10
466.4386811321249
 20
127.480035610096
 30
0.0
 11
464.584325055864
 21
127.480035610096
 31
0.0
  0
LINE
  5
277
330
A
100
AcDbEntity
  8
1
  6
Continuous
 62
     3
100
AcDbLine
 10
462.938681132125
 20
130.980035610096
 30
0.0
 11
463.938681132125
 21
130.980035610096
 31
0.0
  0
LINE
  5
276
330
A
100
AcDbEntity
  8
1
  6
Continuous
 62
     3
100
AcDbLine
 10
463.938681132125
 20
126.834391686357
 30
0.0
 11
463.938681132125
 21
124.980035610096
 31
0.0
  0
LINE
  5
275
330
A
100
AcDbEntity
  8
1
  6
Continuous
 62
     3
100
AcDbLine
 10
463.938681132125
 20
124.980035610096
 30
0.0
 11
462.938681132125
 21
124.980035610096
 31
0.0
  0
LINE
  5
274
330
A
100
AcDbEntity
  8
1
  6
Continuous
 62
     3
100
AcDbLine
 10
462.938681132125
 20
129.125679533833
 30
0.0
 11
462.938681132125
 21
130.980035610096
 31
0.0
  0
LINE
  5
273
330
A
100
AcDbEntity
  8
1
  6
Continuous
 62
     3
100
AcDbLine
 10
464.584325055864
 20
128.480035610096
 30
0.0
 11
466.4386811321249
 21
128.480035610094
 31
0.0
  0
LINE
  5
272
330
A
100
AcDbEntity
  8
1
  6
Continuous
 62
     3
100
AcDbLine
 10
466.4386811321249
 20
128.480035610094
 30
0.0
 11
466.4386811321249
 21
127.480035610096
 31
0.0
  0
LINE
  5
271
330
A
100
AcDbEntity
  8
1
  6
Continuous
 62
     3
100
AcDbLine
 10
462.2930372083869
 20
127.480035610094
 30
0.0
 11
460.438681132125
 21
127.480035610094
 31
0.0
  0
LINE
  5
270
330
A
100
AcDbEntity
  8
1
  6
Continuous
 62
     3
100
AcDbLine
 10
460.438681132125
 20
127.480035610094
 30
0.0
 11
460.438681132125
 21
128.480035610096
 31
0.0
  0
LINE
  5
26F
330
A
100
AcDbEntity
  8
1
  6
DOT_CENTER
 62
     1
100
AcDbLine
 10
472.701207718986
 20
127.980035610094
 30
0.0
 11
453.949168128687
 21
127.980035610098
 31
0.0
  0
LINE
  5
26E
330
A
100
AcDbEntity
  8
1
  6
DOT_CENTER
 62
     1
100
AcDbLine
 10
463.438681132125
 20
117.983538252954
 30
0.0
 11
463.438681132125
 21
137.583015203895
 31
0.0
  0
LINE
  5
26D
330
A
100
AcDbEntity
  8
1
  6
DOT_CENTER
 62
     1
100
AcDbLine
 10
408.535613971783
 20
127.980035610096
 30
0.0
 11
388.9361370208439
 21
127.980035610096
 31
0.0
  0
LINE
  5
26C
330
A
100
AcDbEntity
  8
1
  6
DOT_CENTER
 62
     1
100
AcDbLine
 10
398.539116614643
 20
137.242562196957
 30
0.0
 11
398.53911661464
 21
118.490522606657
 31
0.0
  0
LINE
  5
26B
330
A
100
AcDbEntity
  8
1
  6
Continuous
 62
     3
100
AcDbLine
 10
399.039116614643
 20
124.980035610096
 30
0.0
 11
398.039116614643
 21
124.980035610096
 31
0.0
  0
LINE
  5
26A
330
A
100
AcDbEntity
  8
1
  6
Continuous
 62
     3
100
AcDbLine
 10
399.039116614643
 20
126.834391686358
 30
0.0
 11
399.039116614643
 21
124.980035610096
 31
0.0
  0
LINE
  5
269
330
A
100
AcDbEntity
  8
1
  6
Continuous
 62
     3
100
AcDbLine
 10
398.039116614643
 20
130.980035610096
 30
0.0
 11
399.039116614643
 21
130.980035610096
 31
0.0
  0
LINE
  5
268
330
A
100
AcDbEntity
  8
1
  6
Continuous
 62
     3
100
AcDbLine
 10
398.039116614643
 20
129.125679533836
 30
0.0
 11
398.039116614643
 21
130.980035610096
 31
0.0
  0
LINE
  5
267
330
A
100
AcDbEntity
  8
1
  6
Continuous
 62
     3
100
AcDbLine
 10
397.393472690904
 20
127.480035610096
 30
0.0
 11
395.539116614643
 21
127.480035610096
 31
0.0
  0
LINE
  5
266
330
A
100
AcDbEntity
  8
1
  6
Continuous
 62
     3
100
AcDbLine
 10
401.539116614643
 20
128.480035610096
 30
0.0
 11
401.539116614643
 21
127.480035610096
 31
0.0
  0
LINE
  5
265
330
A
100
AcDbEntity
  8
1
  6
Continuous
 62
     3
100
AcDbLine
 10
399.684760538382
 20
128.480035610096
 30
0.0
 11
401.539116614643
 21
128.480035610096
 31
0.0
  0
LINE
  5
264
330
A
100
AcDbEntity
  8
1
  6
Continuous
 62
     3
100
AcDbLine
 10
395.539116614643
 20
127.480035610096
 30
0.0
 11
395.539116614643
 21
128.480035610096
 31
0.0
  0
LINE
  5
263
330
A
100
AcDbEntity
  8
1
  6
Continuous
 62
     3
100
AcDbLine
 10
399.039116614643
 20
130.980035610096
 30
0.0
 11
399.039116614643
 21
129.125679533836
 31
0.0
  0
LINE
  5
262
330
A
100
AcDbEntity
  8
1
  6
Continuous
 62
     3
100
AcDbLine
 10
398.039116614643
 20
124.980035610096
 30
0.0
 11
398.039116614643
 21
126.834391686358
 31
0.0
  0
LINE
  5
261
330
A
100
AcDbEntity
  8
1
  6
Continuous
 62
     3
100
AcDbLine
 10
401.539116614643
 20
127.480035610096
 30
0.0
 11
399.684760538382
 21
127.480035610096
 31
0.0
  0
LINE
  5
260
330
A
100
AcDbEntity
  8
1
  6
Continuous
 62
     3
100
AcDbLine
 10
395.539116614643
 20
128.480035610096
 30
0.0
 11
397.393472690904
 21
128.480035610096
 31
0.0
  0
LINE
  5
25F
330
A
100
AcDbEntity
  8
1
  6
Continuous
 62
     3
100
AcDbLine
 10
542.1231732722869
 20
131.480035610097
 30
0.0
 11
542.1231732722869
 21
132.980035610097
 31
0.0
  0
LINE
  5
25E
330
A
100
AcDbEntity
  8
1
  6
Continuous
 62
     3
100
AcDbLine
 10
542.4231732722869
 20
131.480035610097
 30
0.0
 11
542.1231732722869
 21
131.480035610097
 31
0.0
  0
LINE
  5
25D
330
A
100
AcDbEntity
  8
1
  6
Continuous
 62
     3
100
AcDbLine
 10
542.4231732722869
 20
132.980035610097
 30
0.0
 11
542.4231732722869
 21
131.480035610097
 31
0.0
  0
LINE
  5
25C
330
A
100
AcDbEntity
  8
1
  6
Continuous
 62
     3
100
AcDbLine
 10
542.1231732722869
 20
132.980035610097
 30
0.0
 11
542.1231732722869
 21
133.630035610095
 31
0.0
  0
LINE
  5
25B
330
A
100
AcDbEntity
  8
1
  6
Continuous
 62
     3
100
AcDbLine
 10
542.1231732722869
 20
132.980035610097
 30
0.0
 11
542.4231732722869
 21
132.980035610097
 31
0.0
  0
LINE
  5
25A
330
A
100
AcDbEntity
  8
1
  6
Continuous
 62
     3
100
AcDbLine
 10
549.923173272286
 20
132.980035610097
 30
0.0
 11
553.923173272286
 21
132.980035610097
 31
0.0
  0
LINE
  5
259
330
A
100
AcDbEntity
  8
1
  6
Continuous
 62
     3
100
AcDbLine
 10
542.1231732722869
 20
130.980035610097
 30
0.0
 11
542.1231732722869
 21
131.480035610097
 31
0.0
  0
LINE
  5
258
330
A
100
AcDbEntity
  8
1
  6
Continuous
 62
     3
100
AcDbLine
 10
544.123173272287
 20
133.630035610095
 30
0.0
 11
542.1231732722869
 21
133.630035610095
 31
0.0
  0
LINE
  5
257
330
A
100
AcDbEntity
  8
1
  6
Continuous
 62
     3
100
AcDbLine
 10
545.6231732722869
 20
130.980035610097
 30
0.0
 11
542.1231732722869
 21
130.980035610097
 31
0.0
  0
LINE
  5
256
330
A
100
AcDbEntity
  8
1
  6
Continuous
 62
     3
100
AcDbLine
 10
545.6231732722869
 20
124.980035610097
 30
0.0
 11
545.6231732722869
 21
130.980035610097
 31
0.0
  0
LINE
  5
255
330
A
100
AcDbEntity
  8
1
  6
Continuous
 62
     3
100
AcDbLine
 10
542.1231732722869
 20
128.480035610097
 30
0.0
 11
545.6231732722869
 21
128.480035610097
 31
0.0
  0
LINE
  5
254
330
A
100
AcDbEntity
  8
1
  6
Continuous
 62
     3
100
AcDbLine
 10
542.1231732722869
 20
129.125679533837
 30
0.0
 11
545.6231732722869
 21
129.125679533837
 31
0.0
  0
LINE
  5
253
330
A
100
AcDbEntity
  8
1
  6
Continuous
 62
     3
100
AcDbLine
 10
542.1231732722869
 20
124.980035610097
 30
0.0
 11
542.1231732722869
 21
130.980035610097
 31
0.0
  0
LINE
  5
252
330
A
100
AcDbEntity
  8
1
  6
Continuous
 62
     3
100
AcDbLine
 10
554.1231732722869
 20
132.780035610098
 30
0.0
 11
554.1231732722869
 21
131.180035610097
 31
0.0
  0
LINE
  5
251
330
A
100
AcDbEntity
  8
1
  6
DOT_CENTER
 62
     1
100
AcDbLine
 10
540.165699859146
 20
127.980035610097
 30
0.0
 11
556.0884447099169
 21
127.980035610097
 31
0.0
  0
LINE
  5
250
330
A
100
AcDbEntity
  8
1
  6
Continuous
 62
     3
100
AcDbLine
 10
544.123173272287
 20
133.180035610095
 30
0.0
 11
544.123173272287
 21
133.280035610096
 31
0.0
  0
LINE
  5
24F
330
A
100
AcDbEntity
  8
1
  6
Continuous
 62
     3
100
AcDbLine
 10
549.640330559812
 20
133.180035610095
 30
0.0
 11
544.123173272287
 21
133.180035610095
 31
0.0
  0
LINE
  5
24E
330
A
100
AcDbEntity
  8
1
  6
Continuous
 62
     3
100
AcDbLine
 10
544.123173272287
 20
122.780035610099
 30
0.0
 11
549.6231732722869
 21
122.780035610099
 31
0.0
  0
LINE
  5
24D
330
A
100
AcDbEntity
  8
1
  6
Continuous
 62
     3
100
AcDbLine
 10
544.123173272287
 20
122.330035610096
 30
0.0
 11
544.123173272287
 21
122.680035610099
 31
0.0
  0
LINE
  5
24C
330
A
100
AcDbEntity
  8
1
  6
Continuous
 62
     3
100
AcDbLine
 10
545.6231732722869
 20
126.834391686358
 30
0.0
 11
542.1231732722869
 21
126.834391686358
 31
0.0
  0
LINE
  5
24B
330
A
100
AcDbEntity
  8
1
  6
Continuous
 62
     3
100
AcDbLine
 10
545.6231732722869
 20
127.480035610097
 30
0.0
 11
542.1231732722869
 21
127.480035610097
 31
0.0
  0
LINE
  5
24A
330
A
100
AcDbEntity
  8
1
  6
Continuous
 62
     3
100
AcDbLine
 10
542.1231732722869
 20
124.980035610097
 30
0.0
 11
545.6231732722869
 21
124.980035610097
 31
0.0
  0
LINE
  5
249
330
A
100
AcDbEntity
  8
1
  6
Continuous
 62
     3
100
AcDbLine
 10
542.1231732722869
 20
122.330035610097
 30
0.0
 11
544.123173272287
 21
122.330035610096
 31
0.0
  0
LINE
  5
248
330
A
100
AcDbEntity
  8
1
  6
Continuous
 62
     3
100
AcDbLine
 10
542.1231732722869
 20
122.330035610097
 30
0.0
 11
542.1231732722869
 21
124.980035610097
 31
0.0
  0
LINE
  5
247
330
A
100
AcDbEntity
  8
1
  6
Continuous
 62
     3
100
AcDbLine
 10
553.923173272286
 20
130.980035610097
 30
0.0
 11
550.1231732722869
 21
130.980035610097
 31
0.0
  0
LINE
  5
246
330
A
100
AcDbEntity
  8
1
  6
Continuous
 62
     3
100
AcDbLine
 10
549.6231732722869
 20
122.780035610099
 30
0.0
 11
549.6231732722869
 21
124.980035610097
 31
0.0
  0
LINE
  5
245
330
A
100
AcDbEntity
  8
1
  6
Continuous
 62
     3
100
AcDbLine
 10
549.6231732722869
 20
124.980035610097
 30
0.0
 11
547.1231732722869
 21
124.980035610097
 31
0.0
  0
LINE
  5
244
330
A
100
AcDbEntity
  8
1
  6
Continuous
 62
     3
100
AcDbLine
 10
549.6231732722869
 20
124.980035610097
 30
0.0
 11
549.6231732722869
 21
130.680035610097
 31
0.0
  0
LINE
  5
243
330
A
100
AcDbEntity
  8
1
  6
Continuous
 62
     3
100
AcDbLine
 10
546.6231732722869
 20
125.480035610097
 30
0.0
 11
546.6231732722869
 21
130.480035610097
 31
0.0
  0
LINE
  5
242
330
A
100
AcDbEntity
  8
1
  6
Continuous
 62
     3
100
AcDbLine
 10
547.1231732722869
 20
130.980035610097
 30
0.0
 11
549.923173272286
 21
130.980035610097
 31
0.0
  0
LINE
  5
241
330
A
100
AcDbEntity
  8
1
  6
Continuous
 62
     3
100
AcDbLine
 10
547.780280053473
 20
122.837142391286
 30
0.0
 11
547.7160664910989
 21
122.77292882891
 31
0.0
  0
LINE
  5
240
330
A
100
AcDbEntity
  8
1
  6
Continuous
 62
     3
100
AcDbLine
 10
543.123173272287
 20
121.530035610095
 30
0.0
 11
546.1231732722869
 21
121.530035610095
 31
0.0
  0
LINE
  5
23F
330
A
100
AcDbEntity
  8
1
  6
Continuous
 62
     3
100
AcDbLine
 10
546.1231732722869
 20
121.530035610095
 30
0.0
 11
546.1231732722869
 21
121.580035610101
 31
0.0
  0
LINE
  5
23E
330
A
100
AcDbEntity
  8
1
  6
Continuous
 62
     3
100
AcDbLine
 10
550.1231732722869
 20
123.130035610099
 30
0.0
 11
548.4873868346599
 21
123.130035610099
 31
0.0
  0
LINE
  5
23D
330
A
100
AcDbEntity
  8
1
  6
Continuous
 62
     3
100
AcDbLine
 10
550.1231732722869
 20
122.030035610095
 30
0.0
 11
550.1231732722869
 21
123.130035610099
 31
0.0
  0
LINE
  5
23C
330
A
100
AcDbEntity
  8
1
  6
Continuous
 62
     3
100
AcDbLine
 10
546.1231732722869
 20
122.480035610097
 30
0.0
 11
547.008959709912
 21
122.480035610097
 31
0.0
  0
LINE
  5
23B
330
A
100
AcDbEntity
  8
1
  6
Continuous
 62
     3
100
AcDbLine
 10
544.123173272287
 20
122.280035610096
 30
0.0
 11
544.123173272287
 21
122.680035610099
 31
0.0
  0
LINE
  5
23A
330
A
100
AcDbEntity
  8
1
  6
Continuous
 62
     3
100
AcDbLine
 10
542.523173272287
 20
120.480035610097
 30
0.0
 11
542.1231732722869
 21
121.680035610097
 31
0.0
  0
LINE
  5
239
330
A
100
AcDbEntity
  8
1
  6
Continuous
 62
     3
100
AcDbLine
 10
542.1231732722869
 20
122.280035610096
 30
0.0
 11
544.123173272287
 21
122.280035610096
 31
0.0
  0
LINE
  5
238
330
A
100
AcDbEntity
  8
1
  6
Continuous
 62
     3
100
AcDbLine
 10
544.123173272287
 20
122.680035610099
 30
0.0
 11
546.1231732722869
 21
122.680035610099
 31
0.0
  0
LINE
  5
237
330
A
100
AcDbEntity
  8
1
  6
Continuous
 62
     3
100
AcDbLine
 10
543.123173272287
 20
121.530035610095
 30
0.0
 11
543.123173272287
 21
120.480035610097
 31
0.0
  0
LINE
  5
236
330
A
100
AcDbEntity
  8
1
  6
Continuous
 62
     3
100
AcDbLine
 10
543.123173272287
 20
120.480035610097
 30
0.0
 11
542.523173272287
 21
120.480035610097
 31
0.0
  0
LINE
  5
235
330
A
100
AcDbEntity
  8
1
  6
Continuous
 62
     3
100
AcDbLine
 10
542.1231732722869
 20
121.680035610097
 30
0.0
 11
542.1231732722869
 21
122.280035610096
 31
0.0
  0
LINE
  5
234
330
A
100
AcDbEntity
  8
1
  6
Continuous
 62
     3
100
AcDbLine
 10
549.8731732722911
 20
121.780035610099
 30
0.0
 11
550.1231732722869
 21
122.030035610095
 31
0.0
  0
LINE
  5
233
330
A
100
AcDbEntity
  8
1
  6
Continuous
 62
     3
100
AcDbLine
 10
546.1231732722869
 20
122.680035610099
 30
0.0
 11
546.1231732722869
 21
122.480035610097
 31
0.0
  0
LINE
  5
232
330
A
100
AcDbEntity
  8
1
  6
Continuous
 62
     3
100
AcDbLine
 10
546.323173272287
 20
121.780035610101
 30
0.0
 11
549.8731732722911
 21
121.780035610099
 31
0.0
  0
LINE
  5
231
330
A
100
AcDbEntity
  8
1
  6
Continuous
 62
     3
100
AcDbLine
 10
549.8731732722911
 20
134.180035610095
 30
0.0
 11
546.323173272287
 21
134.180035610094
 31
0.0
  0
LINE
  5
230
330
A
100
AcDbEntity
  8
1
  6
Continuous
 62
     3
100
AcDbLine
 10
550.1231732722869
 20
123.130035610099
 30
0.0
 11
550.1231732722869
 21
130.980035610097
 31
0.0
  0
LINE
  5
22F
330
A
100
AcDbEntity
  8
1
  6
Continuous
 62
     3
100
AcDbLine
 10
546.1231732722869
 20
133.480035610097
 30
0.0
 11
546.1231732722869
 21
133.280035610096
 31
0.0
  0
LINE
  5
22E
330
A
100
AcDbEntity
  8
1
  6
Continuous
 62
     3
100
AcDbLine
 10
550.1231732722869
 20
133.9300356101
 30
0.0
 11
549.8731732722911
 21
134.180035610095
 31
0.0
  0
LINE
  5
22D
330
A
100
AcDbEntity
  8
1
  6
Continuous
 62
     3
100
AcDbLine
 10
542.1231732722869
 20
133.680035610097
 30
0.0
 11
542.1231732722869
 21
134.280035610098
 31
0.0
  0
LINE
  5
22C
330
A
100
AcDbEntity
  8
1
  6
Continuous
 62
     3
100
AcDbLine
 10
542.523173272287
 20
135.480035610097
 30
0.0
 11
543.123173272287
 21
135.480035610097
 31
0.0
  0
LINE
  5
22B
330
A
100
AcDbEntity
  8
1
  6
Continuous
 62
     3
100
AcDbLine
 10
543.123173272287
 20
135.480035610097
 30
0.0
 11
543.123173272287
 21
134.480035610096
 31
0.0
  0
LINE
  5
22A
330
A
100
AcDbEntity
  8
1
  6
Continuous
 62
     3
100
AcDbLine
 10
546.1231732722869
 20
133.280035610096
 30
0.0
 11
544.123173272287
 21
133.280035610096
 31
0.0
  0
LINE
  5
229
330
A
100
AcDbEntity
  8
1
  6
Continuous
 62
     3
100
AcDbLine
 10
544.123173272287
 20
133.680035610097
 30
0.0
 11
542.1231732722869
 21
133.680035610097
 31
0.0
  0
LINE
  5
228
330
A
100
AcDbEntity
  8
1
  6
Continuous
 62
     3
100
AcDbLine
 10
542.1231732722869
 20
134.280035610098
 30
0.0
 11
542.523173272287
 21
135.480035610097
 31
0.0
  0
LINE
  5
227
330
A
100
AcDbEntity
  8
1
  6
Continuous
 62
     3
100
AcDbLine
 10
544.123173272287
 20
133.280035610096
 30
0.0
 11
544.123173272287
 21
133.680035610097
 31
0.0
  0
LINE
  5
226
330
A
100
AcDbEntity
  8
1
  6
Continuous
 62
     3
100
AcDbLine
 10
547.008959709912
 20
133.480035610097
 30
0.0
 11
546.1231732722869
 21
133.480035610097
 31
0.0
  0
LINE
  5
225
330
A
100
AcDbEntity
  8
1
  6
Continuous
 62
     3
100
AcDbLine
 10
550.1231732722869
 20
132.830035610096
 30
0.0
 11
550.1231732722869
 21
133.9300356101
 31
0.0
  0
LINE
  5
224
330
A
100
AcDbEntity
  8
1
  6
Continuous
 62
     3
100
AcDbLine
 10
548.4873868346599
 20
132.830035610096
 30
0.0
 11
550.1231732722869
 21
132.830035610096
 31
0.0
  0
LINE
  5
223
330
A
100
AcDbEntity
  8
1
  6
Continuous
 62
     3
100
AcDbLine
 10
546.1231732722869
 20
134.380035610094
 30
0.0
 11
546.1231732722869
 21
134.4300356101
 31
0.0
  0
LINE
  5
222
330
A
100
AcDbEntity
  8
1
  6
Continuous
 62
     3
100
AcDbLine
 10
546.1231732722869
 20
134.4300356101
 30
0.0
 11
543.123173272287
 21
134.4300356101
 31
0.0
  0
LINE
  5
221
330
A
100
AcDbEntity
  8
1
  6
Continuous
 62
     3
100
AcDbLine
 10
547.7160664910989
 20
133.187142391283
 30
0.0
 11
547.780280053473
 21
133.122928828909
 31
0.0
  0
LINE
  5
220
330
A
100
AcDbEntity
  8
1
  6
Continuous
 62
     3
100
AcDbLine
 10
550.1231732722869
 20
130.980035610097
 30
0.0
 11
549.923173272286
 21
130.980035610097
 31
0.0
  0
LINE
  5
21F
330
A
100
AcDbEntity
  8
1
  6
Continuous
 62
     3
100
AcDbLine
 10
420.124044237322
 20
124.980035610096
 30
0.0
 11
420.3240442373229
 21
124.980035610096
 31
0.0
  0
LINE
  5
21E
330
A
100
AcDbEntity
  8
1
  6
Continuous
 62
     3
100
AcDbLine
 10
417.9811510185089
 20
122.837142391283
 30
0.0
 11
417.916937456135
 21
122.772928828909
 31
0.0
  0
LINE
  5
21D
330
A
100
AcDbEntity
  8
1
  6
Continuous
 62
     3
100
AcDbLine
 10
413.324044237323
 20
121.530035610094
 30
0.0
 11
416.3240442373229
 21
121.530035610094
 31
0.0
  0
LINE
  5
21C
330
A
100
AcDbEntity
  8
1
  6
Continuous
 62
     3
100
AcDbLine
 10
416.3240442373229
 20
121.530035610094
 30
0.0
 11
416.3240442373229
 21
121.580035610098
 31
0.0
  0
LINE
  5
21B
330
A
100
AcDbEntity
  8
1
  6
Continuous
 62
     3
100
AcDbLine
 10
420.3240442373229
 20
123.130035610098
 30
0.0
 11
418.6882577996959
 21
123.130035610098
 31
0.0
  0
LINE
  5
21A
330
A
100
AcDbEntity
  8
1
  6
Continuous
 62
     3
100
AcDbLine
 10
420.3240442373229
 20
122.030035610094
 30
0.0
 11
420.3240442373229
 21
123.130035610098
 31
0.0
  0
LINE
  5
219
330
A
100
AcDbEntity
  8
1
  6
Continuous
 62
     3
100
AcDbLine
 10
416.3240442373229
 20
122.480035610096
 30
0.0
 11
417.209830674948
 21
122.480035610096
 31
0.0
  0
LINE
  5
218
330
A
100
AcDbEntity
  8
1
  6
Continuous
 62
     3
100
AcDbLine
 10
414.324044237323
 20
122.280035610095
 30
0.0
 11
414.324044237323
 21
122.330035610096
 31
0.0
  0
LINE
  5
217
330
A
100
AcDbEntity
  8
1
  6
Continuous
 62
     3
100
AcDbLine
 10
412.724044237323
 20
120.480035610096
 30
0.0
 11
412.3240442373229
 21
121.680035610095
 31
0.0
  0
LINE
  5
216
330
A
100
AcDbEntity
  8
1
  6
Continuous
 62
     3
100
AcDbLine
 10
412.3240442373229
 20
122.280035610095
 30
0.0
 11
414.324044237323
 21
122.280035610095
 31
0.0
  0
LINE
  5
215
330
A
100
AcDbEntity
  8
1
  6
Continuous
 62
     3
100
AcDbLine
 10
414.324044237323
 20
122.680035610097
 30
0.0
 11
416.3240442373229
 21
122.680035610097
 31
0.0
  0
LINE
  5
214
330
A
100
AcDbEntity
  8
1
  6
Continuous
 62
     3
100
AcDbLine
 10
413.324044237323
 20
121.530035610094
 30
0.0
 11
413.324044237323
 21
120.480035610096
 31
0.0
  0
LINE
  5
213
330
A
100
AcDbEntity
  8
1
  6
Continuous
 62
     3
100
AcDbLine
 10
413.324044237323
 20
120.480035610096
 30
0.0
 11
412.724044237323
 21
120.480035610096
 31
0.0
  0
LINE
  5
212
330
A
100
AcDbEntity
  8
1
  6
Continuous
 62
     3
100
AcDbLine
 10
412.3240442373229
 20
121.680035610095
 30
0.0
 11
412.3240442373229
 21
122.280035610095
 31
0.0
  0
LINE
  5
211
330
A
100
AcDbEntity
  8
1
  6
Continuous
 62
     3
100
AcDbLine
 10
420.074044237327
 20
121.780035610098
 30
0.0
 11
420.3240442373229
 21
122.030035610094
 31
0.0
  0
LINE
  5
210
330
A
100
AcDbEntity
  8
1
  6
Continuous
 62
     3
100
AcDbLine
 10
416.3240442373229
 20
122.680035610097
 30
0.0
 11
416.3240442373229
 21
122.480035610096
 31
0.0
  0
LINE
  5
20F
330
A
100
AcDbEntity
  8
1
  6
Continuous
 62
     3
100
AcDbLine
 10
420.3240442373229
 20
124.980035610096
 30
0.0
 11
420.3240442373229
 21
132.830035610093
 31
0.0
  0
LINE
  5
20E
330
A
100
AcDbEntity
  8
1
  6
Continuous
 62
     3
100
AcDbLine
 10
416.524044237323
 20
121.780035610099
 30
0.0
 11
420.074044237327
 21
121.780035610098
 31
0.0
  0
LINE
  5
20D
330
A
100
AcDbEntity
  8
1
  6
Continuous
 62
     3
100
AcDbLine
 10
420.074044237327
 20
134.180035610094
 30
0.0
 11
416.524044237323
 21
134.180035610091
 31
0.0
  0
LINE
  5
20C
330
A
100
AcDbEntity
  8
1
  6
Continuous
 62
     3
100
AcDbLine
 10
416.3240442373229
 20
133.480035610096
 30
0.0
 11
416.3240442373229
 21
133.280035610094
 31
0.0
  0
LINE
  5
20B
330
A
100
AcDbEntity
  8
1
  6
Continuous
 62
     3
100
AcDbLine
 10
420.3240442373229
 20
133.930035610097
 30
0.0
 11
420.074044237327
 21
134.180035610094
 31
0.0
  0
LINE
  5
20A
330
A
100
AcDbEntity
  8
1
  6
Continuous
 62
     3
100
AcDbLine
 10
412.3240442373229
 20
133.680035610096
 30
0.0
 11
412.3240442373229
 21
134.280035610096
 31
0.0
  0
LINE
  5
209
330
A
100
AcDbEntity
  8
1
  6
Continuous
 62
     3
100
AcDbLine
 10
412.724044237323
 20
135.480035610096
 30
0.0
 11
413.324044237323
 21
135.480035610096
 31
0.0
  0
LINE
  5
208
330
A
100
AcDbEntity
  8
1
  6
Continuous
 62
     3
100
AcDbLine
 10
413.324044237323
 20
135.480035610096
 30
0.0
 11
413.324044237323
 21
134.480035610096
 31
0.0
  0
LINE
  5
207
330
A
100
AcDbEntity
  8
1
  6
Continuous
 62
     3
100
AcDbLine
 10
416.3240442373229
 20
133.280035610094
 30
0.0
 11
414.324044237323
 21
133.280035610094
 31
0.0
  0
LINE
  5
206
330
A
100
AcDbEntity
  8
1
  6
Continuous
 62
     3
100
AcDbLine
 10
414.324044237323
 20
133.680035610096
 30
0.0
 11
412.3240442373229
 21
133.680035610096
 31
0.0
  0
LINE
  5
205
330
A
100
AcDbEntity
  8
1
  6
Continuous
 62
     3
100
AcDbLine
 10
412.3240442373229
 20
134.280035610096
 30
0.0
 11
412.724044237323
 21
135.480035610096
 31
0.0
  0
LINE
  5
204
330
A
100
AcDbEntity
  8
1
  6
Continuous
 62
     3
100
AcDbLine
 10
414.324044237323
 20
133.280035610094
 30
0.0
 11
414.324044237323
 21
133.680035610096
 31
0.0
  0
LINE
  5
203
330
A
100
AcDbEntity
  8
1
  6
Continuous
 62
     3
100
AcDbLine
 10
417.209830674948
 20
133.480035610096
 30
0.0
 11
416.3240442373229
 21
133.480035610096
 31
0.0
  0
LINE
  5
202
330
A
100
AcDbEntity
  8
1
  6
Continuous
 62
     3
100
AcDbLine
 10
420.3240442373229
 20
132.830035610093
 30
0.0
 11
420.3240442373229
 21
133.930035610097
 31
0.0
  0
LINE
  5
201
330
A
100
AcDbEntity
  8
1
  6
Continuous
 62
     3
100
AcDbLine
 10
418.6882577996959
 20
132.830035610093
 30
0.0
 11
420.3240442373229
 21
132.830035610093
 31
0.0
  0
LINE
  5
200
330
A
100
AcDbEntity
  8
1
  6
Continuous
 62
     3
100
AcDbLine
 10
416.3240442373229
 20
134.380035610092
 30
0.0
 11
416.3240442373229
 21
134.430035610097
 31
0.0
  0
LINE
  5
1FF
330
A
100
AcDbEntity
  8
1
  6
Continuous
 62
     3
100
AcDbLine
 10
416.3240442373229
 20
134.430035610097
 30
0.0
 11
413.324044237323
 21
134.430035610097
 31
0.0
  0
LINE
  5
1FE
330
A
100
AcDbEntity
  8
1
  6
Continuous
 62
     3
100
AcDbLine
 10
417.916937456135
 20
133.187142391282
 30
0.0
 11
417.9811510185089
 21
133.122928828907
 31
0.0
  0
LINE
  5
1FD
330
A
100
AcDbEntity
  8
1
  6
Continuous
 62
     3
100
AcDbLine
 10
420.124044237322
 20
124.980035610096
 30
0.0
 11
417.324044237323
 21
124.980035610096
 31
0.0
  0
LINE
  5
1FC
330
A
100
AcDbEntity
  8
1
  6
Continuous
 62
     3
100
AcDbLine
 10
416.824044237323
 20
125.480035610096
 30
0.0
 11
416.824044237323
 21
130.480035610096
 31
0.0
  0
LINE
  5
1FB
330
A
100
AcDbEntity
  8
1
  6
Continuous
 62
     3
100
AcDbLine
 10
419.8240442373229
 20
125.280035610095
 30
0.0
 11
419.8240442373229
 21
130.980035610096
 31
0.0
  0
LINE
  5
1FA
330
A
100
AcDbEntity
  8
1
  6
Continuous
 62
     3
100
AcDbLine
 10
417.324044237323
 20
130.980035610096
 30
0.0
 11
419.8240442373229
 21
130.980035610096
 31
0.0
  0
LINE
  5
1F9
330
A
100
AcDbEntity
  8
1
  6
Continuous
 62
     3
100
AcDbLine
 10
419.8240442373229
 20
130.980035610096
 30
0.0
 11
419.8240442373229
 21
133.180035610094
 31
0.0
  0
LINE
  5
1F8
330
A
100
AcDbEntity
  8
1
  6
Continuous
 62
     3
100
AcDbLine
 10
420.3240442373229
 20
124.980035610096
 30
0.0
 11
421.574044237322
 21
124.980035610096
 31
0.0
  0
LINE
  5
1F7
330
A
100
AcDbEntity
  8
1
  6
Continuous
 62
     3
100
AcDbLine
 10
412.3240442373229
 20
130.980035610096
 30
0.0
 11
412.3240442373229
 21
133.630035610095
 31
0.0
  0
LINE
  5
1F6
330
A
100
AcDbEntity
  8
1
  6
Continuous
 62
     3
100
AcDbLine
 10
414.324044237323
 20
133.630035610095
 30
0.0
 11
412.3240442373229
 21
133.630035610095
 31
0.0
  0
LINE
  5
1F5
330
A
100
AcDbEntity
  8
1
  6
Continuous
 62
     3
100
AcDbLine
 10
415.8240442373229
 20
130.980035610096
 30
0.0
 11
412.3240442373229
 21
130.980035610096
 31
0.0
  0
LINE
  5
1F4
330
A
100
AcDbEntity
  8
1
  6
Continuous
 62
     3
100
AcDbLine
 10
412.3240442373229
 20
128.480035610096
 30
0.0
 11
415.8240442373229
 21
128.480035610096
 31
0.0
  0
LINE
  5
1F3
330
A
100
AcDbEntity
  8
1
  6
Continuous
 62
     3
100
AcDbLine
 10
412.3240442373229
 20
129.125679533834
 30
0.0
 11
415.8240442373229
 21
129.125679533834
 31
0.0
  0
LINE
  5
1F2
330
A
100
AcDbEntity
  8
1
  6
Continuous
 62
     3
100
AcDbLine
 10
414.324044237323
 20
133.180035610094
 30
0.0
 11
414.324044237323
 21
133.280035610094
 31
0.0
  0
LINE
  5
1F1
330
A
100
AcDbEntity
  8
1
  6
Continuous
 62
     3
100
AcDbLine
 10
419.8240442373229
 20
133.180035610094
 30
0.0
 11
414.324044237323
 21
133.180035610094
 31
0.0
  0
LINE
  5
1F0
330
A
100
AcDbEntity
  8
1
  6
Continuous
 62
     3
100
AcDbLine
 10
414.324044237323
 20
122.780035610098
 30
0.0
 11
419.841201524848
 21
122.780035610098
 31
0.0
  0
LINE
  5
1EF
330
A
100
AcDbEntity
  8
1
  6
Continuous
 62
     3
100
AcDbLine
 10
414.324044237323
 20
122.330035610096
 30
0.0
 11
414.324044237323
 21
122.780035610098
 31
0.0
  0
LINE
  5
1EE
330
A
100
AcDbEntity
  8
1
  6
DOT_CENTER
 62
     1
100
AcDbLine
 10
426.2893156749529
 20
127.980035610096
 30
0.0
 11
410.3665708241819
 21
127.980035610096
 31
0.0
  0
LINE
  5
1ED
330
A
100
AcDbEntity
  8
1
  6
Continuous
 62
     3
100
AcDbLine
 10
424.3240442373229
 20
124.780035610095
 30
0.0
 11
424.3240442373229
 21
123.180035610095
 31
0.0
  0
LINE
  5
1EC
330
A
100
AcDbEntity
  8
1
  6
Continuous
 62
     3
100
AcDbLine
 10
412.3240442373229
 20
124.980035610096
 30
0.0
 11
412.3240442373229
 21
130.980035610096
 31
0.0
  0
LINE
  5
1EB
330
A
100
AcDbEntity
  8
1
  6
Continuous
 62
     3
100
AcDbLine
 10
415.8240442373229
 20
126.834391686357
 30
0.0
 11
412.3240442373229
 21
126.834391686357
 31
0.0
  0
LINE
  5
1EA
330
A
100
AcDbEntity
  8
1
  6
Continuous
 62
     3
100
AcDbLine
 10
415.8240442373229
 20
127.480035610096
 30
0.0
 11
412.3240442373229
 21
127.480035610096
 31
0.0
  0
LINE
  5
1E9
330
A
100
AcDbEntity
  8
1
  6
Continuous
 62
     3
100
AcDbLine
 10
415.8240442373229
 20
124.980035610096
 30
0.0
 11
415.8240442373229
 21
130.980035610096
 31
0.0
  0
LINE
  5
1E8
330
A
100
AcDbEntity
  8
1
  6
Continuous
 62
     3
100
AcDbLine
 10
412.3240442373229
 20
124.980035610096
 30
0.0
 11
415.8240442373229
 21
124.980035610096
 31
0.0
  0
LINE
  5
1E7
330
A
100
AcDbEntity
  8
1
  6
Continuous
 62
     3
100
AcDbLine
 10
412.3240442373229
 20
122.330035610096
 30
0.0
 11
414.324044237323
 21
122.330035610096
 31
0.0
  0
LINE
  5
1E6
330
A
100
AcDbEntity
  8
1
  6
Continuous
 62
     3
100
AcDbLine
 10
412.3240442373229
 20
124.480035610096
 30
0.0
 11
412.3240442373229
 21
124.980035610096
 31
0.0
  0
LINE
  5
1E5
330
A
100
AcDbEntity
  8
1
  6
Continuous
 62
     3
100
AcDbLine
 10
424.124044237322
 20
122.980035610096
 30
0.0
 11
420.124044237322
 21
122.980035610096
 31
0.0
  0
LINE
  5
1E4
330
A
100
AcDbEntity
  8
1
  6
Continuous
 62
     3
100
AcDbLine
 10
412.6240442373229
 20
122.980035610096
 30
0.0
 11
412.3240442373229
 21
122.980035610096
 31
0.0
  0
LINE
  5
1E3
330
A
100
AcDbEntity
  8
1
  6
Continuous
 62
     3
100
AcDbLine
 10
412.3240442373229
 20
122.330035610096
 30
0.0
 11
412.3240442373229
 21
122.980035610096
 31
0.0
  0
LINE
  5
1E2
330
A
100
AcDbEntity
  8
1
  6
Continuous
 62
     3
100
AcDbLine
 10
412.6240442373229
 20
124.480035610096
 30
0.0
 11
412.6240442373229
 21
122.980035610096
 31
0.0
  0
LINE
  5
1E1
330
A
100
AcDbEntity
  8
1
  6
Continuous
 62
     3
100
AcDbLine
 10
412.3240442373229
 20
124.480035610096
 30
0.0
 11
412.6240442373229
 21
124.480035610096
 31
0.0
  0
LINE
  5
1E0
330
A
100
AcDbEntity
  8
1
  6
Continuous
 62
     3
100
AcDbLine
 10
412.3240442373229
 20
122.980035610096
 30
0.0
 11
412.3240442373229
 21
124.480035610096
 31
0.0
  0
LINE
  5
1DF
330
A
100
AcDbEntity
  8
1
  6
Continuous
 62
     3
100
AcDbLine
 10
477.223608754805
 20
130.980035610096
 30
0.0
 11
477.223608754805
 21
133.630035610095
 31
0.0
  0
LINE
  5
1DE
330
A
100
AcDbEntity
  8
1
  6
Continuous
 62
     3
100
AcDbLine
 10
479.223608754805
 20
133.630035610095
 30
0.0
 11
477.223608754805
 21
133.630035610095
 31
0.0
  0
LINE
  5
1DD
330
A
100
AcDbEntity
  8
1
  6
Continuous
 62
     3
100
AcDbLine
 10
480.723608754805
 20
130.980035610096
 30
0.0
 11
477.223608754805
 21
130.980035610096
 31
0.0
  0
LINE
  5
1DC
330
A
100
AcDbEntity
  8
1
  6
Continuous
 62
     3
100
AcDbLine
 10
480.723608754805
 20
124.980035610096
 30
0.0
 11
480.723608754805
 21
130.980035610096
 31
0.0
  0
LINE
  5
1DB
330
A
100
AcDbEntity
  8
1
  6
Continuous
 62
     3
100
AcDbLine
 10
477.223608754805
 20
128.480035610096
 30
0.0
 11
480.723608754805
 21
128.480035610096
 31
0.0
  0
LINE
  5
1DA
330
A
100
AcDbEntity
  8
1
  6
Continuous
 62
     3
100
AcDbLine
 10
477.223608754805
 20
129.125679533834
 30
0.0
 11
480.723608754805
 21
129.125679533834
 31
0.0
  0
LINE
  5
1D9
330
A
100
AcDbEntity
  8
1
  6
Continuous
 62
     3
100
AcDbLine
 10
477.223608754805
 20
124.980035610096
 30
0.0
 11
477.223608754805
 21
130.980035610096
 31
0.0
  0
LINE
  5
1D8
330
A
100
AcDbEntity
  8
1
  6
Continuous
 62
     3
100
AcDbLine
 10
479.223608754805
 20
133.180035610094
 30
0.0
 11
479.223608754805
 21
133.280035610094
 31
0.0
  0
LINE
  5
1D7
330
A
100
AcDbEntity
  8
1
  6
Continuous
 62
     3
100
AcDbLine
 10
479.223608754805
 20
122.780035610098
 30
0.0
 11
482.423608754805
 21
122.780035610098
 31
0.0
  0
LINE
  5
1D6
330
A
100
AcDbEntity
  8
1
  6
Continuous
 62
     3
100
AcDbLine
 10
479.223608754805
 20
122.330035610096
 30
0.0
 11
479.223608754805
 21
122.780035610098
 31
0.0
  0
LINE
  5
1D5
330
A
100
AcDbEntity
  8
1
  6
Continuous
 62
     3
100
AcDbLine
 10
480.723608754805
 20
126.834391686357
 30
0.0
 11
477.223608754805
 21
126.834391686357
 31
0.0
  0
LINE
  5
1D4
330
A
100
AcDbEntity
  8
1
  6
Continuous
 62
     3
100
AcDbLine
 10
480.723608754805
 20
127.480035610096
 30
0.0
 11
477.223608754805
 21
127.480035610096
 31
0.0
  0
LINE
  5
1D3
330
A
100
AcDbEntity
  8
1
  6
Continuous
 62
     3
100
AcDbLine
 10
477.223608754805
 20
124.980035610096
 30
0.0
 11
480.723608754805
 21
124.980035610096
 31
0.0
  0
LINE
  5
1D2
330
A
100
AcDbEntity
  8
1
  6
Continuous
 62
     3
100
AcDbLine
 10
477.223608754805
 20
122.330035610096
 30
0.0
 11
479.223608754805
 21
122.330035610096
 31
0.0
  0
LINE
  5
1D1
330
A
100
AcDbEntity
  8
1
  6
Continuous
 62
     3
100
AcDbLine
 10
477.223608754805
 20
122.330035610096
 30
0.0
 11
477.223608754805
 21
124.980035610096
 31
0.0
  0
LINE
  5
1D0
330
A
100
AcDbEntity
  8
1
  6
Continuous
 62
     3
100
AcDbLine
 10
484.723608754805
 20
124.980035610096
 30
0.0
 11
482.2236087548049
 21
124.980035610096
 31
0.0
  0
LINE
  5
1CF
330
A
100
AcDbEntity
  8
1
  6
Continuous
 62
     3
100
AcDbLine
 10
484.723608754805
 20
124.980035610096
 30
0.0
 11
484.723608754805
 21
130.980035610096
 31
0.0
  0
LINE
  5
1CE
330
A
100
AcDbEntity
  8
1
  6
Continuous
 62
     3
100
AcDbLine
 10
481.7236087548049
 20
125.480035610096
 30
0.0
 11
481.7236087548049
 21
130.480035610096
 31
0.0
  0
LINE
  5
1CD
330
A
100
AcDbEntity
  8
1
  6
Continuous
 62
     3
100
AcDbLine
 10
482.2236087548049
 20
130.980035610096
 30
0.0
 11
484.723608754805
 21
130.980035610096
 31
0.0
  0
LINE
  5
1CC
330
A
100
AcDbEntity
  8
1
  6
Continuous
 62
     3
100
AcDbLine
 10
482.880715535991
 20
122.837142391283
 30
0.0
 11
482.816501973617
 21
122.772928828909
 31
0.0
  0
LINE
  5
1CB
330
A
100
AcDbEntity
  8
1
  6
Continuous
 62
     3
100
AcDbLine
 10
478.2236087548049
 20
121.530035610094
 30
0.0
 11
481.223608754805
 21
121.530035610094
 31
0.0
  0
LINE
  5
1CA
330
A
100
AcDbEntity
  8
1
  6
Continuous
 62
     3
100
AcDbLine
 10
481.223608754805
 20
121.530035610094
 30
0.0
 11
481.223608754805
 21
121.580035610098
 31
0.0
  0
LINE
  5
1C9
330
A
100
AcDbEntity
  8
1
  6
Continuous
 62
     3
100
AcDbLine
 10
485.223608754805
 20
123.130035610098
 30
0.0
 11
483.5878223171779
 21
123.130035610098
 31
0.0
  0
LINE
  5
1C8
330
A
100
AcDbEntity
  8
1
  6
Continuous
 62
     3
100
AcDbLine
 10
485.223608754805
 20
122.030035610094
 30
0.0
 11
485.223608754805
 21
123.130035610098
 31
0.0
  0
LINE
  5
1C7
330
A
100
AcDbEntity
  8
1
  6
Continuous
 62
     3
100
AcDbLine
 10
481.223608754805
 20
122.480035610096
 30
0.0
 11
482.1093951924299
 21
122.480035610096
 31
0.0
  0
LINE
  5
1C6
330
A
100
AcDbEntity
  8
1
  6
Continuous
 62
     3
100
AcDbLine
 10
479.223608754805
 20
122.280035610095
 30
0.0
 11
479.223608754805
 21
122.330035610096
 31
0.0
  0
LINE
  5
1C5
330
A
100
AcDbEntity
  8
1
  6
Continuous
 62
     3
100
AcDbLine
 10
477.6236087548049
 20
120.480035610096
 30
0.0
 11
477.223608754805
 21
121.680035610095
 31
0.0
  0
LINE
  5
1C4
330
A
100
AcDbEntity
  8
1
  6
Continuous
 62
     3
100
AcDbLine
 10
477.223608754805
 20
122.280035610095
 30
0.0
 11
479.223608754805
 21
122.280035610095
 31
0.0
  0
LINE
  5
1C3
330
A
100
AcDbEntity
  8
1
  6
Continuous
 62
     3
100
AcDbLine
 10
479.223608754805
 20
122.680035610097
 30
0.0
 11
481.223608754805
 21
122.680035610097
 31
0.0
  0
LINE
  5
1C2
330
A
100
AcDbEntity
  8
1
  6
Continuous
 62
     3
100
AcDbLine
 10
478.2236087548049
 20
121.530035610094
 30
0.0
 11
478.2236087548049
 21
120.480035610096
 31
0.0
  0
LINE
  5
1C1
330
A
100
AcDbEntity
  8
1
  6
Continuous
 62
     3
100
AcDbLine
 10
478.2236087548049
 20
120.480035610096
 30
0.0
 11
477.6236087548049
 21
120.480035610096
 31
0.0
  0
LINE
  5
1C0
330
A
100
AcDbEntity
  8
1
  6
Continuous
 62
     3
100
AcDbLine
 10
477.223608754805
 20
121.680035610095
 30
0.0
 11
477.223608754805
 21
122.280035610095
 31
0.0
  0
LINE
  5
1BF
330
A
100
AcDbEntity
  8
1
  6
Continuous
 62
     3
100
AcDbLine
 10
484.973608754809
 20
121.780035610098
 30
0.0
 11
485.223608754805
 21
122.030035610094
 31
0.0
  0
LINE
  5
1BE
330
A
100
AcDbEntity
  8
1
  6
Continuous
 62
     3
100
AcDbLine
 10
481.223608754805
 20
122.680035610097
 30
0.0
 11
481.223608754805
 21
122.480035610096
 31
0.0
  0
LINE
  5
1BD
330
A
100
AcDbEntity
  8
1
  6
Continuous
 62
     3
100
AcDbLine
 10
481.4236087548049
 20
121.780035610099
 30
0.0
 11
484.973608754809
 21
121.780035610098
 31
0.0
  0
LINE
  5
1BC
330
A
100
AcDbEntity
  8
1
  6
Continuous
 62
     3
100
AcDbLine
 10
484.973608754809
 20
134.180035610094
 30
0.0
 11
481.4236087548049
 21
134.180035610091
 31
0.0
  0
LINE
  5
1BB
330
A
100
AcDbEntity
  8
1
  6
Continuous
 62
     3
100
AcDbLine
 10
485.223608754805
 20
123.130035610098
 30
0.0
 11
485.223608754805
 21
126.980035610096
 31
0.0
  0
LINE
  5
1BA
330
A
100
AcDbEntity
  8
1
  6
Continuous
 62
     3
100
AcDbLine
 10
481.223608754805
 20
133.480035610096
 30
0.0
 11
481.223608754805
 21
133.280035610094
 31
0.0
  0
LINE
  5
1B9
330
A
100
AcDbEntity
  8
1
  6
Continuous
 62
     3
100
AcDbLine
 10
485.223608754805
 20
133.930035610097
 30
0.0
 11
484.973608754809
 21
134.180035610094
 31
0.0
  0
LINE
  5
1B8
330
A
100
AcDbEntity
  8
1
  6
Continuous
 62
     3
100
AcDbLine
 10
477.223608754805
 20
133.680035610095
 30
0.0
 11
477.223608754805
 21
134.280035610095
 31
0.0
  0
LINE
  5
1B7
330
A
100
AcDbEntity
  8
1
  6
Continuous
 62
     3
100
AcDbLine
 10
477.6236087548049
 20
135.480035610096
 30
0.0
 11
478.2236087548049
 21
135.480035610096
 31
0.0
  0
LINE
  5
1B6
330
A
100
AcDbEntity
  8
1
  6
Continuous
 62
     3
100
AcDbLine
 10
478.2236087548049
 20
135.480035610096
 30
0.0
 11
478.2236087548049
 21
134.430035610097
 31
0.0
  0
LINE
  5
1B5
330
A
100
AcDbEntity
  8
1
  6
Continuous
 62
     3
100
AcDbLine
 10
481.223608754805
 20
133.280035610094
 30
0.0
 11
479.223608754805
 21
133.280035610094
 31
0.0
  0
LINE
  5
1B4
330
A
100
AcDbEntity
  8
1
  6
Continuous
 62
     3
100
AcDbLine
 10
479.223608754805
 20
133.680035610095
 30
0.0
 11
477.223608754805
 21
133.680035610095
 31
0.0
  0
LINE
  5
1B3
330
A
100
AcDbEntity
  8
1
  6
Continuous
 62
     3
100
AcDbLine
 10
477.223608754805
 20
134.280035610095
 30
0.0
 11
477.6236087548049
 21
135.480035610096
 31
0.0
  0
LINE
  5
1B2
330
A
100
AcDbEntity
  8
1
  6
DOT_CENTER
 62
     1
100
AcDbLine
 10
475.2661353416639
 20
127.980035610096
 30
0.0
 11
490.4707034267509
 21
127.980035610096
 31
0.0
  0
LINE
  5
1B1
330
A
100
AcDbEntity
  8
1
  6
Continuous
 62
     3
100
AcDbLine
 10
479.223608754805
 20
133.280035610094
 30
0.0
 11
479.223608754805
 21
133.680035610095
 31
0.0
  0
LINE
  5
1B0
330
A
100
AcDbEntity
  8
1
  6
Continuous
 62
     3
100
AcDbLine
 10
482.1093951924299
 20
133.480035610096
 30
0.0
 11
481.223608754805
 21
133.480035610096
 31
0.0
  0
LINE
  5
1AF
330
A
100
AcDbEntity
  8
1
  6
Continuous
 62
     3
100
AcDbLine
 10
485.223608754805
 20
132.830035610093
 30
0.0
 11
485.223608754805
 21
133.930035610097
 31
0.0
  0
LINE
  5
1AE
330
A
100
AcDbEntity
  8
1
  6
Continuous
 62
     3
100
AcDbLine
 10
483.5878223171779
 20
132.830035610093
 30
0.0
 11
485.223608754805
 21
132.830035610093
 31
0.0
  0
LINE
  5
1AD
330
A
100
AcDbEntity
  8
1
  6
Continuous
 62
     3
100
AcDbLine
 10
481.223608754805
 20
134.380035610092
 30
0.0
 11
481.223608754805
 21
134.430035610097
 31
0.0
  0
LINE
  5
1AC
330
A
100
AcDbEntity
  8
1
  6
Continuous
 62
     3
100
AcDbLine
 10
481.223608754805
 20
134.430035610097
 30
0.0
 11
478.2236087548049
 21
134.430035610097
 31
0.0
  0
LINE
  5
1AB
330
A
100
AcDbEntity
  8
1
  6
Continuous
 62
     3
100
AcDbLine
 10
482.816501973617
 20
133.187142391282
 30
0.0
 11
482.880715535991
 21
133.122928828907
 31
0.0
  0
LINE
  5
1AA
330
A
100
AcDbEntity
  8
1
  6
Continuous
 62
     3
100
AcDbLine
 10
484.723608754805
 20
130.980035610096
 30
0.0
 11
484.723608754805
 21
132.780035610095
 31
0.0
  0
LINE
  5
1A9
330
A
100
AcDbEntity
  8
1
  6
Continuous
 62
     3
100
AcDbLine
 10
489.223608754805
 20
128.780035610095
 30
0.0
 11
489.223608754805
 21
127.180035610095
 31
0.0
  0
LINE
  5
1A8
330
A
100
AcDbEntity
  8
1
  6
DOTTED
 62
     1
100
AcDbLine
 10
485.223608754805
 20
126.980035610096
 30
0.0
 11
485.223608754805
 21
127.288246791328
 31
0.0
  0
LINE
  5
1A7
330
A
100
AcDbEntity
  8
1
  6
Continuous
 62
     3
100
AcDbLine
 10
489.0236087548049
 20
126.980035610096
 30
0.0
 11
485.0236087548049
 21
126.980035610096
 31
0.0
  0
LINE
  5
1A6
330
A
100
AcDbEntity
  8
1
  6
Continuous
 62
     3
100
AcDbLine
 10
482.423608754805
 20
133.180035610094
 30
0.0
 11
482.423608754805
 21
132.780035610095
 31
0.0
  0
LINE
  5
1A5
330
A
100
AcDbEntity
  8
1
  6
Continuous
 62
     3
100
AcDbLine
 10
482.423608754805
 20
132.780035610095
 30
0.0
 11
484.723608754805
 21
132.780035610095
 31
0.0
  0
LINE
  5
1A4
330
A
100
AcDbEntity
  8
1
  6
Continuous
 62
     3
100
AcDbLine
 10
482.423608754805
 20
133.180035610094
 30
0.0
 11
482.3288719674019
 21
133.180035610094
 31
0.0
  0
LINE
  5
1A3
330
A
100
AcDbEntity
  8
1
  6
Continuous
 62
     3
100
AcDbLine
 10
482.423608754805
 20
122.780035610098
 30
0.0
 11
482.423608754805
 21
123.180035610095
 31
0.0
  0
LINE
  5
1A2
330
A
100
AcDbEntity
  8
1
  6
Continuous
 62
     3
100
AcDbLine
 10
482.423608754805
 20
123.180035610095
 30
0.0
 11
484.723608754805
 21
123.180035610095
 31
0.0
  0
LINE
  5
1A1
330
A
100
AcDbEntity
  8
1
  6
Continuous
 62
     3
100
AcDbLine
 10
484.723608754805
 20
123.180035610095
 30
0.0
 11
484.723608754805
 21
124.980035610096
 31
0.0
  0
LINE
  5
1A0
330
A
100
AcDbEntity
  8
1
  6
DOTTED
 62
     1
100
AcDbLine
 10
485.223608754805
 20
126.980035610096
 30
0.0
 11
485.223608754805
 21
127.288246791328
 31
0.0
  0
LINE
  5
19F
330
A
100
AcDbEntity
  8
1
  6
Continuous
 62
     3
100
AcDbLine
 10
485.0236087548049
 20
128.980035610096
 30
0.0
 11
486.473608754805
 21
128.980035610096
 31
0.0
  0
LINE
  5
19E
330
A
100
AcDbEntity
  8
1
  6
Continuous
 62
     3
100
AcDbLine
 10
485.223608754805
 20
128.980035610096
 30
0.0
 11
485.223608754805
 21
132.830035610093
 31
0.0
  0
LINE
  5
19D
330
A
100
AcDbEntity
  8
1
  6
Continuous
 62
     3
100
AcDbLine
 10
482.3288719674019
 20
133.180035610094
 30
0.0
 11
481.1183455422139
 21
133.180035610094
 31
0.0
  0
LINE
  5
19C
330
A
100
AcDbEntity
  8
1
  6
Continuous
 62
     3
100
AcDbLine
 10
481.1183455422139
 20
133.180035610094
 30
0.0
 11
479.223608754805
 21
133.180035610094
 31
0.0
  0
LINE
  5
19B
330
A
100
AcDbEntity
  8
1
  6
Continuous
 62
     3
100
AcDbLine
 10
489.223608754805
 20
128.980035610096
 30
0.0
 11
486.473608754805
 21
128.980035610096
 31
0.0
  0
LINE
  5
19A
330
A
100
AcDbEntity
  8
1
  6
Continuous
 62
     1
100
AcDbLine
 10
555.3731732722869
 20
148.280035610096
 30
0.0
 11
555.8731732722869
 21
156.480035610096
 31
0.0
  0
LINE
  5
199
330
A
100
AcDbEntity
  8
1
  6
Continuous
 62
     1
100
AcDbLine
 10
555.8731732722869
 20
148.280035610096
 30
0.0
 11
556.623173272287
 21
156.480035610096
 31
0.0
  0
LINE
  5
198
330
A
100
AcDbEntity
  8
1
  6
Continuous
 62
     1
100
AcDbLine
 10
556.3731732722869
 20
148.280035610096
 30
0.0
 11
557.3731732722869
 21
156.480035610096
 31
0.0
  0
LINE
  5
197
330
A
100
AcDbEntity
  8
1
  6
Continuous
 62
     1
100
AcDbLine
 10
552.8731732722869
 20
156.480035610096
 30
0.0
 11
553.873173272287
 21
148.280035610096
 31
0.0
  0
LINE
  5
196
330
A
100
AcDbEntity
  8
1
  6
Continuous
 62
     1
100
AcDbLine
 10
553.6231732722869
 20
156.480035610096
 30
0.0
 11
554.373173272287
 21
148.280035610096
 31
0.0
  0
LINE
  5
195
330
A
100
AcDbEntity
  8
1
  6
Continuous
 62
     1
100
AcDbLine
 10
554.373173272287
 20
156.480035610096
 30
0.0
 11
554.873173272287
 21
148.280035610096
 31
0.0
  0
LINE
  5
194
330
A
100
AcDbEntity
  8
1
  6
Continuous
 62
     1
100
AcDbLine
 10
555.1231732722869
 20
156.480035610096
 30
0.0
 11
555.1231732722869
 21
148.280035610096
 31
0.0
  0
LINE
  5
193
330
A
100
AcDbEntity
  8
1
  6
Continuous
 62
     1
100
AcDbLine
 10
558.1231732722869
 20
148.280035610096
 30
0.0
 11
558.1231732722869
 21
147.480035610096
 31
0.0
  0
LINE
  5
192
330
A
100
AcDbEntity
  8
1
  6
Continuous
 62
     1
100
AcDbLine
 10
552.123173272287
 20
147.480035610096
 30
0.0
 11
552.123173272287
 21
148.280035610096
 31
0.0
  0
LINE
  5
191
330
A
100
AcDbEntity
  8
1
  6
Continuous
 62
     1
100
AcDbLine
 10
552.123173272287
 20
148.280035610096
 30
0.0
 11
558.1231732722869
 21
148.280035610096
 31
0.0
  0
LINE
  5
190
330
A
100
AcDbEntity
  8
1
  6
Continuous
 62
     3
100
AcDbLine
 10
554.6231732722869
 20
133.980035610096
 30
0.0
 11
551.8731732722869
 21
133.980035610096
 31
0.0
  0
LINE
  5
18F
330
A
100
AcDbEntity
  8
1
  6
Continuous
 62
     3
100
AcDbLine
 10
551.3731732722869
 20
149.480035610096
 30
0.0
 11
553.3731732722869
 21
149.480035610096
 31
0.0
  0
LINE
  5
18E
330
A
100
AcDbEntity
  8
1
  6
Continuous
 62
     3
100
AcDbLine
 10
559.3731732722869
 20
148.980035610096
 30
0.0
 11
559.3731732722869
 21
133.480035610096
 31
0.0
  0
LINE
  5
18D
330
A
100
AcDbEntity
  8
1
  6
Continuous
 62
     3
100
AcDbLine
 10
558.873173272287
 20
132.980035610096
 30
0.0
 11
556.123173272287
 21
132.980035610096
 31
0.0
  0
LINE
  5
18C
330
A
100
AcDbEntity
  8
1
  6
Continuous
 62
     3
100
AcDbLine
 10
550.8731732722869
 20
133.480035610096
 30
0.0
 11
550.8731732722869
 21
148.980035610096
 31
0.0
  0
LINE
  5
18B
330
A
100
AcDbEntity
  8
1
  6
Continuous
 62
     3
100
AcDbLine
 10
551.3731732722869
 20
130.980035610096
 30
0.0
 11
554.1231732722869
 21
130.980035610096
 31
0.0
  0
LINE
  5
18A
330
A
100
AcDbEntity
  8
1
  6
Continuous
 62
     3
100
AcDbLine
 10
558.873173272287
 20
129.980035610096
 30
0.0
 11
551.3731732722869
 21
129.980035610096
 31
0.0
  0
LINE
  5
189
330
A
100
AcDbEntity
  8
1
  6
Continuous
 62
     3
100
AcDbLine
 10
555.623173272287
 20
132.480035610096
 30
0.0
 11
555.623173272287
 21
131.480035610096
 31
0.0
  0
LINE
  5
188
330
A
100
AcDbEntity
  8
1
  6
Continuous
 62
     3
100
AcDbLine
 10
554.6231732722869
 20
131.480035610096
 30
0.0
 11
554.6231732722869
 21
132.480035610096
 31
0.0
  0
LINE
  5
187
330
A
100
AcDbEntity
  8
1
  6
Continuous
 62
     3
100
AcDbLine
 10
554.1231732722869
 20
132.980035610096
 30
0.0
 11
551.3731732722869
 21
132.980035610096
 31
0.0
  0
LINE
  5
186
330
A
100
AcDbEntity
  8
1
  6
Continuous
 62
     3
100
AcDbLine
 10
556.123173272287
 20
130.980035610096
 30
0.0
 11
558.873173272287
 21
130.980035610096
 31
0.0
  0
LINE
  5
185
330
A
100
AcDbEntity
  8
1
  6
Continuous
 62
     3
100
AcDbLine
 10
551.8731732722869
 20
146.480035610096
 30
0.0
 11
554.6231732722869
 21
146.480035610096
 31
0.0
  0
LINE
  5
184
330
A
100
AcDbEntity
  8
1
  6
Continuous
 62
     3
100
AcDbLine
 10
558.373173272287
 20
146.480035610096
 30
0.0
 11
558.373173272287
 21
140.730035610096
 31
0.0
  0
LINE
  5
183
330
A
100
AcDbEntity
  8
1
  6
Continuous
 62
     3
100
AcDbLine
 10
558.373173272287
 20
133.980035610096
 30
0.0
 11
555.623173272287
 21
133.980035610096
 31
0.0
  0
LINE
  5
182
330
A
100
AcDbEntity
  8
1
  6
Continuous
 62
     3
100
AcDbLine
 10
551.8731732722869
 20
133.980035610096
 30
0.0
 11
551.8731732722869
 21
139.730035610096
 31
0.0
  0
LINE
  5
181
330
A
100
AcDbEntity
  8
1
  6
Continuous
 62
     3
100
AcDbLine
 10
551.6731732722869
 20
148.480035610096
 30
0.0
 11
553.3731732722869
 21
148.480035610096
 31
0.0
  0
LINE
  5
180
330
A
100
AcDbEntity
  8
1
  6
Continuous
 62
     3
100
AcDbLine
 10
558.5731732722869
 20
148.480035610096
 30
0.0
 11
558.5731732722869
 21
147.480035610096
 31
0.0
  0
LINE
  5
17F
330
A
100
AcDbEntity
  8
1
  6
Continuous
 62
     3
100
AcDbLine
 10
558.5731732722869
 20
147.480035610096
 30
0.0
 11
551.6731732722869
 21
147.480035610096
 31
0.0
  0
LINE
  5
17E
330
A
100
AcDbEntity
  8
1
  6
Continuous
 62
     3
100
AcDbLine
 10
551.6731732722869
 20
147.480035610096
 30
0.0
 11
551.6731732722869
 21
148.480035610096
 31
0.0
  0
LINE
  5
17D
330
A
100
AcDbEntity
  8
1
  6
Continuous
 62
     3
100
AcDbLine
 10
556.8731732722869
 20
149.480035610096
 30
0.0
 11
556.8731732722869
 21
148.480035610096
 31
0.0
  0
LINE
  5
17C
330
A
100
AcDbEntity
  8
1
  6
Continuous
 62
     3
100
AcDbLine
 10
553.3731732722869
 20
148.480035610096
 30
0.0
 11
553.3731732722869
 21
149.480035610096
 31
0.0
  0
LINE
  5
17B
330
A
100
AcDbEntity
  8
1
  6
Continuous
 62
     3
100
AcDbLine
 10
556.8731732722869
 20
149.480035610096
 30
0.0
 11
558.873173272287
 21
149.480035610096
 31
0.0
  0
LINE
  5
17A
330
A
100
AcDbEntity
  8
1
  6
Continuous
 62
     3
100
AcDbLine
 10
556.8731732722869
 20
148.480035610096
 30
0.0
 11
558.5731732722869
 21
148.480035610096
 31
0.0
  0
LINE
  5
179
330
A
100
AcDbEntity
  8
1
  6
Continuous
 62
     3
100
AcDbLine
 10
558.373173272287
 20
139.730035610096
 30
0.0
 11
558.373173272287
 21
133.980035610096
 31
0.0
  0
LINE
  5
178
330
A
100
AcDbEntity
  8
1
  6
Continuous
 62
     3
100
AcDbLine
 10
551.8731732722869
 20
140.730035610096
 30
0.0
 11
551.8731732722869
 21
146.480035610096
 31
0.0
  0
LINE
  5
177
330
A
100
AcDbEntity
  8
1
  6
Continuous
 62
     3
100
AcDbLine
 10
555.623173272287
 20
146.480035610096
 30
0.0
 11
558.373173272287
 21
146.480035610096
 31
0.0
  0
LINE
  5
176
330
A
100
AcDbEntity
  8
1
  6
Continuous
 62
     3
100
AcDbLine
 10
551.8731732722869
 20
140.730035610096
 30
0.0
 11
552.3731732722869
 21
140.230035610096
 31
0.0
  0
LINE
  5
175
330
A
100
AcDbEntity
  8
1
  6
Continuous
 62
     3
100
AcDbLine
 10
551.8731732722869
 20
139.730035610096
 30
0.0
 11
552.3731732722869
 21
140.230035610096
 31
0.0
  0
LINE
  5
174
330
A
100
AcDbEntity
  8
1
  6
Continuous
 62
     3
100
AcDbLine
 10
558.373173272287
 20
140.730035610096
 30
0.0
 11
557.873173272287
 21
140.230035610096
 31
0.0
  0
LINE
  5
173
330
A
100
AcDbEntity
  8
1
  6
Continuous
 62
     3
100
AcDbLine
 10
557.873173272287
 20
140.230035610096
 30
0.0
 11
558.373173272287
 21
139.730035610096
 31
0.0
  0
LINE
  5
172
330
A
100
AcDbEntity
  8
1
  6
Continuous
 62
     3
100
AcDbLine
 10
554.6231732722869
 20
133.980035610096
 30
0.0
 11
555.1231732722869
 21
134.480035610096
 31
0.0
  0
LINE
  5
171
330
A
100
AcDbEntity
  8
1
  6
Continuous
 62
     3
100
AcDbLine
 10
555.623173272287
 20
133.980035610096
 30
0.0
 11
555.1231732722869
 21
134.480035610096
 31
0.0
  0
LINE
  5
170
330
A
100
AcDbEntity
  8
1
  6
Continuous
 62
     3
100
AcDbLine
 10
554.6231732722869
 20
146.480035610096
 30
0.0
 11
555.1231732722869
 21
145.980035610096
 31
0.0
  0
LINE
  5
16F
330
A
100
AcDbEntity
  8
1
  6
Continuous
 62
     3
100
AcDbLine
 10
555.623173272287
 20
146.480035610096
 30
0.0
 11
555.1231732722869
 21
145.980035610096
 31
0.0
  0
LINE
  5
16E
330
A
100
AcDbEntity
  8
1
  6
Continuous
 62
     3
100
AcDbLine
 10
543.123173272287
 20
121.480035610096
 30
0.0
 11
559.6231732722869
 21
121.480035610096
 31
0.0
  0
LINE
  5
16D
330
A
100
AcDbEntity
  8
1
  6
Continuous
 62
     3
100
AcDbLine
 10
550.6231732722869
 20
134.480035610096
 30
0.0
 11
550.6231732722869
 21
144.480035610096
 31
0.0
  0
LINE
  5
16C
330
A
100
AcDbEntity
  8
1
  6
Continuous
 62
     3
100
AcDbLine
 10
543.123173272287
 20
134.480035610096
 30
0.0
 11
543.123173272287
 21
144.480035610096
 31
0.0
  0
LINE
  5
16B
330
A
100
AcDbEntity
  8
1
  6
Continuous
 62
     3
100
AcDbLine
 10
543.123173272287
 20
134.480035610096
 30
0.0
 11
550.6231732722869
 21
134.480035610096
 31
0.0
  0
LINE
  5
16A
330
A
100
AcDbEntity
  8
1
  6
Continuous
 62
     3
100
AcDbLine
 10
559.6231732722869
 20
144.480035610096
 30
0.0
 11
567.1231732722869
 21
144.480035610096
 31
0.0
  0
LINE
  5
169
330
A
100
AcDbEntity
  8
1
  6
Continuous
 62
     3
100
AcDbLine
 10
559.6231732722869
 20
144.480035610096
 30
0.0
 11
559.6231732722869
 21
121.480035610096
 31
0.0
  0
LINE
  5
168
330
A
100
AcDbEntity
  8
1
  6
Continuous
 62
     3
100
AcDbLine
 10
543.123173272287
 20
94.48003561009599
 30
0.0
 11
543.123173272287
 21
120.480035610097
 31
0.0
  0
LINE
  5
167
330
A
100
AcDbEntity
  8
1
  6
Continuous
 62
     3
100
AcDbLine
 10
567.1231732722869
 20
94.48003561009599
 30
0.0
 11
543.123173272287
 21
94.48003561009599
 31
0.0
  0
LINE
  5
166
330
A
100
AcDbEntity
  8
1
  6
Continuous
 62
     3
100
AcDbLine
 10
567.1231732722869
 20
144.480035610096
 30
0.0
 11
567.1231732722869
 21
94.48003561009599
 31
0.0
  0
LINE
  5
165
330
A
100
AcDbEntity
  8
1
  6
Continuous
 62
     3
100
AcDbLine
 10
543.123173272287
 20
144.480035610096
 30
0.0
 11
550.6231732722869
 21
144.480035610096
 31
0.0
  0
LINE
  5
164
330
A
100
AcDbEntity
  8
1
  6
Continuous
 62
     3
100
AcDbLine
 10
478.2236087548049
 20
144.480035610096
 30
0.0
 11
485.723608754805
 21
144.480035610096
 31
0.0
  0
LINE
  5
163
330
A
100
AcDbEntity
  8
1
  6
Continuous
 62
     3
100
AcDbLine
 10
502.223608754805
 20
144.480035610096
 30
0.0
 11
502.223608754805
 21
94.48003561009599
 31
0.0
  0
LINE
  5
162
330
A
100
AcDbEntity
  8
1
  6
Continuous
 62
     3
100
AcDbLine
 10
502.223608754805
 20
94.48003561009599
 30
0.0
 11
478.2236087548049
 21
94.48003561009599
 31
0.0
  0
LINE
  5
161
330
A
100
AcDbEntity
  8
1
  6
Continuous
 62
     3
100
AcDbLine
 10
478.2236087548049
 20
94.48003561009599
 30
0.0
 11
478.2236087548049
 21
120.480035610096
 31
0.0
  0
LINE
  5
160
330
A
100
AcDbEntity
  8
1
  6
Continuous
 62
     3
100
AcDbLine
 10
494.7236087548049
 20
144.480035610096
 30
0.0
 11
494.7236087548049
 21
121.480035610096
 31
0.0
  0
LINE
  5
15F
330
A
100
AcDbEntity
  8
1
  6
Continuous
 62
     3
100
AcDbLine
 10
494.7236087548049
 20
144.480035610096
 30
0.0
 11
502.223608754805
 21
144.480035610096
 31
0.0
  0
LINE
  5
15E
330
A
100
AcDbEntity
  8
1
  6
Continuous
 62
     3
100
AcDbLine
 10
478.2236087548049
 20
134.480035610096
 30
0.0
 11
485.723608754805
 21
134.480035610096
 31
0.0
  0
LINE
  5
15D
330
A
100
AcDbEntity
  8
1
  6
Continuous
 62
     3
100
AcDbLine
 10
478.2236087548049
 20
134.480035610096
 30
0.0
 11
478.2236087548049
 21
135.480035610096
 31
0.0
  0
LINE
  5
15C
330
A
100
AcDbEntity
  8
1
  6
Continuous
 62
     3
100
AcDbLine
 10
485.723608754805
 20
134.480035610096
 30
0.0
 11
485.723608754805
 21
144.480035610096
 31
0.0
  0
LINE
  5
15B
330
A
100
AcDbEntity
  8
1
  6
Continuous
 62
     3
100
AcDbLine
 10
478.2236087548049
 20
121.480035610096
 30
0.0
 11
494.7236087548049
 21
121.480035610096
 31
0.0
  0
LINE
  5
15A
330
A
100
AcDbEntity
  8
1
  6
Continuous
 62
     3
100
AcDbLine
 10
490.7236087548049
 20
142.480035610096
 30
0.0
 11
490.2236087548049
 21
141.980035610096
 31
0.0
  0
LINE
  5
159
330
A
100
AcDbEntity
  8
1
  6
Continuous
 62
     3
100
AcDbLine
 10
489.723608754805
 20
142.480035610096
 30
0.0
 11
490.2236087548049
 21
141.980035610096
 31
0.0
  0
LINE
  5
158
330
A
100
AcDbEntity
  8
1
  6
Continuous
 62
     3
100
AcDbLine
 10
490.7236087548049
 20
129.980035610096
 30
0.0
 11
490.2236087548049
 21
130.480035610096
 31
0.0
  0
LINE
  5
157
330
A
100
AcDbEntity
  8
1
  6
Continuous
 62
     3
100
AcDbLine
 10
489.723608754805
 20
129.980035610096
 30
0.0
 11
490.2236087548049
 21
130.480035610096
 31
0.0
  0
LINE
  5
156
330
A
100
AcDbEntity
  8
1
  6
Continuous
 62
     3
100
AcDbLine
 10
492.9736087548049
 20
136.230035610096
 30
0.0
 11
493.473608754805
 21
135.730035610096
 31
0.0
  0
LINE
  5
155
330
A
100
AcDbEntity
  8
1
  6
Continuous
 62
     3
100
AcDbLine
 10
493.473608754805
 20
136.730035610096
 30
0.0
 11
492.9736087548049
 21
136.230035610096
 31
0.0
  0
LINE
  5
154
330
A
100
AcDbEntity
  8
1
  6
Continuous
 62
     3
100
AcDbLine
 10
486.973608754805
 20
135.730035610096
 30
0.0
 11
487.473608754805
 21
136.230035610096
 31
0.0
  0
LINE
  5
153
330
A
100
AcDbEntity
  8
1
  6
Continuous
 62
     3
100
AcDbLine
 10
486.973608754805
 20
136.730035610096
 30
0.0
 11
487.473608754805
 21
136.230035610096
 31
0.0
  0
LINE
  5
152
330
A
100
AcDbEntity
  8
1
  6
Continuous
 62
     3
100
AcDbLine
 10
490.7236087548049
 20
142.480035610096
 30
0.0
 11
493.473608754805
 21
142.480035610096
 31
0.0
  0
LINE
  5
151
330
A
100
AcDbEntity
  8
1
  6
Continuous
 62
     3
100
AcDbLine
 10
486.973608754805
 20
136.730035610096
 30
0.0
 11
486.973608754805
 21
142.480035610096
 31
0.0
  0
LINE
  5
150
330
A
100
AcDbEntity
  8
1
  6
Continuous
 62
     3
100
AcDbLine
 10
493.473608754805
 20
135.730035610096
 30
0.0
 11
493.473608754805
 21
129.980035610096
 31
0.0
  0
LINE
  5
14F
330
A
100
AcDbEntity
  8
1
  6
Continuous
 62
     3
100
AcDbLine
 10
491.973608754805
 20
144.480035610096
 30
0.0
 11
493.673608754805
 21
144.480035610096
 31
0.0
  0
LINE
  5
14E
330
A
100
AcDbEntity
  8
1
  6
Continuous
 62
     3
100
AcDbLine
 10
491.973608754805
 20
145.480035610096
 30
0.0
 11
493.973608754805
 21
145.480035610096
 31
0.0
  0
LINE
  5
14D
330
A
100
AcDbEntity
  8
1
  6
Continuous
 62
     3
100
AcDbLine
 10
488.4736087548049
 20
144.480035610096
 30
0.0
 11
488.4736087548049
 21
145.480035610096
 31
0.0
  0
LINE
  5
14C
330
A
100
AcDbEntity
  8
1
  6
Continuous
 62
     3
100
AcDbLine
 10
491.973608754805
 20
145.480035610096
 30
0.0
 11
491.973608754805
 21
144.480035610096
 31
0.0
  0
LINE
  5
14B
330
A
100
AcDbEntity
  8
1
  6
Continuous
 62
     3
100
AcDbLine
 10
486.7736087548049
 20
143.480035610096
 30
0.0
 11
486.7736087548049
 21
144.480035610096
 31
0.0
  0
LINE
  5
14A
330
A
100
AcDbEntity
  8
1
  6
Continuous
 62
     3
100
AcDbLine
 10
493.673608754805
 20
143.480035610096
 30
0.0
 11
486.7736087548049
 21
143.480035610096
 31
0.0
  0
LINE
  5
149
330
A
100
AcDbEntity
  8
1
  6
Continuous
 62
     3
100
AcDbLine
 10
493.673608754805
 20
144.480035610096
 30
0.0
 11
493.673608754805
 21
143.480035610096
 31
0.0
  0
LINE
  5
148
330
A
100
AcDbEntity
  8
1
  6
Continuous
 62
     3
100
AcDbLine
 10
486.7736087548049
 20
144.480035610096
 30
0.0
 11
488.4736087548049
 21
144.480035610096
 31
0.0
  0
LINE
  5
147
330
A
100
AcDbEntity
  8
1
  6
Continuous
 62
     3
100
AcDbLine
 10
486.973608754805
 20
129.980035610096
 30
0.0
 11
486.973608754805
 21
135.730035610096
 31
0.0
  0
LINE
  5
146
330
A
100
AcDbEntity
  8
1
  6
Continuous
 62
     3
100
AcDbLine
 10
493.473608754805
 20
129.980035610096
 30
0.0
 11
490.7236087548049
 21
129.980035610096
 31
0.0
  0
LINE
  5
145
330
A
100
AcDbEntity
  8
1
  6
Continuous
 62
     3
100
AcDbLine
 10
493.473608754805
 20
142.480035610096
 30
0.0
 11
493.473608754805
 21
136.730035610096
 31
0.0
  0
LINE
  5
144
330
A
100
AcDbEntity
  8
1
  6
Continuous
 62
     3
100
AcDbLine
 10
486.973608754805
 20
142.480035610096
 30
0.0
 11
489.723608754805
 21
142.480035610096
 31
0.0
  0
LINE
  5
143
330
A
100
AcDbEntity
  8
1
  6
Continuous
 62
     3
100
AcDbLine
 10
491.223608754805
 20
126.980035610096
 30
0.0
 11
493.973608754805
 21
126.980035610096
 31
0.0
  0
LINE
  5
142
330
A
100
AcDbEntity
  8
1
  6
Continuous
 62
     3
100
AcDbLine
 10
489.723608754805
 20
127.480035610096
 30
0.0
 11
489.723608754805
 21
128.480035610096
 31
0.0
  0
LINE
  5
141
330
A
100
AcDbEntity
  8
1
  6
Continuous
 62
     3
100
AcDbLine
 10
490.7236087548049
 20
128.480035610096
 30
0.0
 11
490.7236087548049
 21
127.480035610096
 31
0.0
  0
LINE
  5
140
330
A
100
AcDbEntity
  8
1
  6
Continuous
 62
     3
100
AcDbLine
 10
493.973608754805
 20
125.980035610096
 30
0.0
 11
486.473608754805
 21
125.980035610096
 31
0.0
  0
LINE
  5
13F
330
A
100
AcDbEntity
  8
1
  6
Continuous
 62
     3
100
AcDbLine
 10
486.473608754805
 20
126.980035610096
 30
0.0
 11
489.0236087548049
 21
126.980035610096
 31
0.0
  0
LINE
  5
13E
330
A
100
AcDbEntity
  8
1
  6
Continuous
 62
     3
100
AcDbLine
 10
485.973608754805
 20
129.480035610096
 30
0.0
 11
485.973608754805
 21
144.980035610096
 31
0.0
  0
LINE
  5
13D
330
A
100
AcDbEntity
  8
1
  6
Continuous
 62
     3
100
AcDbLine
 10
493.973608754805
 20
128.980035610096
 30
0.0
 11
491.223608754805
 21
128.980035610096
 31
0.0
  0
LINE
  5
13C
330
A
100
AcDbEntity
  8
1
  6
Continuous
 62
     3
100
AcDbLine
 10
494.473608754805
 20
144.980035610096
 30
0.0
 11
494.473608754805
 21
129.480035610096
 31
0.0
  0
LINE
  5
13B
330
A
100
AcDbEntity
  8
1
  6
Continuous
 62
     3
100
AcDbLine
 10
486.473608754805
 20
145.480035610096
 30
0.0
 11
488.4736087548049
 21
145.480035610096
 31
0.0
  0
LINE
  5
13A
330
A
100
AcDbEntity
  8
1
  6
Continuous
 62
     3
100
AcDbLine
 10
489.723608754805
 20
129.980035610096
 30
0.0
 11
486.973608754805
 21
129.980035610096
 31
0.0
  0
LINE
  5
139
330
A
100
AcDbEntity
  8
1
  6
Continuous
 62
     1
100
AcDbLine
 10
487.223608754805
 20
144.280035610096
 30
0.0
 11
493.223608754805
 21
144.280035610096
 31
0.0
  0
LINE
  5
138
330
A
100
AcDbEntity
  8
1
  6
Continuous
 62
     1
100
AcDbLine
 10
487.223608754805
 20
143.480035610096
 30
0.0
 11
487.223608754805
 21
144.280035610096
 31
0.0
  0
LINE
  5
137
330
A
100
AcDbEntity
  8
1
  6
Continuous
 62
     1
100
AcDbLine
 10
493.223608754805
 20
144.280035610096
 30
0.0
 11
493.223608754805
 21
143.480035610096
 31
0.0
  0
LINE
  5
136
330
A
100
AcDbEntity
  8
1
  6
Continuous
 62
     1
100
AcDbLine
 10
490.2236087548049
 20
152.480035610096
 30
0.0
 11
490.2236087548049
 21
144.280035610096
 31
0.0
  0
LINE
  5
135
330
A
100
AcDbEntity
  8
1
  6
Continuous
 62
     1
100
AcDbLine
 10
489.473608754805
 20
152.480035610096
 30
0.0
 11
489.973608754805
 21
144.280035610096
 31
0.0
  0
LINE
  5
134
330
A
100
AcDbEntity
  8
1
  6
Continuous
 62
     1
100
AcDbLine
 10
488.723608754805
 20
152.480035610096
 30
0.0
 11
489.473608754805
 21
144.280035610096
 31
0.0
  0
LINE
  5
133
330
A
100
AcDbEntity
  8
1
  6
Continuous
 62
     1
100
AcDbLine
 10
487.9736087548049
 20
152.480035610096
 30
0.0
 11
488.973608754805
 21
144.280035610096
 31
0.0
  0
LINE
  5
132
330
A
100
AcDbEntity
  8
1
  6
Continuous
 62
     1
100
AcDbLine
 10
491.473608754805
 20
144.280035610096
 30
0.0
 11
492.4736087548049
 21
152.480035610096
 31
0.0
  0
LINE
  5
131
330
A
100
AcDbEntity
  8
1
  6
Continuous
 62
     1
100
AcDbLine
 10
490.973608754805
 20
144.280035610096
 30
0.0
 11
491.723608754805
 21
152.480035610096
 31
0.0
  0
LINE
  5
130
330
A
100
AcDbEntity
  8
1
  6
Continuous
 62
     1
100
AcDbLine
 10
490.473608754805
 20
144.280035610096
 30
0.0
 11
490.973608754805
 21
152.480035610096
 31
0.0
  0
LINE
  5
12F
330
A
100
AcDbEntity
  8
1
  6
Continuous
 62
     1
100
AcDbLine
 10
425.574044237322
 20
140.280035610096
 30
0.0
 11
426.074044237322
 21
148.480035610096
 31
0.0
  0
LINE
  5
12E
330
A
100
AcDbEntity
  8
1
  6
Continuous
 62
     1
100
AcDbLine
 10
426.074044237322
 20
140.280035610096
 30
0.0
 11
426.824044237322
 21
148.480035610096
 31
0.0
  0
LINE
  5
12D
330
A
100
AcDbEntity
  8
1
  6
Continuous
 62
     1
100
AcDbLine
 10
426.5740442373219
 20
140.280035610096
 30
0.0
 11
427.574044237322
 21
148.480035610096
 31
0.0
  0
LINE
  5
12C
330
A
100
AcDbEntity
  8
1
  6
Continuous
 62
     1
100
AcDbLine
 10
423.074044237322
 20
148.480035610096
 30
0.0
 11
424.074044237322
 21
140.280035610096
 31
0.0
  0
LINE
  5
12B
330
A
100
AcDbEntity
  8
1
  6
Continuous
 62
     1
100
AcDbLine
 10
423.824044237322
 20
148.480035610096
 30
0.0
 11
424.574044237322
 21
140.280035610096
 31
0.0
  0
LINE
  5
12A
330
A
100
AcDbEntity
  8
1
  6
Continuous
 62
     1
100
AcDbLine
 10
424.574044237322
 20
148.480035610096
 30
0.0
 11
425.074044237322
 21
140.280035610096
 31
0.0
  0
LINE
  5
129
330
A
100
AcDbEntity
  8
1
  6
Continuous
 62
     1
100
AcDbLine
 10
425.324044237322
 20
148.480035610096
 30
0.0
 11
425.324044237322
 21
140.280035610096
 31
0.0
  0
LINE
  5
128
330
A
100
AcDbEntity
  8
1
  6
Continuous
 62
     1
100
AcDbLine
 10
428.3240442373219
 20
140.280035610096
 30
0.0
 11
428.3240442373219
 21
139.480035610096
 31
0.0
  0
LINE
  5
127
330
A
100
AcDbEntity
  8
1
  6
Continuous
 62
     1
100
AcDbLine
 10
422.324044237322
 20
139.480035610096
 30
0.0
 11
422.324044237322
 21
140.280035610096
 31
0.0
  0
LINE
  5
126
330
A
100
AcDbEntity
  8
1
  6
Continuous
 62
     1
100
AcDbLine
 10
422.324044237322
 20
140.280035610096
 30
0.0
 11
428.3240442373219
 21
140.280035610096
 31
0.0
  0
LINE
  5
125
330
A
100
AcDbEntity
  8
1
  6
Continuous
 62
     3
100
AcDbLine
 10
424.824044237322
 20
125.980035610096
 30
0.0
 11
422.0740442373219
 21
125.980035610096
 31
0.0
  0
LINE
  5
124
330
A
100
AcDbEntity
  8
1
  6
Continuous
 62
     3
100
AcDbLine
 10
421.574044237322
 20
141.480035610096
 30
0.0
 11
423.574044237322
 21
141.480035610096
 31
0.0
  0
LINE
  5
123
330
A
100
AcDbEntity
  8
1
  6
Continuous
 62
     3
100
AcDbLine
 10
429.574044237322
 20
140.980035610096
 30
0.0
 11
429.574044237322
 21
125.480035610096
 31
0.0
  0
LINE
  5
122
330
A
100
AcDbEntity
  8
1
  6
Continuous
 62
     3
100
AcDbLine
 10
429.074044237322
 20
124.980035610096
 30
0.0
 11
426.324044237322
 21
124.980035610096
 31
0.0
  0
LINE
  5
121
330
A
100
AcDbEntity
  8
1
  6
Continuous
 62
     3
100
AcDbLine
 10
421.074044237322
 20
125.480035610096
 30
0.0
 11
421.074044237322
 21
140.980035610096
 31
0.0
  0
LINE
  5
120
330
A
100
AcDbEntity
  8
1
  6
Continuous
 62
     3
100
AcDbLine
 10
421.574044237322
 20
122.980035610096
 30
0.0
 11
424.124044237322
 21
122.980035610096
 31
0.0
  0
LINE
  5
11F
330
A
100
AcDbEntity
  8
1
  6
Continuous
 62
     3
100
AcDbLine
 10
429.074044237322
 20
121.980035610096
 30
0.0
 11
421.574044237322
 21
121.980035610096
 31
0.0
  0
LINE
  5
11E
330
A
100
AcDbEntity
  8
1
  6
Continuous
 62
     3
100
AcDbLine
 10
425.824044237322
 20
124.480035610096
 30
0.0
 11
425.824044237322
 21
123.480035610096
 31
0.0
  0
LINE
  5
11D
330
A
100
AcDbEntity
  8
1
  6
Continuous
 62
     3
100
AcDbLine
 10
424.824044237322
 20
123.480035610096
 30
0.0
 11
424.824044237322
 21
124.480035610096
 31
0.0
  0
LINE
  5
11C
330
A
100
AcDbEntity
  8
1
  6
Continuous
 62
     3
100
AcDbLine
 10
424.3240442373219
 20
124.980035610096
 30
0.0
 11
421.574044237322
 21
124.980035610096
 31
0.0
  0
LINE
  5
11B
330
A
100
AcDbEntity
  8
1
  6
Continuous
 62
     3
100
AcDbLine
 10
426.324044237322
 20
122.980035610096
 30
0.0
 11
429.074044237322
 21
122.980035610096
 31
0.0
  0
LINE
  5
11A
330
A
100
AcDbEntity
  8
1
  6
Continuous
 62
     3
100
AcDbLine
 10
422.0740442373219
 20
138.480035610096
 30
0.0
 11
424.824044237322
 21
138.480035610096
 31
0.0
  0
LINE
  5
119
330
A
100
AcDbEntity
  8
1
  6
Continuous
 62
     3
100
AcDbLine
 10
428.574044237322
 20
138.480035610096
 30
0.0
 11
428.574044237322
 21
132.730035610096
 31
0.0
  0
LINE
  5
118
330
A
100
AcDbEntity
  8
1
  6
Continuous
 62
     3
100
AcDbLine
 10
428.574044237322
 20
125.980035610096
 30
0.0
 11
425.824044237322
 21
125.980035610096
 31
0.0
  0
LINE
  5
117
330
A
100
AcDbEntity
  8
1
  6
Continuous
 62
     3
100
AcDbLine
 10
422.0740442373219
 20
125.980035610096
 30
0.0
 11
422.0740442373219
 21
131.730035610096
 31
0.0
  0
LINE
  5
116
330
A
100
AcDbEntity
  8
1
  6
Continuous
 62
     3
100
AcDbLine
 10
421.8740442373229
 20
140.480035610096
 30
0.0
 11
423.574044237322
 21
140.480035610096
 31
0.0
  0
LINE
  5
115
330
A
100
AcDbEntity
  8
1
  6
Continuous
 62
     3
100
AcDbLine
 10
428.7740442373229
 20
140.480035610096
 30
0.0
 11
428.7740442373229
 21
139.480035610096
 31
0.0
  0
LINE
  5
114
330
A
100
AcDbEntity
  8
1
  6
Continuous
 62
     3
100
AcDbLine
 10
428.7740442373229
 20
139.480035610096
 30
0.0
 11
421.8740442373229
 21
139.480035610096
 31
0.0
  0
LINE
  5
113
330
A
100
AcDbEntity
  8
1
  6
Continuous
 62
     3
100
AcDbLine
 10
421.8740442373229
 20
139.480035610096
 30
0.0
 11
421.8740442373229
 21
140.480035610096
 31
0.0
  0
LINE
  5
112
330
A
100
AcDbEntity
  8
1
  6
Continuous
 62
     3
100
AcDbLine
 10
427.074044237322
 20
141.480035610096
 30
0.0
 11
427.074044237322
 21
140.480035610096
 31
0.0
  0
LINE
  5
111
330
A
100
AcDbEntity
  8
1
  6
Continuous
 62
     3
100
AcDbLine
 10
423.574044237322
 20
140.480035610096
 30
0.0
 11
423.574044237322
 21
141.480035610096
 31
0.0
  0
LINE
  5
110
330
A
100
AcDbEntity
  8
1
  6
Continuous
 62
     3
100
AcDbLine
 10
427.074044237322
 20
141.480035610096
 30
0.0
 11
429.074044237322
 21
141.480035610096
 31
0.0
  0
LINE
  5
10F
330
A
100
AcDbEntity
  8
1
  6
Continuous
 62
     3
100
AcDbLine
 10
427.074044237322
 20
140.480035610096
 30
0.0
 11
428.7740442373229
 21
140.480035610096
 31
0.0
  0
LINE
  5
10E
330
A
100
AcDbEntity
  8
1
  6
Continuous
 62
     3
100
AcDbLine
 10
428.574044237322
 20
131.730035610096
 30
0.0
 11
428.574044237322
 21
125.980035610096
 31
0.0
  0
LINE
  5
10D
330
A
100
AcDbEntity
  8
1
  6
Continuous
 62
     3
100
AcDbLine
 10
422.0740442373219
 20
132.730035610096
 30
0.0
 11
422.0740442373219
 21
138.480035610096
 31
0.0
  0
LINE
  5
10C
330
A
100
AcDbEntity
  8
1
  6
Continuous
 62
     3
100
AcDbLine
 10
425.824044237322
 20
138.480035610096
 30
0.0
 11
428.574044237322
 21
138.480035610096
 31
0.0
  0
LINE
  5
10B
330
A
100
AcDbEntity
  8
1
  6
Continuous
 62
     3
100
AcDbLine
 10
422.0740442373219
 20
132.730035610096
 30
0.0
 11
422.574044237322
 21
132.230035610096
 31
0.0
  0
LINE
  5
10A
330
A
100
AcDbEntity
  8
1
  6
Continuous
 62
     3
100
AcDbLine
 10
422.0740442373219
 20
131.730035610096
 30
0.0
 11
422.574044237322
 21
132.230035610096
 31
0.0
  0
LINE
  5
109
330
A
100
AcDbEntity
  8
1
  6
Continuous
 62
     3
100
AcDbLine
 10
428.574044237322
 20
132.730035610096
 30
0.0
 11
428.074044237322
 21
132.230035610096
 31
0.0
  0
LINE
  5
108
330
A
100
AcDbEntity
  8
1
  6
Continuous
 62
     3
100
AcDbLine
 10
428.074044237322
 20
132.230035610096
 30
0.0
 11
428.574044237322
 21
131.730035610096
 31
0.0
  0
LINE
  5
107
330
A
100
AcDbEntity
  8
1
  6
Continuous
 62
     3
100
AcDbLine
 10
424.824044237322
 20
125.980035610096
 30
0.0
 11
425.324044237322
 21
126.480035610096
 31
0.0
  0
LINE
  5
106
330
A
100
AcDbEntity
  8
1
  6
Continuous
 62
     3
100
AcDbLine
 10
425.824044237322
 20
125.980035610096
 30
0.0
 11
425.324044237322
 21
126.480035610096
 31
0.0
  0
LINE
  5
105
330
A
100
AcDbEntity
  8
1
  6
Continuous
 62
     3
100
AcDbLine
 10
424.824044237322
 20
138.480035610096
 30
0.0
 11
425.324044237322
 21
137.980035610096
 31
0.0
  0
LINE
  5
104
330
A
100
AcDbEntity
  8
1
  6
Continuous
 62
     3
100
AcDbLine
 10
425.824044237322
 20
138.480035610096
 30
0.0
 11
425.324044237322
 21
137.980035610096
 31
0.0
  0
LINE
  5
103
330
A
100
AcDbEntity
  8
1
  6
Continuous
 62
     3
100
AcDbLine
 10
413.324044237323
 20
121.480035610096
 30
0.0
 11
429.824044237323
 21
121.480035610096
 31
0.0
  0
LINE
  5
102
330
A
100
AcDbEntity
  8
1
  6
Continuous
 62
     3
100
AcDbLine
 10
420.8240442373229
 20
134.480035610096
 30
0.0
 11
420.8240442373229
 21
144.480035610096
 31
0.0
  0
LINE
  5
101
330
A
100
AcDbEntity
  8
1
  6
Continuous
 62
     3
100
AcDbLine
 10
413.324044237323
 20
134.480035610096
 30
0.0
 11
413.324044237323
 21
144.480035610096
 31
0.0
  0
LINE
  5
100
330
A
100
AcDbEntity
  8
1
  6
Continuous
 62
     3
100
AcDbLine
 10
413.324044237323
 20
134.480035610096
 30
0.0
 11
420.8240442373229
 21
134.480035610096
 31
0.0
  0
LINE
  5
FF
330
A
100
AcDbEntity
  8
1
  6
Continuous
 62
     3
100
AcDbLine
 10
429.824044237323
 20
144.480035610096
 30
0.0
 11
437.3240442373229
 21
144.480035610096
 31
0.0
  0
LINE
  5
FE
330
A
100
AcDbEntity
  8
1
  6
Continuous
 62
     3
100
AcDbLine
 10
429.824044237323
 20
144.480035610096
 30
0.0
 11
429.824044237323
 21
121.480035610096
 31
0.0
  0
LINE
  5
FD
330
A
100
AcDbEntity
  8
1
  6
Continuous
 62
     3
100
AcDbLine
 10
413.324044237323
 20
94.48003561009599
 30
0.0
 11
413.324044237323
 21
120.480035610096
 31
0.0
  0
LINE
  5
FC
330
A
100
AcDbEntity
  8
1
  6
Continuous
 62
     3
100
AcDbLine
 10
437.3240442373229
 20
94.48003561009599
 30
0.0
 11
413.324044237323
 21
94.48003561009599
 31
0.0
  0
LINE
  5
FB
330
A
100
AcDbEntity
  8
1
  6
Continuous
 62
     3
100
AcDbLine
 10
437.3240442373229
 20
144.480035610096
 30
0.0
 11
437.3240442373229
 21
94.48003561009599
 31
0.0
  0
LINE
  5
FA
330
A
100
AcDbEntity
  8
1
  6
Continuous
 62
     3
100
AcDbLine
 10
413.324044237323
 20
144.480035610096
 30
0.0
 11
420.8240442373229
 21
144.480035610096
 31
0.0
  0
LINE
  5
F9
330
A
100
AcDbEntity
  8
1
  6
Continuous
 62
     3
100
AcDbLine
 10
356.322078865076
 20
139.597727677563
 30
0.0
 11
362.322078865076
 21
139.597727677563
 31
0.0
  0
LINE
  5
F8
330
A
100
AcDbEntity
  8
1
  6
DOT_CENTER
 62
     1
100
AcDbLine
 10
359.322078865076
 20
139.597727677563
 30
0.0
 11
359.322078865076
 21
136.637727677563
 31
0.0
  0
LINE
  5
F7
330
A
100
AcDbEntity
  8
1
  6
DOT_CENTER
 62
     1
100
AcDbLine
 10
359.322078865076
 20
147.797727677562
 30
0.0
 11
359.322078865076
 21
150.477727677562
 31
0.0
  0
LINE
  5
F6
330
A
100
AcDbEntity
  8
1
  6
Continuous
 62
     3
100
AcDbLine
 10
356.322078865076
 20
138.797727677562
 30
0.0
 11
356.322078865076
 21
139.597727677563
 31
0.0
  0
LINE
  5
F5
330
A
100
AcDbEntity
  8
1
  6
Continuous
 62
     3
100
AcDbLine
 10
362.322078865076
 20
138.797727677562
 30
0.0
 11
356.322078865076
 21
138.797727677562
 31
0.0
  0
LINE
  5
F4
330
A
100
AcDbEntity
  8
1
  6
Continuous
 62
     3
100
AcDbLine
 10
362.322078865076
 20
139.597727677563
 30
0.0
 11
362.322078865076
 21
138.797727677562
 31
0.0
  0
LINE
  5
F3
330
A
100
AcDbEntity
  8
1
  6
Continuous
 62
     6
100
AcDbLine
 10
359.322078865076
 20
147.797727677562
 30
0.0
 11
359.322078865076
 21
139.597727677563
 31
0.0
  0
LINE
  5
F2
330
A
100
AcDbEntity
  8
1
  6
Continuous
 62
     6
100
AcDbLine
 10
358.572078865076
 20
147.797727677562
 30
0.0
 11
359.072078865076
 21
139.597727677563
 31
0.0
  0
LINE
  5
F1
330
A
100
AcDbEntity
  8
1
  6
Continuous
 62
     6
100
AcDbLine
 10
357.822078865076
 20
147.797727677562
 30
0.0
 11
358.572078865076
 21
139.597727677563
 31
0.0
  0
LINE
  5
F0
330
A
100
AcDbEntity
  8
1
  6
Continuous
 62
     6
100
AcDbLine
 10
357.072078865076
 20
147.797727677562
 30
0.0
 11
358.072078865076
 21
139.597727677563
 31
0.0
  0
LINE
  5
EF
330
A
100
AcDbEntity
  8
1
  6
Continuous
 62
     6
100
AcDbLine
 10
360.572078865076
 20
139.597727677563
 30
0.0
 11
361.572078865076
 21
147.797727677562
 31
0.0
  0
LINE
  5
EE
330
A
100
AcDbEntity
  8
1
  6
Continuous
 62
     6
100
AcDbLine
 10
360.072078865076
 20
139.597727677563
 30
0.0
 11
360.822078865076
 21
147.797727677562
 31
0.0
  0
LINE
  5
ED
330
A
100
AcDbEntity
  8
1
  6
Continuous
 62
     6
100
AcDbLine
 10
359.572078865076
 20
139.597727677563
 30
0.0
 11
360.072078865076
 21
147.797727677562
 31
0.0
  0
LINE
  5
EC
330
A
100
AcDbEntity
  8
1
  6
Continuous
 62
     3
100
AcDbLine
 10
359.822078865076
 20
127.442390590279
 30
0.0
 11
359.322078865076
 21
126.942390590279
 31
0.0
  0
LINE
  5
EB
330
A
100
AcDbEntity
  8
1
  6
Continuous
 62
     3
100
AcDbLine
 10
358.822078865076
 20
127.442390590279
 30
0.0
 11
359.322078865076
 21
126.942390590279
 31
0.0
  0
LINE
  5
EA
330
A
100
AcDbEntity
  8
1
  6
Continuous
 62
     3
100
AcDbLine
 10
359.822078865076
 20
114.942390590279
 30
0.0
 11
359.322078865076
 21
115.442390590279
 31
0.0
  0
LINE
  5
E9
330
A
100
AcDbEntity
  8
1
  6
Continuous
 62
     3
100
AcDbLine
 10
358.822078865076
 20
114.942390590279
 30
0.0
 11
359.322078865076
 21
115.442390590279
 31
0.0
  0
LINE
  5
E8
330
A
100
AcDbEntity
  8
1
  6
Continuous
 62
     3
100
AcDbLine
 10
362.072078865076
 20
121.192390590279
 30
0.0
 11
362.572078865076
 21
120.692390590279
 31
0.0
  0
LINE
  5
E7
330
A
100
AcDbEntity
  8
1
  6
Continuous
 62
     3
100
AcDbLine
 10
362.572078865076
 20
121.692390590279
 30
0.0
 11
362.072078865076
 21
121.192390590279
 31
0.0
  0
LINE
  5
E6
330
A
100
AcDbEntity
  8
1
  6
Continuous
 62
     3
100
AcDbLine
 10
356.072078865076
 20
120.692390590279
 30
0.0
 11
356.572078865076
 21
121.192390590279
 31
0.0
  0
LINE
  5
E5
330
A
100
AcDbEntity
  8
1
  6
Continuous
 62
     3
100
AcDbLine
 10
356.072078865076
 20
121.692390590279
 30
0.0
 11
356.572078865076
 21
121.192390590279
 31
0.0
  0
LINE
  5
E4
330
A
100
AcDbEntity
  8
1
  6
Continuous
 62
     3
100
AcDbLine
 10
359.822078865076
 20
127.442390590279
 30
0.0
 11
362.572078865076
 21
127.442390590279
 31
0.0
  0
LINE
  5
E3
330
A
100
AcDbEntity
  8
1
  6
Continuous
 62
     3
100
AcDbLine
 10
356.072078865076
 20
121.692390590279
 30
0.0
 11
356.072078865076
 21
127.442390590279
 31
0.0
  0
LINE
  5
E2
330
A
100
AcDbEntity
  8
1
  6
Continuous
 62
     3
100
AcDbLine
 10
362.572078865076
 20
120.692390590279
 30
0.0
 11
362.572078865076
 21
114.942390590279
 31
0.0
  0
LINE
  5
E1
330
A
100
AcDbEntity
  8
1
  6
Continuous
 62
     3
100
AcDbLine
 10
361.072078865076
 20
129.442390590279
 30
0.0
 11
362.772078865076
 21
129.442390590279
 31
0.0
  0
LINE
  5
E0
330
A
100
AcDbEntity
  8
1
  6
Continuous
 62
     3
100
AcDbLine
 10
361.072078865076
 20
130.442390590279
 30
0.0
 11
363.072078865076
 21
130.442390590279
 31
0.0
  0
LINE
  5
DF
330
A
100
AcDbEntity
  8
1
  6
Continuous
 62
     3
100
AcDbLine
 10
357.572078865076
 20
129.442390590279
 30
0.0
 11
357.572078865076
 21
130.442390590279
 31
0.0
  0
LINE
  5
DE
330
A
100
AcDbEntity
  8
1
  6
Continuous
 62
     3
100
AcDbLine
 10
361.072078865076
 20
130.442390590279
 30
0.0
 11
361.072078865076
 21
129.442390590279
 31
0.0
  0
LINE
  5
DD
330
A
100
AcDbEntity
  8
1
  6
Continuous
 62
     3
100
AcDbLine
 10
355.872078865076
 20
128.442390590279
 30
0.0
 11
355.872078865076
 21
129.442390590279
 31
0.0
  0
LINE
  5
DC
330
A
100
AcDbEntity
  8
1
  6
Continuous
 62
     3
100
AcDbLine
 10
362.772078865076
 20
128.442390590279
 30
0.0
 11
355.872078865076
 21
128.442390590279
 31
0.0
  0
LINE
  5
DB
330
A
100
AcDbEntity
  8
1
  6
Continuous
 62
     3
100
AcDbLine
 10
362.772078865076
 20
129.442390590279
 30
0.0
 11
362.772078865076
 21
128.442390590279
 31
0.0
  0
LINE
  5
DA
330
A
100
AcDbEntity
  8
1
  6
Continuous
 62
     3
100
AcDbLine
 10
355.872078865076
 20
129.442390590279
 30
0.0
 11
357.572078865076
 21
129.442390590279
 31
0.0
  0
LINE
  5
D9
330
A
100
AcDbEntity
  8
1
  6
Continuous
 62
     3
100
AcDbLine
 10
356.072078865076
 20
114.942390590279
 30
0.0
 11
356.072078865076
 21
120.692390590279
 31
0.0
  0
LINE
  5
D8
330
A
100
AcDbEntity
  8
1
  6
Continuous
 62
     3
100
AcDbLine
 10
362.572078865076
 20
114.942390590279
 30
0.0
 11
359.822078865076
 21
114.942390590279
 31
0.0
  0
LINE
  5
D7
330
A
100
AcDbEntity
  8
1
  6
Continuous
 62
     3
100
AcDbLine
 10
362.572078865076
 20
127.442390590279
 30
0.0
 11
362.572078865076
 21
121.692390590279
 31
0.0
  0
LINE
  5
D6
330
A
100
AcDbEntity
  8
1
  6
Continuous
 62
     3
100
AcDbLine
 10
356.072078865076
 20
127.442390590279
 30
0.0
 11
358.822078865076
 21
127.442390590279
 31
0.0
  0
LINE
  5
D5
330
A
100
AcDbEntity
  8
1
  6
Continuous
 62
     3
100
AcDbLine
 10
360.322078865076
 20
111.942390590279
 30
0.0
 11
363.072078865076
 21
111.942390590279
 31
0.0
  0
LINE
  5
D4
330
A
100
AcDbEntity
  8
1
  6
Continuous
 62
     3
100
AcDbLine
 10
358.322078865076
 20
113.942390590279
 30
0.0
 11
355.572078865076
 21
113.942390590279
 31
0.0
  0
LINE
  5
D3
330
A
100
AcDbEntity
  8
1
  6
Continuous
 62
     3
100
AcDbLine
 10
358.822078865076
 20
112.442390590279
 30
0.0
 11
358.822078865076
 21
113.442390590279
 31
0.0
  0
LINE
  5
D2
330
A
100
AcDbEntity
  8
1
  6
Continuous
 62
     3
100
AcDbLine
 10
359.822078865076
 20
113.442390590279
 30
0.0
 11
359.822078865076
 21
112.442390590279
 31
0.0
  0
LINE
  5
D1
330
A
100
AcDbEntity
  8
1
  6
Continuous
 62
     3
100
AcDbLine
 10
363.072078865076
 20
110.942390590279
 30
0.0
 11
355.572078865076
 21
110.942390590279
 31
0.0
  0
LINE
  5
D0
330
A
100
AcDbEntity
  8
1
  6
Continuous
 62
     3
100
AcDbLine
 10
355.572078865076
 20
111.942390590279
 30
0.0
 11
358.322078865076
 21
111.942390590279
 31
0.0
  0
LINE
  5
CF
330
A
100
AcDbEntity
  8
1
  6
Continuous
 62
     3
100
AcDbLine
 10
355.072078865076
 20
114.442390590279
 30
0.0
 11
355.072078865076
 21
129.942390590279
 31
0.0
  0
LINE
  5
CE
330
A
100
AcDbEntity
  8
1
  6
Continuous
 62
     3
100
AcDbLine
 10
363.072078865076
 20
113.942390590279
 30
0.0
 11
360.322078865076
 21
113.942390590279
 31
0.0
  0
LINE
  5
CD
330
A
100
AcDbEntity
  8
1
  6
Continuous
 62
     3
100
AcDbLine
 10
363.572078865076
 20
129.942390590279
 30
0.0
 11
363.572078865076
 21
114.442390590279
 31
0.0
  0
LINE
  5
CC
330
A
100
AcDbEntity
  8
1
  6
Continuous
 62
     3
100
AcDbLine
 10
355.572078865076
 20
130.442390590279
 30
0.0
 11
357.572078865076
 21
130.442390590279
 31
0.0
  0
LINE
  5
CB
330
A
100
AcDbEntity
  8
1
  6
DOT_CENTER
 62
     1
100
AcDbLine
 10
359.322078865076
 20
131.875068173084
 30
0.0
 11
359.322078865076
 21
109.193007814161
 31
0.0
  0
LINE
  5
CA
330
A
100
AcDbEntity
  8
1
  6
Continuous
 62
     3
100
AcDbLine
 10
358.822078865076
 20
114.942390590279
 30
0.0
 11
356.072078865076
 21
114.942390590279
 31
0.0
  0
LINE
  5
C9
330
A
100
AcDbEntity
  8
1
  6
DOT_CENTER
 62
     1
100
AcDbLine
 10
320.939522233397
 20
81.58821966532499
 30
0.0
 11
317.096420115473
 21
81.58821966532499
 31
0.0
  0
LINE
  5
C8
330
A
100
AcDbEntity
  8
1
  6
Continuous
 62
     3
100
AcDbLine
 10
324.078098339031
 20
86.49119018919
 30
0.0
 11
323.757098023367
 21
85.588219665325
 31
0.0
  0
LINE
  5
C7
330
A
100
AcDbEntity
  8
1
  6
Continuous
 62
     3
100
AcDbLine
 10
323.757098023367
 20
85.588219665325
 30
0.0
 11
324.078098339031
 21
84.685249141456
 31
0.0
  0
LINE
  5
C6
330
A
100
AcDbEntity
  8
1
  6
Continuous
 62
     3
100
AcDbLine
 10
323.460430123046
 20
88.18821966532301
 30
0.0
 11
323.46762260314
 21
87.229916353286
 31
0.0
  0
LINE
  5
C5
330
A
100
AcDbEntity
  8
1
  6
Continuous
 62
     3
100
AcDbLine
 10
322.299593593738
 20
89.57165076954099
 30
0.0
 11
322.634111350339
 21
88.67360019181601
 31
0.0
  0
LINE
  5
C4
330
A
100
AcDbEntity
  8
1
  6
Continuous
 62
     3
100
AcDbLine
 10
320.735602768662
 20
90.47462129340699
 30
0.0
 11
321.357098023369
 21
89.74514160348601
 31
0.0
  0
LINE
  5
C3
330
A
100
AcDbEntity
  8
1
  6
Continuous
 62
     3
100
AcDbLine
 10
318.957098023372
 20
90.78821966531901
 30
0.0
 11
319.790609276172
 21
90.31529687977799
 31
0.0
  0
LINE
  5
C2
330
A
100
AcDbEntity
  8
1
  6
Continuous
 62
     3
100
AcDbLine
 10
317.178593278079
 20
90.47462129340599
 30
0.0
 11
318.1235867705709
 21
90.31529687977799
 31
0.0
  0
LINE
  5
C1
330
A
100
AcDbEntity
  8
1
  6
Continuous
 62
     3
100
AcDbLine
 10
315.614602453004
 20
89.57165076953799
 30
0.0
 11
316.557098023373
 21
89.74514160348499
 31
0.0
  0
LINE
  5
C0
330
A
100
AcDbEntity
  8
1
  6
Continuous
 62
     3
100
AcDbLine
 10
314.453765923695
 20
88.188219665321
 30
0.0
 11
315.280084696403
 21
88.67360019181601
 31
0.0
  0
LINE
  5
BF
330
A
100
AcDbEntity
  8
1
  6
Continuous
 62
     3
100
AcDbLine
 10
313.836097707712
 20
86.49119018919
 30
0.0
 11
314.446573443603
 21
87.229916353286
 31
0.0
  0
LINE
  5
BE
330
A
100
AcDbEntity
  8
1
  6
Continuous
 62
     3
100
AcDbLine
 10
313.836097707712
 20
84.685249141456
 30
0.0
 11
314.157098023375
 21
85.588219665325
 31
0.0
  0
LINE
  5
BD
330
A
100
AcDbEntity
  8
1
  6
Continuous
 62
     3
100
AcDbLine
 10
314.453765923696
 20
82.98821966532599
 30
0.0
 11
314.446573443603
 21
83.946522977363
 31
0.0
  0
LINE
  5
BC
330
A
100
AcDbEntity
  8
1
  6
Continuous
 62
     3
100
AcDbLine
 10
315.614602453003
 20
81.60478856111
 30
0.0
 11
315.280084696403
 21
82.50283913883299
 31
0.0
  0
LINE
  5
BB
330
A
100
AcDbEntity
  8
1
  6
Continuous
 62
     3
100
AcDbLine
 10
317.178593278077
 20
80.70181803724201
 30
0.0
 11
316.557098023372
 21
81.43129772716401
 31
0.0
  0
LINE
  5
BA
330
A
100
AcDbEntity
  8
1
  6
Continuous
 62
     3
100
AcDbLine
 10
318.95709802337
 20
80.38821966532799
 30
0.0
 11
318.1235867705701
 21
80.86114245087001
 31
0.0
  0
LINE
  5
B9
330
A
100
AcDbEntity
  8
1
  6
Continuous
 62
     3
100
AcDbLine
 10
320.735602768661
 20
80.701818037241
 30
0.0
 11
319.790609276171
 21
80.861142450869
 31
0.0
  0
LINE
  5
B8
330
A
100
AcDbEntity
  8
1
  6
Continuous
 62
     3
100
AcDbLine
 10
322.299593593737
 20
81.60478856110799
 30
0.0
 11
321.357098023368
 21
81.43129772716099
 31
0.0
  0
LINE
  5
B7
330
A
100
AcDbEntity
  8
1
  6
Continuous
 62
     3
100
AcDbLine
 10
323.460430123046
 20
82.98821966532399
 30
0.0
 11
322.634111350338
 21
82.50283913883
 31
0.0
  0
LINE
  5
B6
330
A
100
AcDbEntity
  8
1
  6
Continuous
 62
     3
100
AcDbLine
 10
324.078098339031
 20
84.685249141456
 30
0.0
 11
323.467622603139
 21
83.94652297736099
 31
0.0
  0
LINE
  5
B5
330
A
100
AcDbEntity
  8
1
  6
Continuous
 62
     3
100
AcDbLine
 10
323.46762260314
 20
87.229916353286
 30
0.0
 11
324.078098339031
 21
86.49119018919
 31
0.0
  0
LINE
  5
B4
330
A
100
AcDbEntity
  8
1
  6
Continuous
 62
     3
100
AcDbLine
 10
322.634111350339
 20
88.67360019181601
 30
0.0
 11
323.460430123046
 21
88.18821966532301
 31
0.0
  0
LINE
  5
B3
330
A
100
AcDbEntity
  8
1
  6
Continuous
 62
     3
100
AcDbLine
 10
321.357098023369
 20
89.74514160348601
 30
0.0
 11
322.299593593738
 21
89.57165076954099
 31
0.0
  0
LINE
  5
B2
330
A
100
AcDbEntity
  8
1
  6
Continuous
 62
     3
100
AcDbLine
 10
319.790609276172
 20
90.31529687977799
 30
0.0
 11
320.735602768662
 21
90.47462129340699
 31
0.0
  0
LINE
  5
B1
330
A
100
AcDbEntity
  8
1
  6
Continuous
 62
     3
100
AcDbLine
 10
318.1235867705709
 20
90.31529687977799
 30
0.0
 11
318.957098023372
 21
90.78821966531901
 31
0.0
  0
LINE
  5
B0
330
A
100
AcDbEntity
  8
1
  6
Continuous
 62
     3
100
AcDbLine
 10
316.557098023373
 20
89.74514160348499
 30
0.0
 11
317.178593278079
 21
90.47462129340599
 31
0.0
  0
LINE
  5
AF
330
A
100
AcDbEntity
  8
1
  6
Continuous
 62
     3
100
AcDbLine
 10
315.280084696403
 20
88.67360019181601
 30
0.0
 11
315.614602453004
 21
89.57165076953799
 31
0.0
  0
LINE
  5
AE
330
A
100
AcDbEntity
  8
1
  6
Continuous
 62
     3
100
AcDbLine
 10
314.446573443603
 20
87.229916353286
 30
0.0
 11
314.453765923695
 21
88.188219665321
 31
0.0
  0
LINE
  5
AD
330
A
100
AcDbEntity
  8
1
  6
Continuous
 62
     3
100
AcDbLine
 10
314.157098023375
 20
85.588219665325
 30
0.0
 11
313.836097707712
 21
86.49119018919
 31
0.0
  0
LINE
  5
AC
330
A
100
AcDbEntity
  8
1
  6
Continuous
 62
     3
100
AcDbLine
 10
314.446573443603
 20
83.946522977363
 30
0.0
 11
313.836097707712
 21
84.685249141456
 31
0.0
  0
LINE
  5
AB
330
A
100
AcDbEntity
  8
1
  6
Continuous
 62
     3
100
AcDbLine
 10
315.280084696403
 20
82.50283913883299
 30
0.0
 11
314.453765923696
 21
82.98821966532599
 31
0.0
  0
LINE
  5
AA
330
A
100
AcDbEntity
  8
1
  6
Continuous
 62
     3
100
AcDbLine
 10
316.557098023372
 20
81.43129772716401
 30
0.0
 11
315.614602453003
 21
81.60478856111
 31
0.0
  0
LINE
  5
A9
330
A
100
AcDbEntity
  8
1
  6
Continuous
 62
     3
100
AcDbLine
 10
318.1235867705701
 20
80.86114245087001
 30
0.0
 11
317.178593278077
 21
80.70181803724201
 31
0.0
  0
LINE
  5
A8
330
A
100
AcDbEntity
  8
1
  6
Continuous
 62
     3
100
AcDbLine
 10
319.790609276171
 20
80.861142450869
 30
0.0
 11
318.95709802337
 21
80.38821966532799
 31
0.0
  0
LINE
  5
A7
330
A
100
AcDbEntity
  8
1
  6
Continuous
 62
     3
100
AcDbLine
 10
321.357098023368
 20
81.43129772716099
 30
0.0
 11
320.735602768661
 21
80.701818037241
 31
0.0
  0
LINE
  5
A6
330
A
100
AcDbEntity
  8
1
  6
Continuous
 62
     3
100
AcDbLine
 10
322.634111350338
 20
82.50283913883
 30
0.0
 11
322.299593593737
 21
81.60478856110799
 31
0.0
  0
LINE
  5
A5
330
A
100
AcDbEntity
  8
1
  6
Continuous
 62
     3
100
AcDbLine
 10
323.467622603139
 20
83.94652297736099
 30
0.0
 11
323.460430123046
 21
82.98821966532399
 31
0.0
  0
LINE
  5
A4
330
A
100
AcDbEntity
  8
1
  6
Continuous
 62
     3
100
AcDbLine
 10
284.731489641865
 20
113.085214372774
 30
0.0
 11
284.781489641865
 21
113.085214372774
 31
0.0
  0
LINE
  5
A3
330
A
100
AcDbEntity
  8
1
  6
Continuous
 62
     3
100
AcDbLine
 10
284.781489641864
 20
118.585024619272
 30
0.0
 11
284.781489641865
 21
113.085214372774
 31
0.0
  0
LINE
  5
A2
330
A
100
AcDbEntity
  8
1
  6
Continuous
 62
     3
100
AcDbLine
 10
297.656850908512
 20
113.085214372774
 30
0.0
 11
297.706850908512
 21
113.085214372774
 31
0.0
  0
LINE
  5
A1
330
A
100
AcDbEntity
  8
1
  6
Continuous
 62
     3
100
AcDbLine
 10
325.243591481567
 20
84.38821966532499
 30
0.0
 11
325.075921439678
 21
84.588219665325
 31
0.0
  0
LINE
  5
A0
330
A
100
AcDbEntity
  8
1
  6
Continuous
 62
     3
100
AcDbLine
 10
325.075921439678
 20
86.58821966532499
 30
0.0
 11
325.243591481568
 21
86.78821966532499
 31
0.0
  0
LINE
  5
9F
330
A
100
AcDbEntity
  8
1
  6
Continuous
 62
     3
100
AcDbLine
 10
324.807098023367
 20
86.58821966532499
 30
0.0
 11
325.075921439678
 21
86.58821966532499
 31
0.0
  0
LINE
  5
9E
330
A
100
AcDbEntity
  8
1
  6
Continuous
 62
     3
100
AcDbLine
 10
312.83827460706
 20
84.588219665325
 30
0.0
 11
312.670604565171
 21
84.38821966532499
 31
0.0
  0
LINE
  5
9D
330
A
100
AcDbEntity
  8
1
  6
Continuous
 62
     3
100
AcDbLine
 10
312.83827460706
 20
86.58821966532499
 30
0.0
 11
313.107098023371
 21
86.58821966532499
 31
0.0
  0
LINE
  5
9C
330
A
100
AcDbEntity
  8
1
  6
Continuous
 62
     3
100
AcDbLine
 10
312.670604565171
 20
86.78821966532499
 30
0.0
 11
312.83827460706
 21
86.58821966532499
 31
0.0
  0
LINE
  5
9B
330
A
100
AcDbEntity
  8
1
  6
Continuous
 62
     3
100
AcDbLine
 10
325.089185759208
 20
83.588219665325
 30
0.0
 11
324.401361058897
 21
83.58821966532401
 31
0.0
  0
LINE
  5
9A
330
A
100
AcDbEntity
  8
1
  6
Continuous
 62
     3
100
AcDbLine
 10
324.401361058897
 20
87.58821966532499
 30
0.0
 11
325.089185759208
 21
87.58821966532499
 31
0.0
  0
LINE
  5
99
330
A
100
AcDbEntity
  8
1
  6
Continuous
 62
     3
100
AcDbLine
 10
324.786263147968
 20
88.49180950380899
 30
0.0
 11
324.732210129864
 21
88.460601979256
 31
0.0
  0
LINE
  5
98
330
A
100
AcDbEntity
  8
1
  6
Continuous
 62
     3
100
AcDbLine
 10
324.386263147966
 20
81.99180950380901
 30
0.0
 11
324.332210129862
 21
82.023017028361
 31
0.0
  0
LINE
  5
97
330
A
100
AcDbEntity
  8
1
  6
Continuous
 62
     3
100
AcDbLine
 10
318.557098023365
 20
79.088219665324
 30
0.0
 11
318.557098023365
 21
79.150634714429
 31
0.0
  0
LINE
  5
96
330
A
100
AcDbEntity
  8
1
  6
Continuous
 62
     3
100
AcDbLine
 10
313.127932898766
 20
82.68462982683999
 30
0.0
 11
313.18198591687
 21
82.715837351393
 31
0.0
  0
LINE
  5
95
330
A
100
AcDbEntity
  8
1
  6
Continuous
 62
     3
100
AcDbLine
 10
313.5279328987711
 20
89.18462982683799
 30
0.0
 11
313.581985916872
 21
89.15342230228901
 31
0.0
  0
LINE
  5
94
330
A
100
AcDbEntity
  8
1
  6
Continuous
 62
     3
100
AcDbLine
 10
324.386263147968
 20
89.184629826836
 30
0.0
 11
324.332210129864
 21
89.153422302284
 31
0.0
  0
LINE
  5
93
330
A
100
AcDbEntity
  8
1
  6
Continuous
 62
     3
100
AcDbLine
 10
324.786263147965
 20
82.68462982683599
 30
0.0
 11
324.732210129862
 21
82.715837351389
 31
0.0
  0
LINE
  5
92
330
A
100
AcDbEntity
  8
1
  6
Continuous
 62
     3
100
AcDbLine
 10
319.357098023365
 20
79.088219665324
 30
0.0
 11
319.357098023365
 21
79.150634714429
 31
0.0
  0
LINE
  5
91
330
A
100
AcDbEntity
  8
1
  6
Continuous
 62
     3
100
AcDbLine
 10
313.527932898766
 20
81.991809503813
 30
0.0
 11
313.58198591687
 21
82.02301702836599
 31
0.0
  0
LINE
  5
90
330
A
100
AcDbEntity
  8
1
  6
Continuous
 62
     3
100
AcDbLine
 10
313.127932898771
 20
88.491809503811
 30
0.0
 11
313.181985916873
 21
88.46060197926099
 31
0.0
  0
LINE
  5
8F
330
A
100
AcDbEntity
  8
1
  6
Continuous
 62
     3
100
AcDbLine
 10
319.3570980233701
 20
92.088219665325
 30
0.0
 11
319.3570980233701
 21
92.02580461622101
 31
0.0
  0
LINE
  5
8E
330
A
100
AcDbEntity
  8
1
  6
Continuous
 62
     3
100
AcDbLine
 10
318.55709802337
 20
92.088219665325
 30
0.0
 11
318.55709802337
 21
92.02580461622
 31
0.0
  0
LINE
  5
8D
330
A
100
AcDbEntity
  8
1
  6
DOT_CENTER
 62
     1
100
AcDbLine
 10
318.957098023369
 20
76.50752509389599
 30
0.0
 11
318.957098023369
 21
94.37848173966498
 31
0.0
  0
LINE
  5
8C
330
A
100
AcDbEntity
  8
1
  6
DOT_CENTER
 62
     1
100
AcDbLine
 10
329.152107286236
 20
85.588219665324
 30
0.0
 11
309.6240434779411
 21
85.588219665325
 31
0.0
  0
LINE
  5
8B
330
A
100
AcDbEntity
  8
1
  6
Continuous
 62
     3
100
AcDbLine
 10
325.075921439678
 20
84.588219665325
 30
0.0
 11
324.807098023367
 21
84.588219665325
 31
0.0
  0
LINE
  5
8A
330
A
100
AcDbEntity
  8
1
  6
Continuous
 62
     3
100
AcDbLine
 10
312.825010287535
 20
87.58821966532499
 30
0.0
 11
313.512834987841
 21
87.58821966532499
 31
0.0
  0
LINE
  5
89
330
A
100
AcDbEntity
  8
1
  6
Continuous
 62
     3
100
AcDbLine
 10
312.825010287534
 20
83.588219665325
 30
0.0
 11
313.51283498784
 21
83.588219665325
 31
0.0
  0
LINE
  5
88
330
A
100
AcDbEntity
  8
1
  6
Continuous
 62
     3
100
AcDbLine
 10
313.107098023371
 20
84.588219665325
 30
0.0
 11
312.83827460706
 21
84.588219665325
 31
0.0
  0
LINE
  5
87
330
A
100
AcDbEntity
  8
1
  6
Continuous
 62
     3
100
AcDbLine
 10
317.81145409963
 20
142.621756234798
 30
0.0
 11
315.957098023369
 21
142.621756234798
 31
0.0
  0
LINE
  5
86
330
A
100
AcDbEntity
  8
1
  6
Continuous
 62
     3
100
AcDbLine
 10
320.102741947108
 20
143.621756234798
 30
0.0
 11
321.957098023369
 21
143.621756234798
 31
0.0
  0
LINE
  5
85
330
A
100
AcDbEntity
  8
1
  6
Continuous
 62
     3
100
AcDbLine
 10
318.457098023369
 20
144.267400158537
 30
0.0
 11
318.457098023369
 21
146.121756234798
 31
0.0
  0
LINE
  5
84
330
A
100
AcDbEntity
  8
1
  6
Continuous
 62
     3
100
AcDbLine
 10
319.457098023369
 20
141.976112311059
 30
0.0
 11
319.457098023369
 21
140.121756234798
 31
0.0
  0
LINE
  5
83
330
A
100
AcDbEntity
  8
1
  6
Continuous
 62
     3
100
AcDbLine
 10
315.957098023369
 20
142.621756234798
 30
0.0
 11
315.957098023369
 21
143.621756234798
 31
0.0
  0
LINE
  5
82
330
A
100
AcDbEntity
  8
1
  6
Continuous
 62
     3
100
AcDbLine
 10
321.957098023369
 20
142.621756234798
 30
0.0
 11
320.102741947108
 21
142.621756234798
 31
0.0
  0
LINE
  5
81
330
A
100
AcDbEntity
  8
1
  6
Continuous
 62
     3
100
AcDbLine
 10
321.957098023369
 20
143.621756234798
 30
0.0
 11
321.957098023369
 21
142.621756234798
 31
0.0
  0
LINE
  5
80
330
A
100
AcDbEntity
  8
1
  6
Continuous
 62
     3
100
AcDbLine
 10
315.957098023369
 20
143.621756234798
 30
0.0
 11
317.81145409963
 21
143.621756234798
 31
0.0
  0
LINE
  5
7F
330
A
100
AcDbEntity
  8
1
  6
Continuous
 62
     3
100
AcDbLine
 10
318.457098023369
 20
140.121756234798
 30
0.0
 11
318.457098023369
 21
141.976112311059
 31
0.0
  0
LINE
  5
7E
330
A
100
AcDbEntity
  8
1
  6
Continuous
 62
     3
100
AcDbLine
 10
319.457098023369
 20
140.121756234798
 30
0.0
 11
318.457098023369
 21
140.121756234798
 31
0.0
  0
LINE
  5
7D
330
A
100
AcDbEntity
  8
1
  6
Continuous
 62
     3
100
AcDbLine
 10
319.457098023369
 20
146.121756234798
 30
0.0
 11
319.457098023369
 21
144.267400158537
 31
0.0
  0
LINE
  5
7C
330
A
100
AcDbEntity
  8
1
  6
Continuous
 62
     3
100
AcDbLine
 10
318.457098023369
 20
146.121756234798
 30
0.0
 11
319.457098023369
 21
146.121756234798
 31
0.0
  0
LINE
  5
7B
330
A
100
AcDbEntity
  8
1
  6
DOT_CENTER
 62
     1
100
AcDbLine
 10
307.86695424804
 20
143.121756234798
 30
0.0
 11
330.047241798699
 21
143.121756234798
 31
0.0
  0
LINE
  5
7A
330
A
100
AcDbEntity
  8
1
  6
DOT_CENTER
 62
     1
100
AcDbLine
 10
318.957098023366
 20
152.611269238237
 30
0.0
 11
318.957098023369
 21
133.859229647938
 31
0.0
  0
LINE
  5
79
330
A
100
AcDbEntity
  8
1
  6
Continuous
 62
     3
100
AcDbLine
 10
312.957098023369
 20
111.585024619272
 30
0.0
 11
324.957098023369
 21
111.585024619272
 31
0.0
  0
LINE
  5
78
330
A
100
AcDbEntity
  8
1
  6
Continuous
 62
     3
100
AcDbLine
 10
285.269170275188
 20
111.585024619272
 30
0.0
 11
289.219170275188
 21
111.585024619272
 31
0.0
  0
LINE
  5
77
330
A
100
AcDbEntity
  8
1
  6
Continuous
 62
     3
100
AcDbLine
 10
298.719170275189
 20
119.185024619271
 30
0.0
 11
298.719170275189
 21
118.585024619272
 31
0.0
  0
LINE
  5
76
330
A
100
AcDbEntity
  8
1
  6
Continuous
 62
     3
100
AcDbLine
 10
298.719170275189
 20
118.585024619272
 30
0.0
 11
283.719170275189
 21
118.585024619272
 31
0.0
  0
LINE
  5
75
330
A
100
AcDbEntity
  8
1
  6
Continuous
 62
     3
100
AcDbLine
 10
283.719170275188
 20
119.185024619271
 30
0.0
 11
298.719170275189
 21
119.185024619271
 31
0.0
  0
LINE
  5
74
330
A
100
AcDbEntity
  8
1
  6
Continuous
 62
     3
100
AcDbLine
 10
283.719170275189
 20
118.585024619272
 30
0.0
 11
283.719170275188
 21
119.185024619271
 31
0.0
  0
LINE
  5
73
330
A
100
AcDbEntity
  8
1
  6
Continuous
 62
     3
100
AcDbLine
 10
284.919170275189
 20
119.585024619272
 30
0.0
 11
297.519170275189
 21
119.585024619272
 31
0.0
  0
LINE
  5
72
330
A
100
AcDbEntity
  8
1
  6
Continuous
 62
     3
100
AcDbLine
 10
297.519170275189
 20
119.585024619272
 30
0.0
 11
298.719170275189
 21
119.185024619271
 31
0.0
  0
LINE
  5
71
330
A
100
AcDbEntity
  8
1
  6
Continuous
 62
     3
100
AcDbLine
 10
283.719170275188
 20
119.185024619271
 30
0.0
 11
284.919170275189
 21
119.585024619272
 31
0.0
  0
LINE
  5
70
330
A
100
AcDbEntity
  8
1
  6
Continuous
 62
     3
100
AcDbLine
 10
325.257098023369
 20
119.585024619272
 30
0.0
 11
326.457098023369
 21
119.185024619271
 31
0.0
  0
LINE
  5
6F
330
A
100
AcDbEntity
  8
1
  6
Continuous
 62
     3
100
AcDbLine
 10
311.457098023369
 20
119.185024619271
 30
0.0
 11
312.657098023369
 21
119.585024619272
 31
0.0
  0
LINE
  5
6E
330
A
100
AcDbEntity
  8
1
  6
DOT_CENTER
 62
     1
100
AcDbLine
 10
287.219170275188
 20
113.037742090721
 30
0.0
 11
287.219170275188
 21
105.577742090722
 31
0.0
  0
LINE
  5
6D
330
A
100
AcDbEntity
  8
1
  6
Continuous
 62
     3
100
AcDbLine
 10
324.957098023369
 20
111.585024619272
 30
0.0
 11
325.1417564618
 21
111.769683057703
 31
0.0
  0
LINE
  5
6C
330
A
100
AcDbEntity
  8
1
  6
Continuous
 62
     3
100
AcDbLine
 10
312.772439584938
 20
111.769683057703
 30
0.0
 11
312.957098023369
 21
111.585024619272
 31
0.0
  0
LINE
  5
6B
330
A
100
AcDbEntity
  8
1
  6
Continuous
 62
     3
100
AcDbLine
 10
312.772439584938
 20
112.085024619272
 30
0.0
 11
325.1417564618
 21
112.085024619272
 31
0.0
  0
LINE
  5
6A
330
A
100
AcDbEntity
  8
1
  6
Continuous
 62
     3
100
AcDbLine
 10
312.657098023369
 20
119.585024619272
 30
0.0
 11
325.257098023369
 21
119.585024619272
 31
0.0
  0
LINE
  5
69
330
A
100
AcDbEntity
  8
1
  6
Continuous
 62
     3
100
AcDbLine
 10
326.457098023369
 20
119.185024619271
 30
0.0
 11
326.457098023369
 21
118.585024619272
 31
0.0
  0
LINE
  5
68
330
A
100
AcDbEntity
  8
1
  6
Continuous
 62
     3
100
AcDbLine
 10
311.457098023369
 20
119.185024619271
 30
0.0
 11
326.457098023369
 21
119.185024619271
 31
0.0
  0
LINE
  5
67
330
A
100
AcDbEntity
  8
1
  6
Continuous
 62
     3
100
AcDbLine
 10
312.927932898768
 20
118.585024619272
 30
0.0
 11
312.927932898768
 21
113.485024619272
 31
0.0
  0
LINE
  5
66
330
A
100
AcDbEntity
  8
1
  6
Continuous
 62
     3
100
AcDbLine
 10
313.538601783269
 20
118.585024619272
 30
0.0
 11
313.538601783269
 21
113.485024619272
 31
0.0
  0
LINE
  5
65
330
A
100
AcDbEntity
  8
1
  6
Continuous
 62
     3
100
AcDbLine
 10
324.98626314797
 20
113.485024619272
 30
0.0
 11
324.98626314797
 21
118.585024619272
 31
0.0
  0
LINE
  5
64
330
A
100
AcDbEntity
  8
1
  6
Continuous
 62
     3
100
AcDbLine
 10
324.37559426347
 20
113.485024619272
 30
0.0
 11
324.37559426347
 21
118.585024619272
 31
0.0
  0
LINE
  5
63
330
A
100
AcDbEntity
  8
1
  6
Continuous
 62
     3
100
AcDbLine
 10
318.557098023369
 20
113.485024619272
 30
0.0
 11
318.557098023369
 21
118.585024619272
 31
0.0
  0
LINE
  5
62
330
A
100
AcDbEntity
  8
1
  6
Continuous
 62
     3
100
AcDbLine
 10
319.357098023369
 20
113.485024619272
 30
0.0
 11
319.357098023369
 21
118.585024619272
 31
0.0
  0
LINE
  5
61
330
A
100
AcDbEntity
  8
1
  6
Continuous
 62
     3
100
AcDbLine
 10
294.8691702751879
 20
113.465024619272
 30
0.0
 11
294.8691702751879
 21
118.585024619272
 31
0.0
  0
LINE
  5
60
330
A
100
AcDbEntity
  8
1
  6
Continuous
 62
     3
100
AcDbLine
 10
294.116600430336
 20
113.465024619272
 30
0.0
 11
294.116600430336
 21
118.585024619272
 31
0.0
  0
LINE
  5
5F
330
A
100
AcDbEntity
  8
1
  6
Continuous
 62
     3
100
AcDbLine
 10
298.119170275188
 20
118.585024619272
 30
0.0
 11
298.119170275188
 21
113.485024619272
 31
0.0
  0
LINE
  5
5E
330
A
100
AcDbEntity
  8
1
  6
Continuous
 62
     3
100
AcDbLine
 10
287.569170275189
 20
118.585024619272
 30
0.0
 11
287.569170275189
 21
113.465024619272
 31
0.0
  0
LINE
  5
5D
330
A
100
AcDbEntity
  8
1
  6
Continuous
 62
     3
100
AcDbLine
 10
288.321740120041
 20
118.585024619272
 30
0.0
 11
288.321740120041
 21
113.465024619272
 31
0.0
  0
LINE
  5
5C
330
A
100
AcDbEntity
  8
1
  6
Continuous
 62
     3
100
AcDbLine
 10
284.769170275189
 20
113.085024619272
 30
0.0
 11
284.769170275188
 21
112.085024619272
 31
0.0
  0
LINE
  5
5B
330
A
100
AcDbEntity
  8
1
  6
Continuous
 62
     3
100
AcDbLine
 10
284.3191702751891
 20
113.485024619272
 30
0.0
 11
284.3191702751891
 21
118.585024619272
 31
0.0
  0
LINE
  5
5A
330
A
100
AcDbEntity
  8
1
  6
Continuous
 62
     3
100
AcDbLine
 10
284.769170275188
 20
112.085024619272
 30
0.0
 11
289.219170275188
 21
112.085024619272
 31
0.0
  0
LINE
  5
59
330
A
100
AcDbEntity
  8
1
  6
Continuous
 62
     3
100
AcDbLine
 10
297.169170275189
 20
111.585024619272
 30
0.0
 11
297.669170275189
 21
112.085024619272
 31
0.0
  0
LINE
  5
58
330
A
100
AcDbEntity
  8
1
  6
Continuous
 62
     3
100
AcDbLine
 10
284.769170275188
 20
112.085024619272
 30
0.0
 11
285.269170275188
 21
111.585024619272
 31
0.0
  0
LINE
  5
57
330
A
100
AcDbEntity
  8
1
  6
Continuous
 62
     3
100
AcDbLine
 10
288.219170275188
 20
111.585024619272
 30
0.0
 11
288.219170275188
 21
107.785024619272
 31
0.0
  0
LINE
  5
56
330
A
100
AcDbEntity
  8
1
  6
Continuous
 62
     3
100
AcDbLine
 10
288.019170275188
 20
107.585024619272
 30
0.0
 11
286.419170275188
 21
107.585024619272
 31
0.0
  0
LINE
  5
55
330
A
100
AcDbEntity
  8
1
  6
Continuous
 62
     3
100
AcDbLine
 10
286.219170275188
 20
107.785024619272
 30
0.0
 11
286.219170275188
 21
111.585024619272
 31
0.0
  0
LINE
  5
54
330
A
100
AcDbEntity
  8
1
  6
Continuous
 62
     3
100
AcDbLine
 10
297.669170275189
 20
112.085024619272
 30
0.0
 11
297.669170275188
 21
113.085024619272
 31
0.0
  0
LINE
  5
53
330
A
100
AcDbEntity
  8
1
  6
DOT_CENTER
 62
     1
100
AcDbLine
 10
291.219170275188
 20
105.619753181642
 30
0.0
 11
291.219170275189
 21
121.542498032413
 31
0.0
  0
LINE
  5
52
330
A
100
AcDbEntity
  8
1
  6
DOT_CENTER
 62
     1
100
AcDbLine
 10
318.957098023369
 20
121.542498032413
 30
0.0
 11
318.957098023369
 21
105.619753181642
 31
0.0
  0
LINE
  5
51
330
A
100
AcDbEntity
  8
1
  6
Continuous
 62
     3
100
AcDbLine
 10
325.407098023369
 20
115.585024619272
 30
0.0
 11
325.407098023369
 21
118.585024619272
 31
0.0
  0
LINE
  5
50
330
A
100
AcDbEntity
  8
1
  6
Continuous
 62
     3
100
AcDbLine
 10
326.457098023369
 20
118.585024619272
 30
0.0
 11
311.457098023369
 21
118.585024619272
 31
0.0
  0
LINE
  5
4F
330
A
100
AcDbEntity
  8
1
  6
Continuous
 62
     3
100
AcDbLine
 10
312.507098023369
 20
118.585024619272
 30
0.0
 11
312.507098023369
 21
115.585024619272
 31
0.0
  0
LINE
  5
4E
330
A
100
AcDbEntity
  8
1
  6
Continuous
 62
     3
100
AcDbLine
 10
317.957098023369
 20
107.785024619272
 30
0.0
 11
317.957098023369
 21
111.585024619272
 31
0.0
  0
LINE
  5
4D
330
A
100
AcDbEntity
  8
1
  6
Continuous
 62
     3
100
AcDbLine
 10
319.757098023369
 20
107.585024619272
 30
0.0
 11
318.157098023369
 21
107.585024619272
 31
0.0
  0
LINE
  5
4C
330
A
100
AcDbEntity
  8
1
  6
Continuous
 62
     3
100
AcDbLine
 10
319.957098023369
 20
111.585024619272
 30
0.0
 11
319.957098023369
 21
107.785024619272
 31
0.0
  0
LINE
  5
4B
330
A
100
AcDbEntity
  8
1
  6
Continuous
 62
     3
100
AcDbLine
 10
311.457098023369
 20
118.585024619272
 30
0.0
 11
311.457098023369
 21
119.185024619271
 31
0.0
  0
LINE
  5
4A
330
A
100
AcDbEntity
  8
1
  6
Continuous
 62
     3
100
AcDbLine
 10
289.419170275188
 20
115.585024619272
 30
0.0
 11
293.019170275188
 21
115.585024619272
 31
0.0
  0
LINE
  5
49
330
A
100
AcDbEntity
  8
1
  6
Continuous
 62
     3
100
AcDbLine
 10
290.219170275188
 20
115.385024619271
 30
0.0
 11
290.219170275188
 21
114.385024619271
 31
0.0
  0
LINE
  5
48
330
A
100
AcDbEntity
  8
1
  6
Continuous
 62
     3
100
AcDbLine
 10
289.219170275188
 20
111.585024619272
 30
0.0
 11
289.219170275188
 21
112.085024619272
 31
0.0
  0
LINE
  5
47
330
A
100
AcDbEntity
  8
1
  6
Continuous
 62
     3
100
AcDbLine
 10
290.219170275188
 20
111.585024619272
 30
0.0
 11
292.219170275188
 21
111.585024619272
 31
0.0
  0
LINE
  5
46
330
A
100
AcDbEntity
  8
1
  6
Continuous
 62
     3
100
AcDbLine
 10
289.219170275188
 20
111.585024619272
 30
0.0
 11
290.219170275188
 21
111.585024619272
 31
0.0
  0
LINE
  5
45
330
A
100
AcDbEntity
  8
1
  6
Continuous
 62
     3
100
AcDbLine
 10
293.219170275188
 20
115.385024619271
 30
0.0
 11
293.219170275188
 21
114.385024619271
 31
0.0
  0
LINE
  5
44
330
A
100
AcDbEntity
  8
1
  6
Continuous
 62
     3
100
AcDbLine
 10
293.219170275188
 20
111.585024619272
 30
0.0
 11
292.219170275188
 21
111.585024619272
 31
0.0
  0
LINE
  5
43
330
A
100
AcDbEntity
  8
1
  6
Continuous
 62
     3
100
AcDbLine
 10
292.219170275188
 20
111.585024619272
 30
0.0
 11
292.219170275188
 21
112.085024619272
 31
0.0
  0
LINE
  5
42
330
A
100
AcDbEntity
  8
1
  6
Continuous
 62
     3
100
AcDbLine
 10
293.219170275188
 20
111.585024619272
 30
0.0
 11
297.169170275189
 21
111.585024619272
 31
0.0
  0
LINE
  5
41
330
A
100
AcDbEntity
  8
1
  6
Continuous
 62
     3
100
AcDbLine
 10
293.219170275188
 20
112.085024619272
 30
0.0
 11
297.669170275189
 21
112.085024619272
 31
0.0
  0
LINE
  5
40
330
A
100
AcDbEntity
  8
1
  6
Continuous
 62
     3
100
AcDbLine
 10
293.219170275188
 20
112.085024619272
 30
0.0
 11
293.219170275188
 21
111.585024619272
 31
0.0
  0
LINE
  5
3F
330
A
100
AcDbEntity
  8
1
  6
Continuous
 62
     3
100
AcDbLine
 10
289.219170275188
 20
112.085024619272
 30
0.0
 11
289.219170275188
 21
114.385024619271
 31
0.0
  0
LINE
  5
3E
330
A
100
AcDbEntity
  8
1
  6
Continuous
 62
     3
100
AcDbLine
 10
289.219170275188
 20
112.085024619272
 30
0.0
 11
289.577473587227
 21
112.085024619272
 31
0.0
  0
LINE
  5
3D
330
A
100
AcDbEntity
  8
1
  6
Continuous
 62
     3
100
AcDbLine
 10
290.219170275188
 20
112.085024619272
 30
0.0
 11
290.219170275188
 21
111.585024619272
 31
0.0
  0
LINE
  5
3C
330
A
100
AcDbEntity
  8
1
  6
Continuous
 62
     3
100
AcDbLine
 10
292.219170275188
 20
112.085024619272
 30
0.0
 11
292.860866963151
 21
112.085024619272
 31
0.0
  0
LINE
  5
3B
330
A
100
AcDbEntity
  8
1
  6
Continuous
 62
     3
100
AcDbLine
 10
292.219170275188
 20
112.085024619272
 30
0.0
 11
292.219170275188
 21
114.385024619271
 31
0.0
  0
LINE
  5
3A
330
A
100
AcDbEntity
  8
1
  6
Continuous
 62
     3
100
AcDbLine
 10
325.1417564618
 20
111.769683057703
 30
0.0
 11
325.1417564618
 21
112.085024619272
 31
0.0
  0
LINE
  5
39
330
A
100
AcDbEntity
  8
1
  6
Continuous
 62
     3
100
AcDbLine
 10
325.1417564618
 20
115.585024619272
 30
0.0
 11
325.407098023369
 21
115.585024619272
 31
0.0
  0
LINE
  5
38
330
A
100
AcDbEntity
  8
1
  6
Continuous
 62
     3
100
AcDbLine
 10
325.1417564618
 20
112.085024619272
 30
0.0
 11
325.1417564618
 21
115.585024619272
 31
0.0
  0
LINE
  5
37
330
A
100
AcDbEntity
  8
1
  6
Continuous
 62
     3
100
AcDbLine
 10
312.772439584938
 20
115.585024619272
 30
0.0
 11
312.772439584938
 21
112.085024619272
 31
0.0
  0
LINE
  5
36
330
A
100
AcDbEntity
  8
1
  6
Continuous
 62
     3
100
AcDbLine
 10
312.507098023369
 20
115.585024619272
 30
0.0
 11
312.772439584938
 21
115.585024619272
 31
0.0
  0
LINE
  5
35
330
A
100
AcDbEntity
  8
1
  6
Continuous
 62
     3
100
AcDbLine
 10
312.772439584938
 20
112.085024619272
 30
0.0
 11
312.772439584938
 21
111.769683057703
 31
0.0
  0
LINE
  5
34
330
A
100
AcDbEntity
  8
1
  6
Continuous
 62
     3
100
AcDbLine
 10
289.219170275188
 20
114.385024619271
 30
0.0
 11
289.577473587227
 21
114.385024619271
 31
0.0
  0
LINE
  5
33
330
A
100
AcDbEntity
  8
1
  6
Continuous
 62
     3
100
AcDbLine
 10
290.219170275188
 20
114.385024619271
 30
0.0
 11
290.219170275188
 21
112.085024619272
 31
0.0
  0
LINE
  5
32
330
A
100
AcDbEntity
  8
1
  6
Continuous
 62
     3
100
AcDbLine
 10
289.219170275188
 20
114.385024619271
 30
0.0
 11
289.219170275188
 21
115.385024619271
 31
0.0
  0
LINE
  5
31
330
A
100
AcDbEntity
  8
1
  6
Continuous
 62
     3
100
AcDbLine
 10
292.219170275188
 20
114.385024619271
 30
0.0
 11
292.860866963151
 21
114.385024619271
 31
0.0
  0
LINE
  5
30
330
A
100
AcDbEntity
  8
1
  6
Continuous
 62
     3
100
AcDbLine
 10
293.219170275188
 20
114.385024619271
 30
0.0
 11
293.219170275188
 21
112.085024619272
 31
0.0
  0
LINE
  5
2F
330
A
100
AcDbEntity
  8
1
  6
Continuous
 62
     3
100
AcDbLine
 10
292.219170275188
 20
114.385024619271
 30
0.0
 11
292.219170275188
 21
115.385024619271
 31
0.0
  0
LINE
  5
2E
330
A
100
AcDbEntity
  8
1
  6
Continuous
 62
     3
100
AcDbLine
 10
289.577473587227
 20
114.385024619271
 30
0.0
 11
289.577473587227
 21
112.085024619272
 31
0.0
  0
LINE
  5
2D
330
A
100
AcDbEntity
  8
1
  6
Continuous
 62
     3
100
AcDbLine
 10
289.577473587227
 20
112.085024619272
 30
0.0
 11
290.219170275188
 21
112.085024619272
 31
0.0
  0
LINE
  5
2C
330
A
100
AcDbEntity
  8
1
  6
Continuous
 62
     3
100
AcDbLine
 10
289.577473587227
 20
114.385024619271
 30
0.0
 11
290.219170275188
 21
114.385024619271
 31
0.0
  0
LINE
  5
2B
330
A
100
AcDbEntity
  8
1
  6
Continuous
 62
     3
100
AcDbLine
 10
292.860866963151
 20
114.385024619271
 30
0.0
 11
292.860866963151
 21
112.085024619272
 31
0.0
  0
LINE
  5
2A
330
A
100
AcDbEntity
  8
1
  6
Continuous
 62
     3
100
AcDbLine
 10
292.860866963151
 20
112.085024619272
 30
0.0
 11
293.219170275188
 21
112.085024619272
 31
0.0
  0
LINE
  5
29
330
A
100
AcDbEntity
  8
1
  6
Continuous
 62
     3
100
AcDbLine
 10
292.860866963151
 20
114.385024619271
 30
0.0
 11
293.219170275188
 21
114.385024619271
 31
0.0
  0
LINE
  5
28
330
A
100
AcDbEntity
  8
1
  6
Continuous
 62
     3
100
AcDbLine
 10
297.656850908512
 20
113.085214372774
 30
0.0
 11
297.656850908513
 21
118.585024619272
 31
0.0
  0
ENDSEC
  0
SECTION
  2
OBJECTS
  0
DICTIONARY
  5
19
330
0
100
AcDbDictionary
281
     1
  3
ACAD_COLOR
350
353
  3
ACAD_GROUP
350
1A
  3
ACAD_LAYOUT
350
356
  3
ACAD_MATERIAL
350
352
  3
ACAD_MLINESTYLE
350
1B
  3
ACAD_PLOTSETTINGS
350
357
  3
ACAD_PLOTSTYLENAME
350
350
  3
ACAD_TABLESTYLE
350
354
  3
ACDBHEADERROUNDTRIPXREC
350
48A
  3
AcDbVariableDictionary
350
483
  3
AcmDictionary
350
41D
  3
AMG
350
35C
  3
AMGSNAPSETTINGS
350
473
  3
ASE_INDEX_DICTIONARY
350
47B
  3
DWGPROPS
350
489
  3
MAPISURF_MODULE
350
3E9
  0
DICTIONARY
  5
47E
330
A
100
AcDbDictionary
280
     1
281
     1
  3
ACAD_INDEX
360
47F
  0
DICTIONARY
  5
353
102
{ACAD_REACTORS
330
19
102
}
330
19
100
AcDbDictionary
281
     1
  0
DICTIONARY
  5
1A
102
{ACAD_REACTORS
330
19
102
}
330
19
100
AcDbDictionary
281
     1
  0
DICTIONARY
  5
356
102
{ACAD_REACTORS
330
19
102
}
330
19
100
AcDbDictionary
281
     1
  3
Model
350
358
  3
レイアウト1
350
359
  0
DICTIONARY
  5
352
102
{ACAD_REACTORS
330
19
102
}
330
19
100
AcDbDictionary
281
     1
  0
DICTIONARY
  5
1B
102
{ACAD_REACTORS
330
19
102
}
330
19
100
AcDbDictionary
281
     1
  3
STANDARD
350
1C
  0
DICTIONARY
  5
357
102
{ACAD_REACTORS
330
19
102
}
330
19
100
AcDbDictionary
281
     1
  0
ACDBDICTIONARYWDFLT
  5
350
102
{ACAD_REACTORS
330
19
102
}
330
19
100
AcDbDictionary
281
     1
  3
Normal
350
351
100
AcDbDictionaryWithDefault
340
351
  0
DICTIONARY
  5
354
102
{ACAD_REACTORS
330
19
102
}
330
19
100
AcDbDictionary
281
     1
  3
Standard
350
355
  0
DICTIONARY
  5
48A
102
{ACAD_REACTORS
330
19
102
}
330
19
100
AcDbDictionary
281
     1
  0
DICTIONARY
  5
483
102
{ACAD_REACTORS
330
19
102
}
330
19
100
AcDbDictionary
281
     1
  3
CTABLESTYLE
350
484
  3
DIMASSOC
350
486
  3
INDEXCTL
350
485
  3
PROJECTNAME
350
487
  0
DICTIONARY
  5
41D
102
{ACAD_REACTORS
330
19
102
}
330
19
100
AcDbDictionary
281
     1
  3
AcmStdDictionary
350
429
  3
AMDTSECTSYM_ARROWCOLOR
350
448
  0
DICTIONARY
  5
35C
102
{ACAD_REACTORS
330
19
102
}
330
19
100
AcDbDictionary
281
     1
  3
AcMgSettings
350
35D
  0
DICTIONARY
  5
473
102
{ACAD_REACTORS
330
19
102
}
330
19
100
AcDbDictionary
281
     1
  3
DIMENSION
350
478
  3
FEA
350
477
  3
HATCH (1)
350
474
  3
HATCH (2)
350
475
  3
SIMPLE WELD
350
479
  3
SYMBOLS
350
476
  0
DICTIONARY
  5
47B
102
{ACAD_REACTORS
330
19
102
}
330
19
100
AcDbDictionary
281
     1
  3
ASEBlockHierarchyIndexRecord
350
47D
1001
DCO15
1040
1937636337.055
  0
XRECORD
  5
489
102
{ACAD_REACTORS
330
19
102
}
330
19
100
AcDbXrecord
280
     1
  1
DWGPROPS COOKIE
  2

  3

  4

  6

  7

  8

  9

300
AmdtFileType=84
301
=
302
=
303
=
304
=
305
=
306
=
307
=
308
=
309
=
 40
0.0003575231481481
 41
2305814.417176053
 42
2458229.558345544
  1

 90
        1
  0
DICTIONARY
  5
47F
102
{ACAD_REACTORS
330
47E
102
}
330
47E
100
AcDbDictionary
281
     1
  3
*A1
350
480
  0
LAYOUT
  5
358
102
{ACAD_XDICTIONARY
360
48B
102
}
102
{ACAD_REACTORS
330
356
102
}
330
356
100
AcDbPlotSettings
  1

  2
Adobe PDF#:3
  4

  6

 40
0.0
 41
0.0
 42
0.0
 43
0.0
 44
0.0
 45
0.0
 46
0.0
 47
0.0
 48
0.0
 49
0.0
140
0.0
141
0.0
142
1.0
143
1.0
 70
  1712
 72
     0
 73
     0
 74
     0
  7

 75
     0
147
1.0
148
0.0
149
0.0
100
AcDbLayout
  1
Model
 70
     1
 71
     0
 10
0.0
 20
0.0
 11
12.0
 21
9.0
 12
0.0
 22
0.0
 32
0.0
 14
0.0
 24
0.0
 34
0.0
 15
0.0
 25
0.0
 35
0.0
146
0.0
 13
0.0
 23
0.0
 33
0.0
 16
1.0
 26
0.0
 36
0.0
 17
0.0
 27
1.0
 37
0.0
 76
     0
330
A
  0
LAYOUT
  5
359
102
{ACAD_XDICTIONARY
360
48D
102
}
102
{ACAD_REACTORS
330
356
102
}
330
356
100
AcDbPlotSettings
  1

  2
Adobe PDF#:3
  4

  6

 40
0.0
 41
0.0
 42
0.0
 43
0.0
 44
0.0
 45
0.0
 46
0.0
 47
0.0
 48
0.0
 49
0.0
140
0.0
141
0.0
142
1.0
143
1.0
 70
   688
 72
     0
 73
     0
 74
     5
  7

 75
    16
147
1.0
148
0.0
149
0.0
100
AcDbLayout
  1
レイアウト1
 70
     0
 71
     1
 10
0.0
 20
0.0
 11
12.0
 21
9.0
 12
0.0
 22
0.0
 32
0.0
 14
1.000000000000000E+20
 24
1.000000000000000E+20
 34
1.000000000000000E+20
 15
-1.000000000000000E+20
 25
-1.000000000000000E+20
 35
-1.000000000000000E+20
146
0.0
 13
0.0
 23
0.0
 33
0.0
 16
1.0
 26
0.0
 36
0.0
 17
0.0
 27
1.0
 37
0.0
 76
     0
330
B
  0
MLINESTYLE
  5
1C
102
{ACAD_REACTORS
330
1B
102
}
330
1B
100
AcDbMlineStyle
  2
STANDARD
 70
     0
  3

 62
     0
 51
90.0
 52
90.0
 71
     2
 49
0.5
 62
   256
  6
BYLAYER
 49
-0.5
 62
   256
  6
BYLAYER
  0
ACDBPLACEHOLDER
  5
351
102
{ACAD_REACTORS
330
350
102
}
330
350
  0
TABLESTYLE
  5
355
102
{ACAD_REACTORS
330
354
102
}
330
354
100
AcDbTableStyle
  3
Standard
 70
     0
 71
     0
 40
1.5
 41
1.5
280
     0
281
     0
  7
STANDARD
140
4.5
170
     2
 62
     0
 63
     7
283
     0
274
    -2
284
     1
 64
     0
275
    -2
285
     1
 65
     0
276
    -2
286
     1
 66
     0
277
    -2
287
     1
 67
     0
278
    -2
288
     1
 68
     0
279
    -2
289
     1
 69
     0
  7
STANDARD
140
6.0
170
     5
 62
     0
 63
     7
283
     0
274
    -2
284
     1
 64
     0
275
    -2
285
     1
 65
     0
276
    -2
286
     1
 66
     0
277
    -2
287
     1
 67
     0
278
    -2
288
     1
 68
     0
279
    -2
289
     1
 69
     0
  7
STANDARD
140
4.5
170
     5
 62
     0
 63
     7
283
     0
274
    -2
284
     1
 64
     0
275
    -2
285
     1
 65
     0
276
    -2
286
     1
 66
     0
277
    -2
287
     1
 67
     0
278
    -2
288
     1
 68
     0
279
    -2
289
     1
 69
     0
  0
DICTIONARYVAR
  5
484
102
{ACAD_REACTORS
330
483
102
}
330
483
100
DictionaryVariables
280
     0
  1
STANDARD
  0
DICTIONARYVAR
  5
486
102
{ACAD_REACTORS
330
483
102
}
330
483
100
DictionaryVariables
280
     0
  1
1
  0
DICTIONARYVAR
  5
485
102
{ACAD_REACTORS
330
483
102
}
330
483
100
DictionaryVariables
280
     0
  1
1
  0
DICTIONARYVAR
  5
487
102
{ACAD_REACTORS
330
483
102
}
330
483
100
DictionaryVariables
280
     0
  1

  0
DICTIONARY
  5
429
102
{ACAD_REACTORS
330
41D
102
}
330
41D
100
AcDbDictionary
281
     1
  0
XRECORD
  5
448
102
{ACAD_REACTORS
330
41D
102
}
330
41D
100
AcDbXrecord
280
     1
 90
-1023410169
  0
DICTIONARY
  5
35D
102
{ACAD_REACTORS
330
35C
102
}
330
35C
100
AcDbDictionary
281
     1
  3
DWGSETTINGS
350
35E
  3
TRANSSETTINGS
350
362
  0
ACAMGFILTERDAT
  5
478
102
{ACAD_REACTORS
330
473
102
}
330
473
100
AcAmgFilterDat
 70
    15
  1
DIMENSION,AMDT_*_DIM
  2
*
  3
*
  4
*
  5
*
290
     1
  0
ACAMGFILTERDAT
  5
477
102
{ACAD_REACTORS
330
473
102
}
330
473
100
AcAmgFilterDat
 70
    15
  1
*
  2
AM_FEA-AM_*
  3
*
  4
*
  5
*
290
     1
  0
ACAMGFILTERDAT
  5
474
102
{ACAD_REACTORS
330
473
102
}
330
473
100
AcAmgFilterDat
 70
    15
  1
HATCH
  2
*
  3
*
  4
*
  5
*
290
     1
  0
ACAMGFILTERDAT
  5
475
102
{ACAD_REACTORS
330
473
102
}
330
473
100
AcAmgFilterDat
 70
    15
  1
LINE
  2
8,8N,*-8,*-8N,AM_8,AM_8N,*-AM_8,*-AM_8N
  3
*
  4
*
  5
INSERT,STDPART2D
290
     1
  0
ACAMGFILTERDAT
  5
479
102
{ACAD_REACTORS
330
473
102
}
330
473
100
AcAmgFilterDat
 70
    15
  1
ARC
  2
AM_5
  3
*
  4
2
  5
INSERT
290
     0
  0
ACAMGFILTERDAT
  5
476
102
{ACAD_REACTORS
330
473
102
}
330
473
100
AcAmgFilterDat
 70
    15
  1
ACMFCFRAME,ACMDATUMTARGET,ACMDATUMID,ACMWELDSYM,ACMSURFSYM,ACMFEATID,ACMPARTREF,ACMBALLOON,AMDTEDGESYM,AMGSCREWCALCTABLE
  2
*
  3
*
  4
*
  5
*
290
     1
  0
XRECORD
  5
47D
102
{ACAD_REACTORS
330
47B
102
}
330
47B
100
AcDbXrecord
280
     1
  0
LAYER_INDEX
  5
480
102
{ACAD_REACTORS
330
47F
102
}
330
47F
100
AcDbIndex
 40
2458229.558345544
100
AcDbLayerIndex
  8
0
360
481
 90
        0
  8
1
360
482
 90
      804
  0
DICTIONARY
  5
48B
330
358
100
AcDbDictionary
280
     1
281
     1
  3
ACAD_XREC_ROUNDTRIP
360
48C
  0
DICTIONARY
  5
48D
330
359
100
AcDbDictionary
280
     1
281
     1
  3
ACAD_XREC_ROUNDTRIP
360
48E
  0
IDBUFFER
  5
481
330
0
100
AcDbIdBuffer
  0
IDBUFFER
  5
482
330
0
100
AcDbIdBuffer
330
15B
330
15A
330
159
330
158
330
157
330
156
330
155
330
154
330
153
330
152
330
151
330
150
330
14F
330
14E
330
14D
330
14C
330
14B
330
14A
330
149
330
148
330
147
330
146
330
145
330
144
330
143
330
142
330
141
330
140
330
13F
330
13E
330
13D
330
13C
330
13B
330
13A
330
139
330
138
330
137
330
136
330
135
330
134
330
133
330
132
330
131
330
130
330
12F
330
12E
330
12D
330
12C
330
12B
330
12A
330
129
330
128
330
127
330
126
330
125
330
124
330
123
330
122
330
121
330
120
330
11F
330
11E
330
11D
330
11C
330
11B
330
11A
330
119
330
118
330
117
330
116
330
115
330
114
330
113
330
112
330
111
330
110
330
10F
330
10E
330
10D
330
10C
330
10B
330
10A
330
109
330
108
330
107
330
106
330
105
330
104
330
103
330
102
330
101
330
100
330
FF
330
FE
330
FD
330
FC
330
FB
330
FA
330
F9
330
F8
330
F7
330
F6
330
F5
330
F4
330
F3
330
F2
330
F1
330
F0
330
EF
330
EE
330
ED
330
EC
330
EB
330
EA
330
E9
330
E8
330
E7
330
E6
330
E5
330
E4
330
E3
330
E2
330
E1
330
E0
330
DF
330
DE
330
DD
330
DC
330
DB
330
DA
330
D9
330
D8
330
D7
330
D6
330
D5
330
D4
330
D3
330
D2
330
D1
330
D0
330
CF
330
CE
330
CD
330
CC
330
CB
330
CA
330
C9
330
C8
330
C7
330
C6
330
C5
330
C4
330
C3
330
C2
330
C1
330
C0
330
BF
330
BE
330
BD
330
BC
330
BB
330
BA
330
B9
330
B8
330
B7
330
B6
330
B5
330
B4
330
B3
330
B2
330
B1
330
B0
330
AF
330
AE
330
AD
330
AC
330
AB
330
AA
330
A9
330
A8
330
A7
330
A6
330
A5
330
A4
330
A3
330
A2
330
A1
330
A0
330
9F
330
9E
330
9D
330
9C
330
9B
330
9A
330
99
330
98
330
97
330
96
330
95
330
94
330
93
330
92
330
91
330
90
330
8F
330
8E
330
8D
330
8C
330
8B
330
8A
330
89
330
88
330
87
330
86
330
85
330
84
330
83
330
82
330
81
330
80
330
7F
330
7E
330
7D
330
7C
330
7B
330
7A
330
79
330
78
330
77
330
76
330
75
330
74
330
73
330
72
330
71
330
70
330
6F
330
6E
330
6D
330
6C
330
6B
330
6A
330
69
330
68
330
67
330
66
330
65
330
64
330
63
330
62
330
61
330
60
330
5F
330
5E
330
5D
330
5C
330
5B
330
5A
330
59
330
58
330
57
330
56
330
55
330
54
330
53
330
52
330
51
330
50
330
4F
330
4E
330
4D
330
4C
330
4B
330
4A
330
49
330
48
330
47
330
46
330
45
330
44
330
43
330
42
330
41
330
40
330
3F
330
3E
330
3D
330
3C
330
3B
330
3A
330
39
330
38
330
37
330
36
330
35
330
34
330
33
330
32
330
31
330
30
330
2F
330
2E
330
2D
330
2C
330
2B
330
2A
330
29
330
28
330
34C
330
34A
330
349
330
348
330
347
330
346
330
345
330
344
330
343
330
342
330
341
330
340
330
33F
330
33E
330
33D
330
33C
330
33B
330
33A
330
339
330
338
330
337
330
336
330
335
330
334
330
333
330
332
330
331
330
330
330
32F
330
32E
330
32D
330
32C
330
32B
330
32A
330
329
330
328
330
327
330
326
330
325
330
324
330
323
330
322
330
321
330
320
330
31F
330
31E
330
31D
330
31C
330
31B
330
31A
330
319
330
318
330
317
330
316
330
315
330
314
330
313
330
312
330
311
330
310
330
30F
330
30E
330
30D
330
30C
330
30B
330
30A
330
309
330
308
330
307
330
306
330
305
330
304
330
303
330
302
330
301
330
300
330
2FF
330
2FE
330
2FD
330
2FC
330
2FB
330
2FA
330
2F9
330
2F8
330
2F7
330
2F6
330
2F5
330
2F4
330
2F3
330
2F2
330
2F1
330
2F0
330
2EF
330
2EE
330
2ED
330
2EC
330
2EB
330
2EA
330
2E9
330
2E8
330
2E7
330
2E6
330
2E5
330
2E4
330
2E3
330
2E2
330
2E1
330
2E0
330
2DF
330
2DE
330
2DD
330
2DC
330
2DB
330
2DA
330
2D9
330
2D8
330
2D7
330
2D6
330
2D5
330
2D4
330
2D3
330
2D2
330
2D1
330
2D0
330
2CF
330
2CE
330
2CD
330
2CC
330
2CB
330
2CA
330
2C9
330
2C8
330
2C7
330
2C6
330
2C5
330
2C4
330
2C3
330
2C2
330
2C1
330
2C0
330
2BF
330
2BE
330
2BD
330
2BC
330
2BB
330
2BA
330
2B9
330
2B8
330
2B7
330
2B6
330
2B5
330
2B4
330
2B3
330
2B2
330
2B1
330
2B0
330
2AF
330
2AE
330
2AD
330
2AC
330
2AB
330
2AA
330
2A9
330
2A8
330
2A7
330
2A6
330
2A5
330
2A4
330
2A3
330
2A2
330
2A1
330
2A0
330
29F
330
29E
330
29D
330
29C
330
29B
330
29A
330
299
330
298
330
297
330
296
330
295
330
294
330
293
330
292
330
291
330
290
330
28F
330
28E
330
28D
330
28C
330
28B
330
28A
330
289
330
288
330
287
330
286
330
285
330
284
330
283
330
282
330
281
330
280
330
27F
330
27E
330
27D
330
27C
330
27B
330
27A
330
279
330
278
330
277
330
276
330
275
330
274
330
273
330
272
330
271
330
270
330
26F
330
26E
330
26D
330
26C
330
26B
330
26A
330
269
330
268
330
267
330
266
330
265
330
264
330
263
330
262
330
261
330
260
330
25F
330
25E
330
25D
330
25C
330
25B
330
25A
330
259
330
258
330
257
330
256
330
255
330
254
330
253
330
252
330
251
330
250
330
24F
330
24E
330
24D
330
24C
330
24B
330
24A
330
249
330
248
330
247
330
246
330
245
330
244
330
243
330
242
330
241
330
240
330
23F
330
23E
330
23D
330
23C
330
23B
330
23A
330
239
330
238
330
237
330
236
330
235
330
234
330
233
330
232
330
231
330
230
330
22F
330
22E
330
22D
330
22C
330
22B
330
22A
330
229
330
228
330
227
330
226
330
225
330
224
330
223
330
222
330
221
330
220
330
21F
330
21E
330
21D
330
21C
330
21B
330
21A
330
219
330
218
330
217
330
216
330
215
330
214
330
213
330
212
330
211
330
210
330
20F
330
20E
330
20D
330
20C
330
20B
330
20A
330
209
330
208
330
207
330
206
330
205
330
204
330
203
330
202
330
201
330
200
330
1FF
330
1FE
330
1FD
330
1FC
330
1FB
330
1FA
330
1F9
330
1F8
330
1F7
330
1F6
330
1F5
330
1F4
330
1F3
330
1F2
330
1F1
330
1F0
330
1EF
330
1EE
330
1ED
330
1EC
330
1EB
330
1EA
330
1E9
330
1E8
330
1E7
330
1E6
330
1E5
330
1E4
330
1E3
330
1E2
330
1E1
330
1E0
330
1DF
330
1DE
330
1DD
330
1DC
330
1DB
330
1DA
330
1D9
330
1D8
330
1D7
330
1D6
330
1D5
330
1D4
330
1D3
330
1D2
330
1D1
330
1D0
330
1CF
330
1CE
330
1CD
330
1CC
330
1CB
330
1CA
330
1C9
330
1C8
330
1C7
330
1C6
330
1C5
330
1C4
330
1C3
330
1C2
330
1C1
330
1C0
330
1BF
330
1BE
330
1BD
330
1BC
330
1BB
330
1BA
330
1B9
330
1B8
330
1B7
330
1B6
330
1B5
330
1B4
330
1B3
330
1B2
330
1B1
330
1B0
330
1AF
330
1AE
330
1AD
330
1AC
330
1AB
330
1AA
330
1A9
330
1A8
330
1A7
330
1A6
330
1A5
330
1A4
330
1A3
330
1A2
330
1A1
330
1A0
330
19F
330
19E
330
19D
330
19C
330
19B
330
19A
330
199
330
198
330
197
330
196
330
195
330
194
330
193
330
192
330
191
330
190
330
18F
330
18E
330
18D
330
18C
330
18B
330
18A
330
189
330
188
330
187
330
186
330
185
330
184
330
183
330
182
330
181
330
180
330
17F
330
17E
330
17D
330
17C
330
17B
330
17A
330
179
330
178
330
177
330
176
330
175
330
174
330
173
330
172
330
171
330
170
330
16F
330
16E
330
16D
330
16C
330
16B
330
16A
330
169
330
168
330
167
330
166
330
165
330
164
330
163
330
162
330
161
330
160
330
15F
330
15E
330
15D
330
15C
  0
XRECORD
  5
48C
102
{ACAD_REACTORS
330
48B
102
}
330
48B
100
AcDbXrecord
280
     1
102
SHADEPLOT
 70
     0
102
SHADEPLOTRESLEVEL
 70
     2
102
SHADEPLOTCUSTOMDPI
 70
   300
  0
XRECORD
  5
48E
102
{ACAD_REACTORS
330
48D
102
}
330
48D
100
AcDbXrecord
280
     1
102
SHADEPLOT
 70
     0
102
SHADEPLOTRESLEVEL
 70
     2
102
SHADEPLOTCUSTOMDPI
 70
   300
  0
ENDSEC
  0
EOF
