  0
SECTION
  2
HEADER
  9
$ACADVER
  1
AC1014
  9
$ACADMAINTVER
 70
           0
  9
$DWGCODEPAGE
  3
DOS932
  9
$INSBASE
 10
0.0
 20
0.0
 30
0.0
  9
$EXTMIN
 10
1.000000000000E+20
 20
1.000000000000E+20
 30
1.000000000000E+20
  9
$EXTMAX
 10
-1.000000000000E+20
 20
-1.000000000000E+20
 30
-1.000000000000E+20
  9
$LIMMIN
 10
0.0
 20
0.0
  9
$LIMMAX
 10
0.0
 20
0.0
  9
$ORTHOMODE
 70
           0
  9
$REGENMODE
 70
           1
  9
$FILLMODE
 70
           1
  9
$QTEXTMODE
 70
           0
  9
$MIRRTEXT
 70
           1
  9
$DRAGMODE
 70
           2
  9
$LTSCALE
 40
1.0
  9
$OSMODE
 70
           0
  9
$ATTMODE
 70
           1
  9
$TEXTSIZE
 40
0.2
  9
$TRACEWID
 40
0.05
  9
$TEXTSTYLE
  7
STANDARD
  9
$CLAYER
  8
0
  9
$CELTYPE
  6
CONTINUOUS
  9
$CECOLOR
 62
         256
  9
$CELTSCALE
 40
1.0
  9
$DELOBJ
 70
           1
  9
$DISPSILH
 70
           0
  9
$DIMSCALE
 40
1.0
  9
$DIMASZ
 40
0.18
  9
$DIMEXO
 40
0.0625
  9
$DIMDLI
 40
0.38
  9
$DIMRND
 40
0.0
  9
$DIMDLE
 40
0.0
  9
$DIMEXE
 40
0.18
  9
$DIMTP
 40
0.0
  9
$DIMTM
 40
0.0
  9
$DIMTXT
 40
0.18
  9
$DIMCEN
 40
0.09
  9
$DIMTSZ
 40
0.0
  9
$DIMTOL
 70
           0
  9
$DIMLIM
 70
           0
  9
$DIMTIH
 70
           1
  9
$DIMTOH
 70
           1
  9
$DIMSE1
 70
           0
  9
$DIMSE2
 70
           0
  9
$DIMTAD
 70
           0
  9
$DIMZIN
 70
           0
  9
$DIMBLK
  1

  9
$DIMASO
 70
           1
  9
$DIMSHO
 70
           1
  9
$DIMPOST
  1

  9
$DIMAPOST
  1

  9
$DIMALT
 70
           0
  9
$DIMALTD
 70
           2
  9
$DIMALTF
 40
25.4
  9
$DIMLFAC
 40
1.0
  9
$DIMTOFL
 70
           0
  9
$DIMTVP
 40
0.0
  9
$DIMTIX
 70
           0
  9
$DIMSOXD
 70
           0
  9
$DIMSAH
 70
           0
  9
$DIMBLK1
  1

  9
$DIMBLK2
  1

  9
$DIMSTYLE
  2
STANDARD
  9
$DIMCLRD
 70
           0
  9
$DIMCLRE
 70
           0
  9
$DIMCLRT
 70
           0
  9
$DIMTFAC
 40
1.0
  9
$DIMGAP
 40
0.09
  9
$DIMJUST
 70
           0
  9
$DIMSD1
 70
           0
  9
$DIMSD2
 70
           0
  9
$DIMTOLJ
 70
           1
  9
$DIMTZIN
 70
           0
  9
$DIMALTZ
 70
           0
  9
$DIMALTTZ
 70
           0
  9
$DIMFIT
 70
           3
  9
$DIMUPT
 70
           0
  9
$DIMUNIT
 70
           2
  9
$DIMDEC
 70
           4
  9
$DIMTDEC
 70
           4
  9
$DIMALTU
 70
           2
  9
$DIMALTTD
 70
           2
  9
$DIMTXSTY
  7
STANDARD
  9
$DIMAUNIT
 70
           0
  9
$LUNITS
 70
           2
  9
$LUPREC
 70
           4
  9
$SKETCHINC
 40
0.1
  9
$FILLETRAD
 40
0.0
  9
$AUNITS
 70
           0
  9
$AUPREC
 70
           0
  9
$MENU
  1
acad
  9
$ELEVATION
 40
0.0
  9
$PELEVATION
 40
0.0
  9
$THICKNESS
 40
0.0
  9
$LIMCHECK
 70
           0
  9
$BLIPMODE
 70
           1
  9
$CHAMFERA
 40
0.0
  9
$CHAMFERB
 40
0.0
  9
$CHAMFERC
 40
0.0
  9
$CHAMFERD
 40
0.0
  9
$SKPOLY
 70
           0
  9
$TDCREATE
 40
0.000000000
  9
$TDUPDATE
 40
0.000000000
  9
$TDINDWG
 40
0.0000000000
  9
$TDUSRTIMER
 40
0.0000000000
  9
$USRTIMER
 70
           1
  9
$ANGBASE
 50
0.0
  9
$ANGDIR
 70
           0
  9
$PDMODE
 70
           0
  9
$PDSIZE
 40
0.0
  9
$PLINEWID
 40
0.0
  9
$COORDS
 70
           0
  9
$SPLFRAME
 70
           0
  9
$SPLINETYPE
 70
           6
  9
$SPLINESEGS
 70
           8
  9
$ATTDIA
 70
           0
  9
$ATTREQ
 70
           1
  9
$HANDLING
 70
           1
  9
$HANDSEED
  5
5A2
  9
$SURFTAB1
 70
           6
  9
$SURFTAB2
 70
           6
  9
$SURFTYPE
 70
           6
  9
$SURFU
 70
           6
  9
$SURFV
 70
           6
  9
$UCSNAME
  2

  9
$UCSORG
 10
0.0
 20
0.0
 30
0.0
  9
$UCSXDIR
 10
1.0
 20
0.0
 30
0.0
  9
$UCSYDIR
 10
0.0
 20
1.0
 30
0.0
  9
$PUCSNAME
  2

  9
$PUCSORG
 10
0.0
 20
0.0
 30
0.0
  9
$PUCSXDIR
 10
1.0
 20
0.0
 30
0.0
  9
$PUCSYDIR
 10
0.0
 20
1.0
 30
0.0
  9
$USERI1
 70
           0
  9
$USERI2
 70
           0
  9
$USERI3
 70
           0
  9
$USERI4
 70
           0
  9
$USERI5
 70
           0
  9
$USERR1
 40
0.0
  9
$USERR2
 40
0.0
  9
$USERR3
 40
0.0
  9
$USERR4
 40
0.0
  9
$USERR5
 40
0.0
  9
$WORLDVIEW
 70
           1
  9
$SHADEDGE
 70
           3
  9
$SHADEDIF
 70
          70
  9
$TILEMODE
 70
           1
  9
$MAXACTVP
 70
          16
  9
$PINSBASE
 10
0.0
 20
0.0
 30
0.0
  9
$PLIMCHECK
 70
           0
  9
$PEXTMIN
 10
1.000000000000E+20
 20
1.000000000000E+20
 30
1.000000000000E+20
  9
$PEXTMAX
 10
-1.000000000000E+20
 20
-1.000000000000E+20
 30
-1.000000000000E+20
  9
$PLIMMIN
 10
0.0
 20
0.0
  9
$PLIMMAX
 10
12.0
 20
9.0
  9
$UNITMODE
 70
           0
  9
$VISRETAIN
 70
           0
  9
$PLINEGEN
 70
           1
  9
$PSLTSCALE
 70
           0
  9
$TREEDEPTH
 70
        3020
  9
$PICKSTYLE
 70
           1
  9
$CMLSTYLE
  2
STANDARD
  9
$CMLJUST
 70
           0
  9
$CMLSCALE
 40
1.0
  9
$PROXYGRAPHICS
 70
           0
  9
$MEASUREMENT
 70
           1
  0
ENDSEC
  0
SECTION
  2
CLASSES
  0
CLASS
  1
LWPOLYLINE
  2
AcDbPolyline
  3
"AutoCAD"
 90
        0
280
           0
281
           1
  0
CLASS
  1
IMAGE
  2
AcDbRasterImage
  3
ISM
 90
      127
280
           0
281
           1
  0
CLASS
  1
OLE2FRAME
  2
AcDbOle2Frame
  3
""
 90
        0
280
           0
281
           1
  0
CLASS
  1
HATCH
  2
AcDbHatch
  3
"ACAD_SEDONA"
 90
        0
280
           0
281
           1
  0
CLASS
  1
DICTIONARYVAR
  2
AcDbDictionaryVar
  3
"AutoCAD"
 90
        0
280
           0
281
           0
  0
CLASS
  1
RASTERVARIABLES
  2
AcDbRasterVariables
  3
ISM
 90
        0
280
           0
281
           0
  0
CLASS
  1
IMAGEDEF
  2
AcDbRasterImageDef
  3
ISM
 90
        0
280
           0
281
           0
  0
CLASS
  1
IMAGEDEF_REACTOR
  2
AcDbRasterImageDefReactor
  3
ISM
 90
        1
280
           0
281
           0
  0
CLASS
  1
IDBUFFER
  2
AcDbIdBuffer
  3
"Acad"
 90
        0
280
           0
281
           0
  0
CLASS
  1
SPATIAL_FILTER
  2
AcDbSpatialFilter
  3
"Acad"
 90
        0
280
           0
281
           0
  0
CLASS
  1
XRECORD
  2
AcDbXrecord
  3
"<Built In>"
 90
        0
280
           0
281
           0
  0
CLASS
  1
SORTENTSTABLE
  2
AcDbSortentsTable
  3
"AutoCAD"
 90
        0
280
           0
281
           0
  0
CLASS
  1
LAYER_INDEX
  2
AcDbLayerIndex
  3
"Acad"
 90
        0
280
           0
281
           0
  0
CLASS
  1
SPATIAL_INDEX
  2
AcDbSpatialIndex
  3
"Acad"
 90
        0
280
           0
281
           0
  0
CLASS
  1
OBJECT_PTR
  2
CAseDLPNTableRecord
  3
"ASE-LPNTableRecord"
 90
        1
280
           0
281
           0
  0
CLASS
  1
LAYOUT
  2
AcDbLayout
  3
"AutoCAD 2000"
 90
        1
280
           0
281
           0
  0
CLASS
  1
PLOTSETTINGS
  2
AcDbPlotSettings
  3
"AutoCAD 2000"
 90
        1
280
           0
281
           0
  0
CLASS
  1
ACDBDICTIONARYWDFLT
  2
AcDbDictionaryWithDefault
  3
"AutoCAD 2000"
 90
        1
280
           0
281
           0
  0
CLASS
  1
ACDBPLACEHOLDER
  2
AcDbPlaceHolder
  3
"AutoCAD 2000"
 90
        1
280
           0
281
           0
  0
CLASS
  1
VBA_PROJECT
  2
AcDbVbaProject
  3
"acadvba"
 90
        1
280
           0
281
           0
  0
CLASS
  1
WIPEOUT
  2
AcDbWipeout
  3
WipeOut|AutoCAD Express Tool|expresstools@autodesk.com
 90
      127
280
           0
281
           1
  0
CLASS
  1
WIPEOUTVARIABLES
  2
AcDbWipeoutVariables
  3
WipeOut|AutoCAD Express Tool|expresstools@autodesk.com
 90
        0
280
           0
281
           0
  0
CLASS
  1
RTEXT
  2
RText
  3
RText|AutoCAD Express Tool|expresstools@autodesk.com
 90
        0
280
           0
281
           1
  0
CLASS
  1
ARCALIGNEDTEXT
  2
AcDbArcAlignedText
  3
ATEXT|AutoCAD Express Tool|expresstools@autodesk.com
 90
        0
280
           0
281
           1
  0
ENDSEC
  0
SECTION
  2
TABLES
  0
TABLE
  2
VPORT
  5
7
100
AcDbSymbolTable
 70
           1
  0
VPORT
  5
15
100
AcDbSymbolTableRecord
100
AcDbViewportTableRecord
  2
*ACTIVE
 70
           0
 10
0.0
 20
0.0
 11
1.0
 21
1.0
 12
6.591288
 22
4.579184
 13
0.0
 23
0.0
 14
1.0
 24
1.0
 15
0.0
 25
0.0
 16
0.0
 26
0.0
 36
1.0
 17
0.0
 27
0.0
 37
0.0
 40
9.158369
 41
0.688564
 42
50.0
 43
0.0
 44
0.0
 50
0.0
 51
0.0
 71
           0
 72
         100
 73
           1
 74
           1
 75
           0
 76
           0
 77
           0
 78
           0
  0
ENDTAB
  0
TABLE
  2
LTYPE
  5
4
100
AcDbSymbolTable
 70
          10
  0
LTYPE
  5
11
100
AcDbSymbolTableRecord
100
AcDbLinetypeTableRecord
  2
BYBLOCK
 70
          64
  3

 72
          65
 73
           0
 40
0.0
  0
LTYPE
  5
12
100
AcDbSymbolTableRecord
100
AcDbLinetypeTableRecord
  2
BYLAYER
 70
          64
  3

 72
          65
 73
           0
 40
0.0
  0
LTYPE
  5
13
100
AcDbSymbolTableRecord
100
AcDbLinetypeTableRecord
  2
CONTINUOUS
 70
          64
  3
Solid line
 72
          65
 73
           0
 40
0.0
  0
LTYPE
  5
1D
100
AcDbSymbolTableRecord
100
AcDbLinetypeTableRecord
  2
DASHED
 70
          64
  3
Dashed
 72
          65
 73
           2
 40
15.0
 49
12.0
 74
           0
 49
-3.0
 74
           0
  0
LTYPE
  5
1E
100
AcDbSymbolTableRecord
100
AcDbLinetypeTableRecord
  2
DOTTED
 70
          64
  3
Dotted
 72
          65
 73
           2
 40
3.5
 49
0.5
 74
           0
 49
-3.0
 74
           0
  0
LTYPE
  5
1F
100
AcDbSymbolTableRecord
100
AcDbLinetypeTableRecord
  2
DOT_CENTER
 70
          64
  3
Dot_Center
 72
          65
 73
           4
 40
2.0
 49
1.25
 74
           0
 49
-0.25
 74
           0
 49
0.25
 74
           0
 49
-0.25
 74
           0
  0
LTYPE
  5
20
100
AcDbSymbolTableRecord
100
AcDbLinetypeTableRecord
  2
LONG_DASHED
 70
          64
  3
Long_Dashed
 72
          65
 73
           2
 40
2.0
 49
1.5
 74
           0
 49
-0.5
 74
           0
  0
LTYPE
  5
21
100
AcDbSymbolTableRecord
100
AcDbLinetypeTableRecord
  2
DASH_CENTER
 70
          64
  3
Dash_Center
 72
          65
 73
           4
 40
36.0
 49
24.0
 74
           0
 49
-3.0
 74
           0
 49
6.0
 74
           0
 49
-3.0
 74
           0
  0
LTYPE
  5
22
100
AcDbSymbolTableRecord
100
AcDbLinetypeTableRecord
  2
PHANTOM
 70
          64
  3
Phantom
 72
          65
 73
           6
 40
2.5
 49
1.25
 74
           0
 49
-0.25
 74
           0
 49
0.25
 74
           0
 49
-0.25
 74
           0
 49
0.25
 74
           0
 49
-0.25
 74
           0
  0
LTYPE
  5
23
100
AcDbSymbolTableRecord
100
AcDbLinetypeTableRecord
  2
CENTER_DASH_DASH
 70
          64
  3
Center_Dash_Dash
 72
          65
 73
           6
 40
22.0
 49
12.0
 74
           0
 49
-3.0
 74
           0
 49
0.5
 74
           0
 49
-3.0
 74
           0
 49
0.5
 74
           0
 49
-3.0
 74
           0
  0
ENDTAB
  0
TABLE
  2
LAYER
  5
2
100
AcDbSymbolTable
 70
           2
  0
LAYER
  5
14
100
AcDbSymbolTableRecord
100
AcDbLayerTableRecord
  2
0
 70
           0
 62
           7
  6
CONTINUOUS
  0
LAYER
  5
24
100
AcDbSymbolTableRecord
100
AcDbLayerTableRecord
  2
1
 70
           0
 62
           7
  6
CONTINUOUS
  0
ENDTAB
  0
TABLE
  2
STYLE
  5
3
100
AcDbSymbolTable
 70
           2
  0
STYLE
  5
17
100
AcDbSymbolTableRecord
100
AcDbTextStyleTableRecord
  2
STANDARD
 70
           0
 40
0.0
 41
1.0
 50
0.0
 71
           0
 42
0.0
  3
txt
  4

  0
STYLE
  5
59F
100
AcDbSymbolTableRecord
100
AcDbTextStyleTableRecord
  2
CONVERTER_1
 70
           0
 40
0.0
 41
0.72
 50
0.0
 71
           0
 42
0.0
  3
MS Gothic
  4

1001
ACAD
1000
MS Gothic
1071
    32785
  0
ENDTAB
  0
TABLE
  2
VIEW
  5
5
100
AcDbSymbolTable
 70
           0
  0
ENDTAB
  0
TABLE
  2
UCS
  5
6
100
AcDbSymbolTable
 70
           0
  0
ENDTAB
  0
TABLE
  2
APPID
  5
8
100
AcDbSymbolTable
 70
           1
  0
APPID
  5
16
100
AcDbSymbolTableRecord
100
AcDbRegAppTableRecord
  2
ACAD
 70
           0
  0
ENDTAB
  0
TABLE
  2
DIMSTYLE
  5
9
100
AcDbSymbolTable
 70
           1
  0
DIMSTYLE
105
18
100
AcDbSymbolTableRecord
100
AcDbDimStyleTableRecord
  2
STANDARD
 70
           0
  3

  4

  5

  6

  7

 40
1.0
 41
0.18
 42
0.0625
 43
0.38
 44
0.18
 45
0.0
 46
0.0
 47
0.0
 48
0.0
 71
           0
 72
           0
 73
           1
 74
           1
 75
           0
 76
           0
 77
           0
 78
           0
140
0.18
141
0.09
142
0.0
143
25.4
144
1.0
145
0.0
146
1.0
147
0.09
170
           0
171
           2
172
           0
173
           0
174
           0
175
           0
176
           0
177
           0
178
           0
270
           2
271
           4
272
           4
273
           2
274
           2
275
           0
280
           0
281
           0
282
           0
283
           1
284
           0
285
           0
286
           0
287
           0
288
           0
340
17
  0
ENDTAB
  0
TABLE
  2
BLOCK_RECORD
  5
1
100
AcDbSymbolTable
 70
           0
  0
BLOCK_RECORD
  5
A
100
AcDbSymbolTableRecord
100
AcDbBlockTableRecord
  2
*MODEL_SPACE
  0
BLOCK_RECORD
  5
B
100
AcDbSymbolTableRecord
100
AcDbBlockTableRecord
  2
*PAPER_SPACE
  0
ENDTAB
  0
ENDSEC
  0
SECTION
  2
BLOCKS
  0
BLOCK
  5
D
100
AcDbEntity
  8
0
100
AcDbBlockBegin
  2
*MODEL_SPACE
 70
           0
 10
0.0
 20
0.0
 30
0.0
  3
*MODEL_SPACE
  1

  0
ENDBLK
  5
E
100
AcDbEntity
  8
0
100
AcDbBlockEnd
  0
BLOCK
  5
F
100
AcDbEntity
 67
           1
  8
0
100
AcDbBlockBegin
  2
*PAPER_SPACE
 70
           0
 10
0.0
 20
0.0
 30
0.0
  3
*PAPER_SPACE
  1

  0
ENDBLK
  5
10
100
AcDbEntity
 67
           1
  8
0
100
AcDbBlockEnd
  0
ENDSEC
  0
SECTION
  2
ENTITIES
  0
MTEXT
  5
5A0
100
AcDbEntity
  8
1
 62
           1
100
AcDbMText
 10
788.937880612511
 20
5006.437206999414
 30
0.0
 40
5.416531022316
 41
0.0
 71
           5
 72
           1
  1
折りたたみ棚受け金具
  7
CONVERTER_1
 11
1.0
 21
0.0
 31
0.0
  0
ARC
  5
59E
100
AcDbEntity
  8
1
  6
CONTINUOUS
 62
           3
100
AcDbCircle
 10
790.963474903805
 20
4945.17872581908
 40
1.5
100
AcDbArc
 50
0.0
 51
90.0
  0
ARC
  5
59D
100
AcDbEntity
  8
1
  6
CONTINUOUS
 62
           3
100
AcDbCircle
 10
790.963474903805
 20
4927.17872581908
 40
1.5
100
AcDbArc
 50
-90.0
 51
0.0
  0
ARC
  5
59C
100
AcDbEntity
  8
1
  6
CONTINUOUS
 62
           3
100
AcDbCircle
 10
764.963474903805
 20
4948.67872581908
 40
1.5
100
AcDbArc
 50
90.0
 51
180.0
  0
ARC
  5
59B
100
AcDbEntity
  8
1
  6
CONTINUOUS
 62
           3
100
AcDbCircle
 10
764.963474903805
 20
4923.67872581908
 40
1.5
100
AcDbArc
 50
180.0
 51
-90.0
  0
CIRCLE
  5
59A
100
AcDbEntity
  8
0
  6
CONTINUOUS
 62
           1
100
AcDbCircle
 10
783.463474903805
 20
4609.62358055756
 40
3.0
  0
CIRCLE
  5
599
100
AcDbEntity
  8
0
  6
CONTINUOUS
 62
           3
100
AcDbCircle
 10
783.463474903805
 20
4609.62358055756
 40
5.0
  0
CIRCLE
  5
598
100
AcDbEntity
  8
0
  6
CONTINUOUS
 62
           3
100
AcDbCircle
 10
775.463474903805
 20
4742.507223267961
 40
5.0
  0
CIRCLE
  5
597
100
AcDbEntity
  8
0
  6
CONTINUOUS
 62
           1
100
AcDbCircle
 10
775.463474903805
 20
4742.507223267961
 40
3.0
  0
CIRCLE
  5
596
100
AcDbEntity
  8
0
  6
CONTINUOUS
 62
           3
100
AcDbCircle
 10
774.463474903805
 20
4815.007223267961
 40
5.0
  0
CIRCLE
  5
595
100
AcDbEntity
  8
0
  6
CONTINUOUS
 62
           1
100
AcDbCircle
 10
774.463474903805
 20
4815.007223267961
 40
3.0
  0
CIRCLE
  5
594
100
AcDbEntity
  8
0
  6
CONTINUOUS
 62
           3
100
AcDbCircle
 10
1174.999811519772
 20
4936.17872581908
 40
5.0
  0
CIRCLE
  5
593
100
AcDbEntity
  8
0
  6
CONTINUOUS
 62
           3
100
AcDbCircle
 10
1246.499811519772
 20
4936.17872581908
 40
2.6
  0
CIRCLE
  5
592
100
AcDbEntity
  8
0
  6
CONTINUOUS
 62
           3
100
AcDbCircle
 10
1187.999811519772
 20
4936.17872581908
 40
2.6
  0
CIRCLE
  5
591
100
AcDbEntity
  8
0
  6
CONTINUOUS
 62
           1
100
AcDbCircle
 10
1259.760499813172
 20
4824.007223267961
 40
3.0
  0
CIRCLE
  5
590
100
AcDbEntity
  8
0
  6
CONTINUOUS
 62
           3
100
AcDbCircle
 10
1259.760499813172
 20
4824.007223267961
 40
5.0
  0
CIRCLE
  5
58F
100
AcDbEntity
  8
0
  6
CONTINUOUS
 62
           3
100
AcDbCircle
 10
1154.499811519772
 20
4742.507223267961
 40
5.0
  0
CIRCLE
  5
58E
100
AcDbEntity
  8
0
  6
CONTINUOUS
 62
           1
100
AcDbCircle
 10
1154.499811519772
 20
4742.507223267961
 40
3.0
  0
CIRCLE
  5
58D
100
AcDbEntity
  8
0
  6
CONTINUOUS
 62
           3
100
AcDbCircle
 10
1310.499811519772
 20
4814.507223267961
 40
3.0
  0
CIRCLE
  5
58C
100
AcDbEntity
  8
0
  6
CONTINUOUS
 62
           1
100
AcDbCircle
 10
1310.499811519772
 20
4814.507223267961
 40
2.0
  0
CIRCLE
  5
58B
100
AcDbEntity
  8
0
  6
CONTINUOUS
 62
           3
100
AcDbCircle
 10
1153.499811519772
 20
4815.007223267961
 40
5.0
  0
CIRCLE
  5
58A
100
AcDbEntity
  8
0
  6
CONTINUOUS
 62
           1
100
AcDbCircle
 10
1153.499811519772
 20
4815.007223267961
 40
3.0
  0
CIRCLE
  5
589
100
AcDbEntity
  8
0
  6
CONTINUOUS
 62
           3
100
AcDbCircle
 10
868.381009849367
 20
4793.507223267961
 40
5.0
  0
CIRCLE
  5
588
100
AcDbEntity
  8
0
  6
CONTINUOUS
 62
           3
100
AcDbCircle
 10
868.381009312497
 20
4780.507223267961
 40
2.6
  0
CIRCLE
  5
587
100
AcDbEntity
  8
1
  6
CONTINUOUS
 62
           3
100
AcDbCircle
 10
868.381009312497
 20
4722.007223267961
 40
2.6
  0
ARC
  5
586
100
AcDbEntity
  8
1
  6
DOTTED
 62
           1
100
AcDbCircle
 10
1135.921989831694
 20
4936.17872581908
 40
11.078882323479
100
AcDbArc
 50
-17.141108988585
 51
17.141108988585
  0
ARC
  5
585
100
AcDbEntity
  8
1
  6
DOTTED
 62
           1
100
AcDbCircle
 10
1144.175507954952
 20
4936.17872581908
 40
4.013210916808
100
AcDbArc
 50
-85.349739041402
 51
-54.451290852212
  0
ARC
  5
584
100
AcDbEntity
  8
1
  6
DOTTED
 62
           1
100
AcDbCircle
 10
1144.175507954952
 20
4936.178725819082
 40
4.013210916213
100
AcDbArc
 50
54.451290852219
 51
85.349739041402
  0
ARC
  5
583
100
AcDbEntity
  8
1
  6
DOTTED
 62
           1
100
AcDbCircle
 10
1451.234170517452
 20
4831.507223267961
 40
4.013210916212
100
AcDbArc
 50
-35.548709147769
 51
-4.650260958601
  0
ARC
  5
582
100
AcDbEntity
  8
1
  6
DOTTED
 62
           1
100
AcDbCircle
 10
1451.23417051745
 20
4831.507223267961
 40
4.013210916808
100
AcDbArc
 50
-175.349739041398
 51
-144.451290852221
  0
ARC
  5
581
100
AcDbEntity
  8
1
  6
DOTTED
 62
           1
100
AcDbCircle
 10
1451.23417051745
 20
4839.760741391219
 40
11.078882323478
100
AcDbArc
 50
-107.141108988585
 51
-72.858891011409
  0
ARC
  5
580
100
AcDbEntity
  8
1
  6
DOTTED
 62
           1
100
AcDbCircle
 10
1034.523570463226
 20
4831.332587468181
 40
4.013210916211
100
AcDbArc
 50
-35.548709147777
 51
-4.650260958601
  0
ARC
  5
57F
100
AcDbEntity
  8
1
  6
DOTTED
 62
           1
100
AcDbCircle
 10
1034.523570463224
 20
4831.332587468181
 40
4.013210916808
100
AcDbArc
 50
-175.349739041398
 51
-144.451290852221
  0
ARC
  5
57E
100
AcDbEntity
  8
1
  6
DOTTED
 62
           1
100
AcDbCircle
 10
1034.523570463224
 20
4839.586105591439
 40
11.078882323478
100
AcDbArc
 50
-107.141108988585
 51
-72.858891011404
  0
ARC
  5
57D
100
AcDbEntity
  8
0
  6
CONTINUOUS
 62
           3
100
AcDbCircle
 10
1439.951662364661
 20
4756.066818135112
 40
3.162320248051
100
AcDbArc
 50
-96.107304320796
 51
-75.67348198641
  0
ARC
  5
57C
100
AcDbEntity
  8
0
  6
CONTINUOUS
 62
           3
100
AcDbCircle
 10
1439.951662364661
 20
4756.066818135112
 40
3.162320248051
100
AcDbArc
 50
-75.67348198641
 51
-54.338155767093
  0
ARC
  5
57B
100
AcDbEntity
  8
0
  6
CONTINUOUS
 62
           3
100
AcDbCircle
 10
1462.516678670461
 20
4756.066818135112
 40
3.162320248051
100
AcDbArc
 50
-144.30706246821
 51
-125.644037440471
  0
ARC
  5
57A
100
AcDbEntity
  8
0
  6
CONTINUOUS
 62
           3
100
AcDbCircle
 10
776.463474903805
 20
4817.507223267961
 40
6.0
100
AcDbArc
 50
0.0
 51
90.0
  0
ARC
  5
579
100
AcDbEntity
  8
0
  6
CONTINUOUS
 62
           3
100
AcDbCircle
 10
772.801644687005
 20
4595.007223267961
 40
1.0
100
AcDbArc
 50
90.0
 51
180.0
  0
ARC
  5
578
100
AcDbEntity
  8
0
  6
CONTINUOUS
 62
           3
100
AcDbCircle
 10
772.801644687005
 20
4588.007223267961
 40
1.0
100
AcDbArc
 50
180.0
 51
-90.0
  0
ARC
  5
577
100
AcDbEntity
  8
0
  6
CONTINUOUS
 62
           3
100
AcDbCircle
 10
771.463474903805
 20
4588.007223267961
 40
1.0
100
AcDbArc
 50
180.0
 51
-90.0
  0
ARC
  5
576
100
AcDbEntity
  8
0
  6
CONTINUOUS
 62
           3
100
AcDbCircle
 10
771.463474903805
 20
4595.007223267961
 40
1.0
100
AcDbArc
 50
90.0
 51
180.0
  0
ARC
  5
575
100
AcDbEntity
  8
0
  6
CONTINUOUS
 62
           3
100
AcDbCircle
 10
783.463474903805
 20
4710.507223267961
 40
2.65
100
AcDbArc
 50
0.0
 51
106.449971359529
  0
ARC
  5
574
100
AcDbEntity
  8
0
  6
CONTINUOUS
 62
           3
100
AcDbCircle
 10
772.463474903805
 20
4581.007223267961
 40
5.0
100
AcDbArc
 50
180.0
 51
-90.0
  0
ARC
  5
573
100
AcDbEntity
  8
0
  6
CONTINUOUS
 62
           3
100
AcDbCircle
 10
777.919704677605
 20
4745.549226887761
 40
2.999999999999
100
AcDbArc
 50
45.969690541702
 51
90.969690541698
  0
ARC
  5
572
100
AcDbEntity
  8
0
  6
CONTINUOUS
 62
           3
100
AcDbCircle
 10
773.512170779605
 20
4744.474482138361
 40
3.999999999999
100
AcDbArc
 50
90.969690541706
 51
145.969690541706
  0
ARC
  5
571
100
AcDbEntity
  8
0
  6
CONTINUOUS
 62
           3
100
AcDbCircle
 10
769.041308759605
 20
4737.853714197561
 40
3.999999999999
100
AcDbArc
 50
145.969690541708
 51
-179.030309458287
  0
ARC
  5
570
100
AcDbEntity
  8
0
  6
CONTINUOUS
 62
           3
100
AcDbCircle
 10
771.180841464605
 20
4611.44793376276
 40
4.0
100
AcDbArc
 50
-179.030309458314
 51
-124.030309458303
  0
ARC
  5
56F
100
AcDbEntity
  8
0
  6
CONTINUOUS
 62
           3
100
AcDbCircle
 10
777.006482778005
 20
4607.514003632161
 40
3.999999999999
100
AcDbArc
 50
-124.030309458303
 51
-89.030309458294
  0
ARC
  5
56E
100
AcDbEntity
  8
0
  6
CONTINUOUS
 62
           3
100
AcDbCircle
 10
783.463474903805
 20
4609.62358055756
 40
5.999999999999
100
AcDbArc
 50
-89.030309458305
 51
0.969690541703
  0
ARC
  5
56D
100
AcDbEntity
  8
0
  6
CONTINUOUS
 62
           3
100
AcDbCircle
 10
786.041002346405
 20
4634.60907838596
 40
3.000000000001
100
AcDbArc
 50
0.96969054172
 51
55.969690541701
  0
ARC
  5
56C
100
AcDbEntity
  8
0
  6
CONTINUOUS
 62
           3
100
AcDbCircle
 10
786.928750524805
 20
4641.249493162961
 40
3.000000000001
100
AcDbArc
 50
-179.030309458314
 51
-124.030309458324
  0
ARC
  5
56B
100
AcDbEntity
  8
0
  6
CONTINUOUS
 62
           3
100
AcDbCircle
 10
779.183197213805
 20
4744.327793972961
 40
3.000000000001
100
AcDbArc
 50
0.969690541686
 51
45.969690541702
  0
ARC
  5
56A
100
AcDbEntity
  8
0
  6
CONTINUOUS
 62
           3
100
AcDbCircle
 10
1143.999811519772
 20
4946.87872581908
 40
1.5
100
AcDbArc
 50
90.0
 51
180.0
  0
ARC
  5
569
100
AcDbEntity
  8
0
  6
CONTINUOUS
 62
           3
100
AcDbCircle
 10
1143.999811519772
 20
4925.47872581908
 40
1.5
100
AcDbArc
 50
180.0
 51
-90.0
  0
ARC
  5
568
100
AcDbEntity
  8
0
  6
CONTINUOUS
 62
           3
100
AcDbCircle
 10
1383.499811519772
 20
4935.17872581908
 40
2.6
100
AcDbArc
 50
180.0
 51
0.0
  0
ARC
  5
567
100
AcDbEntity
  8
0
  6
CONTINUOUS
 62
           3
100
AcDbCircle
 10
1383.499811519772
 20
4937.17872581908
 40
2.6
100
AcDbArc
 50
0.0
 51
180.0
  0
ARC
  5
566
100
AcDbEntity
  8
0
  6
CONTINUOUS
 62
           3
100
AcDbCircle
 10
1255.260499813172
 20
4925.17872581908
 40
0.5
100
AcDbArc
 50
90.0
 51
180.0
  0
ARC
  5
565
100
AcDbEntity
  8
0
  6
CONTINUOUS
 62
           3
100
AcDbCircle
 10
1264.260499813172
 20
4925.17872581908
 40
0.5
100
AcDbArc
 50
0.0
 51
90.0
  0
ARC
  5
564
100
AcDbEntity
  8
0
  6
CONTINUOUS
 62
           3
100
AcDbCircle
 10
1255.260499813172
 20
4924.27872581908
 40
0.5
100
AcDbArc
 50
180.0
 51
-90.0
  0
ARC
  5
563
100
AcDbEntity
  8
0
  6
CONTINUOUS
 62
           3
100
AcDbCircle
 10
1264.260499813172
 20
4924.27872581908
 40
0.5
100
AcDbArc
 50
-90.0
 51
0.0
  0
ARC
  5
562
100
AcDbEntity
  8
0
  6
CONTINUOUS
 62
           3
100
AcDbCircle
 10
1264.260499813172
 20
4948.078725819081
 40
0.5
100
AcDbArc
 50
0.0
 51
90.0
  0
ARC
  5
561
100
AcDbEntity
  8
0
  6
CONTINUOUS
 62
           3
100
AcDbCircle
 10
1255.260499813172
 20
4948.078725819081
 40
0.5
100
AcDbArc
 50
90.0
 51
180.0
  0
ARC
  5
560
100
AcDbEntity
  8
0
  6
CONTINUOUS
 62
           3
100
AcDbCircle
 10
1264.260499813172
 20
4947.17872581908
 40
0.5
100
AcDbArc
 50
-90.0
 51
0.0
  0
ARC
  5
55F
100
AcDbEntity
  8
0
  6
CONTINUOUS
 62
           3
100
AcDbCircle
 10
1255.260499813172
 20
4947.17872581908
 40
0.5
100
AcDbArc
 50
180.0
 51
-90.0
  0
ARC
  5
55E
100
AcDbEntity
  8
0
  6
CONTINUOUS
 62
           3
100
AcDbCircle
 10
1035.523570463222
 20
4724.507223267961
 40
2.6
100
AcDbArc
 50
-90.0
 51
90.0
  0
ARC
  5
55D
100
AcDbEntity
  8
0
  6
CONTINUOUS
 62
           3
100
AcDbCircle
 10
1033.523570463222
 20
4724.507223267961
 40
2.6
100
AcDbArc
 50
90.0
 51
-90.0
  0
ARC
  5
55C
100
AcDbEntity
  8
0
  6
CONTINUOUS
 62
           3
100
AcDbCircle
 10
1033.523570463222
 20
4793.507223267961
 40
2.6
100
AcDbArc
 50
90.0
 51
-90.0
  0
ARC
  5
55B
100
AcDbEntity
  8
0
  6
CONTINUOUS
 62
           3
100
AcDbCircle
 10
1035.523570463222
 20
4793.507223267961
 40
2.6
100
AcDbArc
 50
-90.0
 51
90.0
  0
ARC
  5
55A
100
AcDbEntity
  8
0
  6
CONTINUOUS
 62
           3
100
AcDbCircle
 10
1043.523570463222
 20
4831.507223267961
 40
1.5
100
AcDbArc
 50
0.0
 51
90.0
  0
ARC
  5
559
100
AcDbEntity
  8
0
  6
CONTINUOUS
 62
           3
100
AcDbCircle
 10
1025.523570463222
 20
4831.507223267961
 40
1.5
100
AcDbArc
 50
90.0
 51
180.0
  0
ARC
  5
558
100
AcDbEntity
  8
0
  6
CONTINUOUS
 62
           3
100
AcDbCircle
 10
1046.423570463222
 20
4828.507223267961
 40
0.5
100
AcDbArc
 50
0.0
 51
90.0
  0
ARC
  5
557
100
AcDbEntity
  8
0
  6
CONTINUOUS
 62
           3
100
AcDbCircle
 10
1045.523570463222
 20
4828.507223267961
 40
0.5
100
AcDbArc
 50
90.0
 51
180.0
  0
ARC
  5
556
100
AcDbEntity
  8
0
  6
CONTINUOUS
 62
           3
100
AcDbCircle
 10
1022.623570463222
 20
4828.507223267961
 40
0.5
100
AcDbArc
 50
90.0
 51
180.0
  0
ARC
  5
555
100
AcDbEntity
  8
0
  6
CONTINUOUS
 62
           3
100
AcDbCircle
 10
1023.523570463222
 20
4828.507223267961
 40
0.5
100
AcDbArc
 50
0.0
 51
90.0
  0
ARC
  5
554
100
AcDbEntity
  8
0
  6
CONTINUOUS
 62
           3
100
AcDbCircle
 10
1450.234170517452
 20
4724.507223267961
 40
2.6
100
AcDbArc
 50
90.0
 51
-90.0
  0
ARC
  5
553
100
AcDbEntity
  8
0
  6
CONTINUOUS
 62
           3
100
AcDbCircle
 10
1452.234170517452
 20
4724.507223267961
 40
2.6
100
AcDbArc
 50
-90.0
 51
90.0
  0
ARC
  5
552
100
AcDbEntity
  8
0
  6
CONTINUOUS
 62
           3
100
AcDbCircle
 10
1452.234170517452
 20
4793.507223267961
 40
2.6
100
AcDbArc
 50
-90.0
 51
22.372453389896
  0
ARC
  5
551
100
AcDbEntity
  8
0
  6
CONTINUOUS
 62
           3
100
AcDbCircle
 10
1450.234170517452
 20
4793.507223267961
 40
2.6
100
AcDbArc
 50
157.62754660985
 51
-90.0
  0
ARC
  5
550
100
AcDbEntity
  8
0
  6
CONTINUOUS
 62
           3
100
AcDbCircle
 10
1460.234170517452
 20
4831.507223267961
 40
1.5
100
AcDbArc
 50
0.0
 51
90.0
  0
ARC
  5
54F
100
AcDbEntity
  8
0
  6
CONTINUOUS
 62
           3
100
AcDbCircle
 10
1463.859229494461
 20
4754.300229796112
 40
1.383447857334
100
AcDbArc
 50
-95.186423368838
 51
-6.357158087781
  0
ARC
  5
54E
100
AcDbEntity
  8
0
  6
CONTINUOUS
 62
           3
100
AcDbCircle
 10
1438.609111540461
 20
4754.300229796112
 40
1.383447857332
100
AcDbArc
 50
-173.642841912218
 51
-84.813576631161
  0
ARC
  5
54D
100
AcDbEntity
  8
0
  6
CONTINUOUS
 62
           3
100
AcDbCircle
 10
1438.609111540453
 20
4805.69652426036
 40
1.383447857332
100
AcDbArc
 50
-173.642841912256
 51
-84.813576631154
  0
ARC
  5
54C
100
AcDbEntity
  8
0
  6
CONTINUOUS
 62
           3
100
AcDbCircle
 10
1463.859229494453
 20
4805.69652426036
 40
1.383447857332
100
AcDbArc
 50
-95.186423368845
 51
-6.357158087744
  0
ARC
  5
54B
100
AcDbEntity
  8
0
  6
CONTINUOUS
 62
           3
100
AcDbCircle
 10
1460.391501908052
 20
4807.162095510761
 40
1.618772670856
100
AcDbArc
 50
-104.573974397911
 51
-89.729726898929
  0
ARC
  5
54A
100
AcDbEntity
  8
0
  6
CONTINUOUS
 62
           3
100
AcDbCircle
 10
1439.951662364661
 20
4756.066818135112
 40
3.162320248051
100
AcDbArc
 50
-54.338155767093
 51
-35.69293753179
  0
ARC
  5
549
100
AcDbEntity
  8
0
  6
CONTINUOUS
 62
           3
100
AcDbCircle
 10
1462.516678670461
 20
4756.066818135112
 40
3.162320248049
100
AcDbArc
 50
-125.644037440471
 51
-83.89269567909
  0
ARC
  5
548
100
AcDbEntity
  8
0
  6
CONTINUOUS
 62
           3
100
AcDbCircle
 10
1460.391501908052
 20
4805.937495111561
 40
1.618772670845
100
AcDbArc
 50
-104.573974398008
 51
-89.729726898783
  0
ARC
  5
547
100
AcDbEntity
  8
0
  6
CONTINUOUS
 62
           3
100
AcDbCircle
 10
1458.474304406052
 20
4821.223839920962
 40
0.009867071334
100
AcDbArc
 50
-90.777483107574
 51
-0.799179094974
  0
ARC
  5
546
100
AcDbEntity
  8
0
  6
CONTINUOUS
 62
           3
100
AcDbCircle
 10
1443.994036629052
 20
4821.223839920962
 40
0.009867071332
100
AcDbArc
 50
-179.200820905025
 51
-89.222516892426
  0
ARC
  5
545
100
AcDbEntity
  8
0
  6
CONTINUOUS
 62
           3
100
AcDbCircle
 10
1458.474304406052
 20
4810.127232020561
 40
0.009867071332
100
AcDbArc
 50
-90.777483107717
 51
-0.799179084413
  0
ARC
  5
544
100
AcDbEntity
  8
0
  6
CONTINUOUS
 62
           3
100
AcDbCircle
 10
1443.994036629052
 20
4810.127232020561
 40
0.009867071332
100
AcDbArc
 50
-179.200820915587
 51
-89.222516892282
  0
ARC
  5
543
100
AcDbEntity
  8
0
  6
CONTINUOUS
 62
           3
100
AcDbCircle
 10
1458.494387680452
 20
4796.95546553476
 40
1.489927771226
100
AcDbArc
 50
-90.392908245618
 51
-0.799179094001
  0
ARC
  5
542
100
AcDbEntity
  8
0
  6
CONTINUOUS
 62
           3
100
AcDbCircle
 10
1443.994036629052
 20
4809.178408404561
 40
0.009867071332
100
AcDbArc
 50
-179.200820910306
 51
-89.222516892426
  0
ARC
  5
541
100
AcDbEntity
  8
0
  6
CONTINUOUS
 62
           3
100
AcDbCircle
 10
1458.474304406052
 20
4809.178408404561
 40
0.009867071334
100
AcDbArc
 50
-90.777483107574
 51
-0.799179089694
  0
ARC
  5
540
100
AcDbEntity
  8
0
  6
CONTINUOUS
 62
           3
100
AcDbCircle
 10
1443.973953354452
 20
4796.95546553476
 40
1.489927771228
100
AcDbArc
 50
-179.200820906
 51
-89.607091754391
  0
ARC
  5
53F
100
AcDbEntity
  8
0
  6
CONTINUOUS
 62
           3
100
AcDbCircle
 10
1454.719823646852
 20
4815.951137498762
 40
21.454441331057
100
AcDbArc
 50
-90.217271806643
 51
-79.894705651138
  0
ARC
  5
53E
100
AcDbEntity
  8
0
  6
CONTINUOUS
 62
           3
100
AcDbCircle
 10
1454.719823646852
 20
4817.448527105162
 40
21.454441331053
100
AcDbArc
 50
-93.328486881697
 51
-79.894705651136
  0
ARC
  5
53D
100
AcDbEntity
  8
0
  6
CONTINUOUS
 62
           3
100
AcDbCircle
 10
1447.748517388052
 20
4815.951137498762
 40
21.454441331048
100
AcDbArc
 50
-89.782728193341
 51
-86.671513118302
  0
ARC
  5
53C
100
AcDbEntity
  8
0
  6
CONTINUOUS
 62
           3
100
AcDbCircle
 10
1447.748517388052
 20
4817.448527105162
 40
21.454441331063
100
AcDbArc
 50
-100.10529434886
 51
-86.671513118299
  0
ARC
  5
53B
100
AcDbEntity
  8
0
  6
CONTINUOUS
 62
           3
100
AcDbCircle
 10
1440.234170517452
 20
4828.507223267961
 40
0.5
100
AcDbArc
 50
0.0
 51
90.0
  0
ARC
  5
53A
100
AcDbEntity
  8
0
  6
CONTINUOUS
 62
           3
100
AcDbCircle
 10
1440.234170517452
 20
4819.507223267961
 40
0.5
100
AcDbArc
 50
-90.0
 51
0.0
  0
ARC
  5
539
100
AcDbEntity
  8
0
  6
CONTINUOUS
 62
           3
100
AcDbCircle
 10
1439.334170517452
 20
4828.507223267961
 40
0.5
100
AcDbArc
 50
90.0
 51
180.0
  0
ARC
  5
538
100
AcDbEntity
  8
0
  6
CONTINUOUS
 62
           3
100
AcDbCircle
 10
1439.334170517452
 20
4819.507223267961
 40
0.5
100
AcDbArc
 50
180.0
 51
-90.0
  0
ARC
  5
537
100
AcDbEntity
  8
0
  6
CONTINUOUS
 62
           3
100
AcDbCircle
 10
1463.134170517452
 20
4819.507223267961
 40
0.5
100
AcDbArc
 50
-90.0
 51
0.0
  0
ARC
  5
536
100
AcDbEntity
  8
0
  6
CONTINUOUS
 62
           3
100
AcDbCircle
 10
1463.134170517452
 20
4828.507223267961
 40
0.5
100
AcDbArc
 50
0.0
 51
90.0
  0
ARC
  5
535
100
AcDbEntity
  8
0
  6
CONTINUOUS
 62
           3
100
AcDbCircle
 10
1462.234170517452
 20
4819.507223267961
 40
0.5
100
AcDbArc
 50
180.0
 51
-90.0
  0
ARC
  5
534
100
AcDbEntity
  8
0
  6
CONTINUOUS
 62
           3
100
AcDbCircle
 10
1462.234170517452
 20
4828.507223267961
 40
0.5
100
AcDbArc
 50
90.0
 51
180.0
  0
ARC
  5
533
100
AcDbEntity
  8
0
  6
CONTINUOUS
 62
           3
100
AcDbCircle
 10
1155.499811519772
 20
4817.507223267961
 40
6.0
100
AcDbArc
 50
0.0
 51
90.0
  0
ARC
  5
532
100
AcDbEntity
  8
0
  6
CONTINUOUS
 62
           3
100
AcDbCircle
 10
1145.499811519772
 20
4712.507223267961
 40
4.0
100
AcDbArc
 50
-90.0
 51
0.0
  0
ARC
  5
531
100
AcDbEntity
  8
0
  6
CONTINUOUS
 62
           3
100
AcDbCircle
 10
1154.499811519772
 20
4730.507223267961
 40
5.0
100
AcDbArc
 50
90.0
 51
180.0
  0
ARC
  5
530
100
AcDbEntity
  8
0
  6
CONTINUOUS
 62
           3
100
AcDbCircle
 10
1373.499811519772
 20
4813.345393051161
 40
1.0
100
AcDbArc
 50
180.0
 51
-90.0
  0
ARC
  5
52F
100
AcDbEntity
  8
0
  6
CONTINUOUS
 62
           3
100
AcDbCircle
 10
1380.499811519772
 20
4813.345393051161
 40
1.0
100
AcDbArc
 50
-90.0
 51
0.0
  0
ARC
  5
52E
100
AcDbEntity
  8
0
  6
CONTINUOUS
 62
           3
100
AcDbCircle
 10
1380.499811519772
 20
4812.007223267961
 40
1.0
100
AcDbArc
 50
-90.0
 51
0.0
  0
ARC
  5
52D
100
AcDbEntity
  8
0
  6
CONTINUOUS
 62
           3
100
AcDbCircle
 10
1373.499811519772
 20
4812.007223267961
 40
1.0
100
AcDbArc
 50
180.0
 51
-90.0
  0
ARC
  5
52C
100
AcDbEntity
  8
0
  6
CONTINUOUS
 62
           3
100
AcDbCircle
 10
1359.999811519772
 20
4824.007223267961
 40
2.65
100
AcDbArc
 50
-90.0
 51
90.0
  0
ARC
  5
52B
100
AcDbEntity
  8
0
  6
CONTINUOUS
 62
           3
100
AcDbCircle
 10
1387.499811519772
 20
4813.007223267961
 40
5.0
100
AcDbArc
 50
-90.0
 51
0.0
  0
ARC
  5
52A
100
AcDbEntity
  8
0
  6
CONTINUOUS
 62
           3
100
AcDbCircle
 10
1218.999811519772
 20
4811.007223267961
 40
3.0
100
AcDbArc
 50
-90.0
 51
0.0
  0
ARC
  5
529
100
AcDbEntity
  8
0
  6
CONTINUOUS
 62
           3
100
AcDbCircle
 10
1224.999811519772
 20
4817.007223267961
 40
3.0
100
AcDbArc
 50
90.0
 51
180.0
  0
ARC
  5
528
100
AcDbEntity
  8
0
  6
CONTINUOUS
 62
           3
100
AcDbCircle
 10
1230.999811519772
 20
4817.007223267961
 40
3.0
100
AcDbArc
 50
0.0
 51
90.0
  0
ARC
  5
527
100
AcDbEntity
  8
0
  6
CONTINUOUS
 62
           3
100
AcDbCircle
 10
1236.999811519772
 20
4815.007223267961
 40
3.0
100
AcDbArc
 50
180.0
 51
-136.940675446799
  0
ARC
  5
526
100
AcDbEntity
  8
0
  6
CONTINUOUS
 62
           3
100
AcDbCircle
 10
1150.602644680972
 20
4742.82177271456
 40
3.0
100
AcDbArc
 50
170.273946749906
 51
-144.726053250105
  0
ARC
  5
525
100
AcDbEntity
  8
0
  6
CONTINUOUS
 62
           3
100
AcDbCircle
 10
1153.974475124172
 20
4739.786613608561
 40
4.000000000001
100
AcDbArc
 50
-144.726053250097
 51
-89.726053250088
  0
ARC
  5
524
100
AcDbEntity
  8
0
  6
CONTINUOUS
 62
           3
100
AcDbCircle
 10
1161.963324622372
 20
4739.824810767961
 40
4.0
100
AcDbArc
 50
-89.726053250088
 51
-54.726053250099
  0
ARC
  5
523
100
AcDbEntity
  8
0
  6
CONTINUOUS
 62
           3
100
AcDbCircle
 10
1265.175818732772
 20
4812.832892423561
 40
4.0
100
AcDbArc
 50
-54.726053250101
 51
0.273946749912
  0
ARC
  5
522
100
AcDbEntity
  8
0
  6
CONTINUOUS
 62
           3
100
AcDbCircle
 10
1265.142208892772
 20
4819.862314402961
 40
3.999999999999
100
AcDbArc
 50
0.273946749912
 51
35.273946749903
  0
ARC
  5
521
100
AcDbEntity
  8
0
  6
CONTINUOUS
 62
           3
100
AcDbCircle
 10
1259.760499813172
 20
4824.007223267961
 40
6.0
100
AcDbArc
 50
35.273946749892
 51
125.273946749892
  0
ARC
  5
520
100
AcDbEntity
  8
0
  6
CONTINUOUS
 62
           3
100
AcDbCircle
 10
1237.668406630172
 20
4812.054894279561
 40
3.0
100
AcDbArc
 50
125.273946749892
 51
-179.726053250079
  0
ARC
  5
51F
100
AcDbEntity
  8
0
  6
CONTINUOUS
 62
           3
100
AcDbCircle
 10
1231.682725600572
 20
4809.04577017936
 40
3.0
100
AcDbArc
 50
-54.726053250108
 51
0.27394674992
  0
ARC
  5
51E
100
AcDbEntity
  8
0
  6
CONTINUOUS
 62
           3
100
AcDbCircle
 10
1150.899528703972
 20
4744.553873067162
 40
3.0
100
AcDbArc
 50
125.273946749892
 51
170.273946749923
  0
ARC
  5
51D
100
AcDbEntity
  8
0
  6
CONTINUOUS
 62
           3
100
AcDbCircle
 10
1362.922824307172
 20
4797.41138262276
 40
0.5
100
AcDbArc
 50
-103.380710716198
 51
-93.380710716257
  0
ARC
  5
51C
100
AcDbEntity
  8
0
  6
CONTINUOUS
 62
           3
100
AcDbCircle
 10
1362.922824307172
 20
4797.41138262276
 40
1.999999999999
100
AcDbArc
 50
-103.380710716185
 51
-93.380710716204
  0
ARC
  5
51B
100
AcDbEntity
  8
0
  6
CONTINUOUS
 62
           3
100
AcDbCircle
 10
1303.380994407972
 20
4853.719114869162
 40
33.500000000002
100
AcDbArc
 50
-122.435734859397
 51
-104.977671783098
  0
ARC
  5
51A
100
AcDbEntity
  8
0
  6
CONTINUOUS
 62
           3
100
AcDbCircle
 10
1283.804099307772
 20
4822.91334952836
 40
3.000000000001
100
AcDbArc
 50
57.56426514061
 51
76.619289283788
  0
ARC
  5
519
100
AcDbEntity
  8
0
  6
CONTINUOUS
 62
           3
100
AcDbCircle
 10
1361.898182770772
 20
4805.878351224161
 40
3.0
100
AcDbArc
 50
-13.380710716182
 51
45.204332355102
  0
ARC
  5
518
100
AcDbEntity
  8
0
  6
CONTINUOUS
 62
           3
100
AcDbCircle
 10
1149.263913134972
 20
4734.507223267961
 40
2.0
100
AcDbArc
 50
-69.116597792522
 51
-5.639928990028
  0
ARC
  5
517
100
AcDbEntity
  8
0
  6
CONTINUOUS
 62
           3
100
AcDbCircle
 10
880.381009312497
 20
4614.225121465962
 40
0.5
100
AcDbArc
 50
0.0
 51
90.0
  0
ARC
  5
516
100
AcDbEntity
  8
0
  6
CONTINUOUS
 62
           3
100
AcDbCircle
 10
880.381009312497
 20
4605.22512146596
 40
0.5
100
AcDbArc
 50
-90.0
 51
0.0
  0
ARC
  5
515
100
AcDbEntity
  8
0
  6
CONTINUOUS
 62
           3
100
AcDbCircle
 10
879.481009312497
 20
4614.225121465962
 40
0.5
100
AcDbArc
 50
90.0
 51
180.0
  0
ARC
  5
514
100
AcDbEntity
  8
0
  6
CONTINUOUS
 62
           3
100
AcDbCircle
 10
879.481009312497
 20
4605.22512146596
 40
0.5
100
AcDbArc
 50
180.0
 51
-90.0
  0
ARC
  5
513
100
AcDbEntity
  8
0
  6
CONTINUOUS
 62
           3
100
AcDbCircle
 10
857.281009312497
 20
4605.12358055756
 40
0.5
100
AcDbArc
 50
-90.0
 51
0.0
  0
ARC
  5
512
100
AcDbEntity
  8
0
  6
CONTINUOUS
 62
           3
100
AcDbCircle
 10
857.281009312497
 20
4614.123580557562
 40
0.5
100
AcDbArc
 50
0.0
 51
90.0
  0
ARC
  5
511
100
AcDbEntity
  8
0
  6
CONTINUOUS
 62
           3
100
AcDbCircle
 10
856.381009312497
 20
4605.12358055756
 40
0.5
100
AcDbArc
 50
180.0
 51
-90.0
  0
ARC
  5
510
100
AcDbEntity
  8
0
  6
CONTINUOUS
 62
           3
100
AcDbCircle
 10
856.381009312497
 20
4614.123580557562
 40
0.5
100
AcDbArc
 50
90.0
 51
180.0
  0
ARC
  5
50F
100
AcDbEntity
  8
0
  6
CONTINUOUS
 62
           3
100
AcDbCircle
 10
858.176408609229
 20
4759.007223267961
 40
0.5
100
AcDbArc
 50
180.0
 51
-126.213699315644
  0
ARC
  5
50E
100
AcDbEntity
  8
0
  6
CONTINUOUS
 62
           3
100
AcDbCircle
 10
858.176408609229
 20
4761.007223267961
 40
0.5
100
AcDbArc
 50
126.213699315644
 51
180.0
  0
ARC
  5
50D
100
AcDbEntity
  8
0
  6
CONTINUOUS
 62
           3
100
AcDbCircle
 10
856.762064844097
 20
4704.33416678596
 40
3.000372326938
100
AcDbArc
 50
68.103246744181
 51
90.000106368598
  0
ARC
  5
50C
100
AcDbEntity
  8
0
  6
CONTINUOUS
 62
           3
100
AcDbCircle
 10
879.999951894097
 20
4704.334181607361
 40
3.00035750555
100
AcDbArc
 50
89.99985760021
 51
111.896828183726
  0
ARC
  5
50B
100
AcDbEntity
  8
0
  6
CONTINUOUS
 62
           3
100
AcDbCircle
 10
869.381009312497
 20
4585.007223267961
 40
2.6
100
AcDbArc
 50
-90.0
 51
90.0
  0
ARC
  5
50A
100
AcDbEntity
  8
0
  6
CONTINUOUS
 62
           3
100
AcDbCircle
 10
867.381009312497
 20
4585.007223267961
 40
2.599999999999
100
AcDbArc
 50
90.0
 51
-90.0
  0
ARC
  5
509
100
AcDbEntity
  8
0
  6
CONTINUOUS
 62
           3
100
AcDbCircle
 10
867.381009312497
 20
4793.509540313761
 40
2.599999999999
100
AcDbArc
 50
90.0
 51
-90.0
  0
ARC
  5
508
100
AcDbEntity
  8
0
  6
CONTINUOUS
 62
           3
100
AcDbCircle
 10
869.381009312497
 20
4793.509540313761
 40
2.6
100
AcDbArc
 50
-90.0
 51
90.0
  0
ARC
  5
507
100
AcDbEntity
  8
0
  6
CONTINUOUS
 62
           3
100
AcDbCircle
 10
869.331009312497
 20
4724.507223267961
 40
2.6
100
AcDbArc
 50
-90.0
 51
-51.758185715845
  0
ARC
  5
506
100
AcDbEntity
  8
0
  6
CONTINUOUS
 62
           3
100
AcDbCircle
 10
867.331009312497
 20
4724.507223267961
 40
2.6
100
AcDbArc
 50
-125.787908261229
 51
-90.0
  0
ARC
  5
505
100
AcDbEntity
  8
1
  6
DOTTED
 62
           1
100
AcDbCircle
 10
1144.174447319552
 20
4724.507223267963
 40
4.013210916212
100
AcDbArc
 50
54.45129085223
 51
85.349739041399
  0
ARC
  5
504
100
AcDbEntity
  8
1
  6
DOTTED
 62
           1
100
AcDbCircle
 10
1144.174447319552
 20
4724.507223267961
 40
4.013210916808
100
AcDbArc
 50
-85.349739041399
 51
-54.451290852222
  0
ARC
  5
503
100
AcDbEntity
  8
1
  6
DOTTED
 62
           1
100
AcDbCircle
 10
1135.920929196294
 20
4724.507223267961
 40
11.078882323478
100
AcDbArc
 50
-17.141108988587
 51
17.141108988587
  0
ARC
  5
502
100
AcDbEntity
  8
1
  6
DOTTED
 62
           1
100
AcDbCircle
 10
1144.174447319552
 20
4793.507223267963
 40
4.013210916212
100
AcDbArc
 50
54.45129085223
 51
85.349739041399
  0
ARC
  5
501
100
AcDbEntity
  8
1
  6
DOTTED
 62
           1
100
AcDbCircle
 10
1144.174447319552
 20
4793.507223267961
 40
4.013210916808
100
AcDbArc
 50
-85.349739041399
 51
-54.451290852222
  0
ARC
  5
500
100
AcDbEntity
  8
1
  6
DOTTED
 62
           1
100
AcDbCircle
 10
1135.920929196294
 20
4793.507223267961
 40
11.078882323478
100
AcDbArc
 50
-17.141108988587
 51
17.141108988587
  0
ARC
  5
4FF
100
AcDbEntity
  8
1
  6
DOTTED
 62
           1
100
AcDbCircle
 10
1187.999811519774
 20
4839.586105591439
 40
11.078882323478
100
AcDbArc
 50
-107.141108988586
 51
-72.858891011405
  0
ARC
  5
4FE
100
AcDbEntity
  8
1
  6
DOTTED
 62
           1
100
AcDbCircle
 10
1187.999811519774
 20
4831.332587468181
 40
4.013210916808
100
AcDbArc
 50
-175.349739041398
 51
-144.451290852223
  0
ARC
  5
4FD
100
AcDbEntity
  8
1
  6
DOTTED
 62
           1
100
AcDbCircle
 10
1187.999811519776
 20
4831.332587468181
 40
4.013210916211
100
AcDbArc
 50
-35.548709147777
 51
-4.650260958601
  0
ARC
  5
4FC
100
AcDbEntity
  8
1
  6
DOTTED
 62
           1
100
AcDbCircle
 10
1246.499811519774
 20
4839.586105591439
 40
11.078882323478
100
AcDbArc
 50
-107.141108988586
 51
-72.858891011405
  0
ARC
  5
4FB
100
AcDbEntity
  8
1
  6
DOTTED
 62
           1
100
AcDbCircle
 10
1246.499811519774
 20
4831.332587468181
 40
4.013210916808
100
AcDbArc
 50
-175.349739041398
 51
-144.451290852223
  0
ARC
  5
4FA
100
AcDbEntity
  8
1
  6
DOTTED
 62
           1
100
AcDbCircle
 10
1246.499811519776
 20
4831.332587468181
 40
4.013210916211
100
AcDbArc
 50
-35.548709147777
 51
-4.650260958601
  0
ARC
  5
4F9
100
AcDbEntity
  8
1
  6
DOTTED
 62
           1
100
AcDbCircle
 10
1383.499811519774
 20
4839.586105591439
 40
11.078882323478
100
AcDbArc
 50
-107.141108988586
 51
-72.85889101141
  0
ARC
  5
4F8
100
AcDbEntity
  8
1
  6
DOTTED
 62
           1
100
AcDbCircle
 10
1383.499811519774
 20
4831.332587468181
 40
4.013210916808
100
AcDbArc
 50
-175.349739041398
 51
-144.451290852223
  0
ARC
  5
4F7
100
AcDbEntity
  8
1
  6
DOTTED
 62
           1
100
AcDbCircle
 10
1383.499811519776
 20
4831.332587468181
 40
4.013210916212
100
AcDbArc
 50
-35.548709147769
 51
-4.650260958601
  0
ARC
  5
4F6
100
AcDbEntity
  8
0
  6
CONTINUOUS
 62
           3
100
AcDbCircle
 10
1442.234170517452
 20
4831.507223267961
 40
1.5
100
AcDbArc
 50
90.0
 51
180.0
  0
ARC
  5
4F5
100
AcDbEntity
  8
0
  6
CONTINUOUS
 62
           3
100
AcDbCircle
 10
1447.748517388052
 20
4815.951137498762
 40
21.454441331048
100
AcDbArc
 50
-100.105294348867
 51
-89.782728193341
  0
ARC
  5
4F4
100
AcDbEntity
  8
0
  6
CONTINUOUS
 62
           3
100
AcDbCircle
 10
1454.719823646852
 20
4815.951137498762
 40
21.454441331058
100
AcDbArc
 50
-93.328486881696
 51
-90.217271806643
  0
ARC
  5
4F3
100
AcDbEntity
  8
0
  6
CONTINUOUS
 62
           3
100
AcDbCircle
 10
764.963474903805
 20
4925.47872581908
 40
1.5
100
AcDbArc
 50
180.0
 51
-90.0
  0
ARC
  5
4F2
100
AcDbEntity
  8
0
  6
CONTINUOUS
 62
           3
100
AcDbCircle
 10
764.963474903805
 20
4946.87872581908
 40
1.5
100
AcDbArc
 50
90.0
 51
180.0
  0
LINE
  5
4F1
100
AcDbEntity
  8
1
  6
DOTTED
 62
           1
100
AcDbLine
 10
1144.500872155172
 20
4940.178725819082
 11
1144.000872155172
 21
4940.17872581908
  0
LINE
  5
4F0
100
AcDbEntity
  8
1
  6
DOTTED
 62
           1
100
AcDbLine
 10
1144.000872155172
 20
4932.17872581908
 11
1144.500872155172
 21
4932.17872581908
  0
LINE
  5
4EF
100
AcDbEntity
  8
1
  6
CONTINUOUS
 62
           1
100
AcDbLine
 10
1144.000872155172
 20
4937.478725819081
 11
1132.436897949591
 21
4937.478725819081
  0
LINE
  5
4EE
100
AcDbEntity
  8
1
  6
CONTINUOUS
 62
           1
100
AcDbLine
 10
1132.436897949591
 20
4937.478725819081
 11
1128.000872155172
 21
4936.178725819079
  0
LINE
  5
4ED
100
AcDbEntity
  8
1
  6
CONTINUOUS
 62
           1
100
AcDbLine
 10
1128.000872155172
 20
4936.178725819079
 11
1132.436897949591
 21
4934.878725819078
  0
LINE
  5
4EC
100
AcDbEntity
  8
1
  6
CONTINUOUS
 62
           1
100
AcDbLine
 10
1132.436897949591
 20
4934.878725819078
 11
1144.000872155172
 21
4934.878725819078
  0
LINE
  5
4EB
100
AcDbEntity
  8
1
  6
CONTINUOUS
 62
           1
100
AcDbLine
 10
1142.01975478437
 20
4938.17872581908
 11
1143.36734402676
 21
4934.17872581908
  0
LINE
  5
4EA
100
AcDbEntity
  8
1
  6
CONTINUOUS
 62
           1
100
AcDbLine
 10
1140.0432905622
 20
4938.17872581908
 11
1141.39087980459
 21
4934.17872581908
  0
LINE
  5
4E9
100
AcDbEntity
  8
1
  6
CONTINUOUS
 62
           1
100
AcDbLine
 10
1138.066826340031
 20
4938.17872581908
 11
1139.41441558242
 21
4934.17872581908
  0
LINE
  5
4E8
100
AcDbEntity
  8
1
  6
CONTINUOUS
 62
           1
100
AcDbLine
 10
1136.09036211786
 20
4938.17872581908
 11
1137.43795136025
 21
4934.17872581908
  0
LINE
  5
4E7
100
AcDbEntity
  8
1
  6
CONTINUOUS
 62
           1
100
AcDbLine
 10
1134.11389789569
 20
4938.17872581908
 11
1135.46148713808
 21
4934.17872581908
  0
LINE
  5
4E6
100
AcDbEntity
  8
1
  6
CONTINUOUS
 62
           1
100
AcDbLine
 10
1132.137433673521
 20
4938.17872581908
 11
1133.48502291591
 21
4934.17872581908
  0
LINE
  5
4E5
100
AcDbEntity
  8
1
  6
CONTINUOUS
 62
           1
100
AcDbLine
 10
1130.372286859542
 20
4937.55148006334
 11
1131.329237017252
 21
4934.710999811323
  0
LINE
  5
4E4
100
AcDbEntity
  8
1
  6
DOTTED
 62
           1
100
AcDbLine
 10
1455.234170517452
 20
4831.181859067741
 11
1455.234170517451
 21
4831.681859067742
  0
LINE
  5
4E3
100
AcDbEntity
  8
1
  6
DOTTED
 62
           1
100
AcDbLine
 10
1447.23417051745
 20
4831.681859067741
 11
1447.23417051745
 21
4831.181859067741
  0
LINE
  5
4E2
100
AcDbEntity
  8
1
  6
CONTINUOUS
 62
           1
100
AcDbLine
 10
1452.534170517451
 20
4831.681859067741
 11
1452.534170517451
 21
4843.245833273323
  0
LINE
  5
4E1
100
AcDbEntity
  8
1
  6
CONTINUOUS
 62
           1
100
AcDbLine
 10
1452.534170517451
 20
4843.245833273323
 11
1451.23417051745
 21
4847.681859067741
  0
LINE
  5
4E0
100
AcDbEntity
  8
1
  6
CONTINUOUS
 62
           1
100
AcDbLine
 10
1451.23417051745
 20
4847.681859067741
 11
1449.934170517448
 21
4843.245833273323
  0
LINE
  5
4DF
100
AcDbEntity
  8
1
  6
CONTINUOUS
 62
           1
100
AcDbLine
 10
1449.934170517448
 20
4843.245833273323
 11
1449.934170517448
 21
4831.681859067741
  0
LINE
  5
4DE
100
AcDbEntity
  8
1
  6
CONTINUOUS
 62
           1
100
AcDbLine
 10
1453.23417051745
 20
4833.662976438543
 11
1449.23417051745
 21
4832.315387196153
  0
LINE
  5
4DD
100
AcDbEntity
  8
1
  6
CONTINUOUS
 62
           1
100
AcDbLine
 10
1453.23417051745
 20
4835.639440660713
 11
1449.23417051745
 21
4834.291851418324
  0
LINE
  5
4DC
100
AcDbEntity
  8
1
  6
CONTINUOUS
 62
           1
100
AcDbLine
 10
1453.23417051745
 20
4837.615904882883
 11
1449.23417051745
 21
4836.268315640494
  0
LINE
  5
4DB
100
AcDbEntity
  8
1
  6
CONTINUOUS
 62
           1
100
AcDbLine
 10
1453.23417051745
 20
4839.592369105054
 11
1449.23417051745
 21
4838.244779862664
  0
LINE
  5
4DA
100
AcDbEntity
  8
1
  6
CONTINUOUS
 62
           1
100
AcDbLine
 10
1453.23417051745
 20
4841.568833327224
 11
1449.23417051745
 21
4840.221244084833
  0
LINE
  5
4D9
100
AcDbEntity
  8
1
  6
CONTINUOUS
 62
           1
100
AcDbLine
 10
1453.23417051745
 20
4843.545297549394
 11
1449.23417051745
 21
4842.197708307003
  0
LINE
  5
4D8
100
AcDbEntity
  8
1
  6
CONTINUOUS
 62
           1
100
AcDbLine
 10
1452.606924761711
 20
4845.310444363371
 11
1449.766444509694
 21
4844.353494205661
  0
LINE
  5
4D7
100
AcDbEntity
  8
1
  6
DOTTED
 62
           1
100
AcDbLine
 10
1038.523570463226
 20
4831.007223267961
 11
1038.523570463224
 21
4831.507223267962
  0
LINE
  5
4D6
100
AcDbEntity
  8
1
  6
DOTTED
 62
           1
100
AcDbLine
 10
1030.523570463224
 20
4831.507223267961
 11
1030.523570463224
 21
4831.007223267961
  0
LINE
  5
4D5
100
AcDbEntity
  8
1
  6
CONTINUOUS
 62
           1
100
AcDbLine
 10
1035.823570463224
 20
4831.507223267961
 11
1035.823570463224
 21
4843.071197473543
  0
LINE
  5
4D4
100
AcDbEntity
  8
1
  6
CONTINUOUS
 62
           1
100
AcDbLine
 10
1035.823570463224
 20
4843.071197473543
 11
1034.523570463224
 21
4847.507223267961
  0
LINE
  5
4D3
100
AcDbEntity
  8
1
  6
CONTINUOUS
 62
           1
100
AcDbLine
 10
1034.523570463222
 20
4847.507223267961
 11
1033.223570463222
 21
4843.071197473543
  0
LINE
  5
4D2
100
AcDbEntity
  8
1
  6
CONTINUOUS
 62
           1
100
AcDbLine
 10
1033.223570463222
 20
4843.071197473543
 11
1033.223570463222
 21
4831.507223267961
  0
LINE
  5
4D1
100
AcDbEntity
  8
1
  6
CONTINUOUS
 62
           1
100
AcDbLine
 10
1036.523570463224
 20
4833.488340638764
 11
1032.523570463224
 21
4832.140751396373
  0
LINE
  5
4D0
100
AcDbEntity
  8
1
  6
CONTINUOUS
 62
           1
100
AcDbLine
 10
1036.523570463224
 20
4835.464804860933
 11
1032.523570463224
 21
4834.117215618544
  0
LINE
  5
4CF
100
AcDbEntity
  8
1
  6
CONTINUOUS
 62
           1
100
AcDbLine
 10
1036.523570463224
 20
4837.441269083103
 11
1032.523570463224
 21
4836.093679840714
  0
LINE
  5
4CE
100
AcDbEntity
  8
1
  6
CONTINUOUS
 62
           1
100
AcDbLine
 10
1036.523570463224
 20
4839.417733305274
 11
1032.523570463224
 21
4838.070144062884
  0
LINE
  5
4CD
100
AcDbEntity
  8
1
  6
CONTINUOUS
 62
           1
100
AcDbLine
 10
1036.523570463224
 20
4841.394197527444
 11
1032.523570463224
 21
4840.046608285054
  0
LINE
  5
4CC
100
AcDbEntity
  8
1
  6
CONTINUOUS
 62
           1
100
AcDbLine
 10
1036.523570463224
 20
4843.370661749614
 11
1032.523570463224
 21
4842.023072507223
  0
LINE
  5
4CB
100
AcDbEntity
  8
1
  6
CONTINUOUS
 62
           1
100
AcDbLine
 10
1035.896324707485
 20
4845.135808563591
 11
1033.055844455467
 21
4844.178858405881
  0
LINE
  5
4CA
100
AcDbEntity
  8
0
  6
CONTINUOUS
 62
           3
100
AcDbLine
 10
1443.579569814252
 20
4740.007223267961
 11
1443.579569814252
 21
4747.507223267961
  0
LINE
  5
4C9
100
AcDbEntity
  8
0
  6
CONTINUOUS
 62
           3
100
AcDbLine
 10
1443.984170517452
 20
4795.465572795985
 11
1443.984170517452
 21
4796.32690914001
  0
LINE
  5
4C8
100
AcDbEntity
  8
0
  6
CONTINUOUS
 62
           3
100
AcDbLine
 10
1443.984170517452
 20
4796.32690914001
 11
1443.984170517452
 21
4805.184090041761
  0
LINE
  5
4C7
100
AcDbEntity
  8
0
  6
CONTINUOUS
 62
           3
100
AcDbLine
 10
1458.484170517452
 20
4795.465572795986
 11
1458.484170517452
 21
4794.829519533616
  0
LINE
  5
4C6
100
AcDbEntity
  8
0
  6
CONTINUOUS
 62
           3
100
AcDbLine
 10
1458.484170517452
 20
4796.32690914002
 11
1458.484170517452
 21
4795.465572795986
  0
LINE
  5
4C5
100
AcDbEntity
  8
0
  6
CONTINUOUS
 62
           3
100
AcDbLine
 10
1438.734170517451
 20
4740.007223267961
 11
1439.234170517452
 21
4740.007223267961
  0
LINE
  5
4C4
100
AcDbEntity
  8
0
  6
CONTINUOUS
 62
           3
100
AcDbLine
 10
1439.234170517452
 20
4745.007223267961
 11
1438.734170517451
 21
4745.007223267961
  0
LINE
  5
4C3
100
AcDbEntity
  8
0
  6
CONTINUOUS
 62
           3
100
AcDbLine
 10
1463.734170517452
 20
4740.007223267961
 11
1463.734170517452
 21
4736.55920970316
  0
LINE
  5
4C2
100
AcDbEntity
  8
0
  6
CONTINUOUS
 62
           3
100
AcDbLine
 10
1463.734170517452
 20
4745.007223267961
 11
1463.734170517452
 21
4740.007223267961
  0
LINE
  5
4C1
100
AcDbEntity
  8
0
  6
CONTINUOUS
 62
           3
100
AcDbLine
 10
1439.234170517451
 20
4752.922445986513
 11
1439.615220478861
 21
4752.922445986513
  0
LINE
  5
4C0
100
AcDbEntity
  8
0
  6
CONTINUOUS
 62
           3
100
AcDbLine
 10
1440.734170517452
 20
4745.007223267961
 11
1440.734170517452
 21
4740.007223267961
  0
LINE
  5
4BF
100
AcDbEntity
  8
0
  6
CONTINUOUS
 62
           3
100
AcDbLine
 10
1440.734170517452
 20
4740.007223267961
 11
1440.734170517452
 21
4735.507223267961
  0
LINE
  5
4BE
100
AcDbEntity
  8
0
  6
CONTINUOUS
 62
           3
100
AcDbLine
 10
1461.734170517452
 20
4708.507223267961
 11
1440.73417051745
 21
4708.507223267961
  0
LINE
  5
4BD
100
AcDbEntity
  8
0
  6
CONTINUOUS
 62
           3
100
AcDbLine
 10
1440.73417051745
 20
4708.507223267961
 11
1439.234170517452
 21
4708.507223267961
  0
LINE
  5
4BC
100
AcDbEntity
  8
0
  6
CONTINUOUS
 62
           3
100
AcDbLine
 10
1440.734170517451
 20
4753.002841904452
 11
1440.734170517452
 21
4745.007223267961
  0
LINE
  5
4BB
100
AcDbEntity
  8
0
  6
CONTINUOUS
 62
           3
100
AcDbLine
 10
1440.734170517452
 20
4735.507223267961
 11
1440.73417051745
 21
4708.507223267961
  0
LINE
  5
4BA
100
AcDbEntity
  8
0
  6
CONTINUOUS
 62
           3
100
AcDbLine
 10
1439.234170517452
 20
4735.507223267961
 11
1439.234170517451
 21
4752.922445986513
  0
LINE
  5
4B9
100
AcDbEntity
  8
0
  6
CONTINUOUS
 62
           3
100
AcDbLine
 10
1439.234170517452
 20
4708.507223267961
 11
1439.234170517452
 21
4730.507223267961
  0
LINE
  5
4B8
100
AcDbEntity
  8
0
  6
CONTINUOUS
 62
           3
100
AcDbLine
 10
1440.734170517452
 20
4735.507223267961
 11
1439.234170517452
 21
4735.507223267961
  0
LINE
  5
4B7
100
AcDbEntity
  8
0
  6
CONTINUOUS
 62
           3
100
AcDbLine
 10
1439.234170517452
 20
4730.507223267961
 11
1439.234170517452
 21
4735.507223267961
  0
LINE
  5
4B6
100
AcDbEntity
  8
0
  6
CONTINUOUS
 62
           3
100
AcDbLine
 10
1458.281591543652
 20
4748.007223267961
 11
1458.281591543652
 21
4749.007223267961
  0
LINE
  5
4B5
100
AcDbEntity
  8
0
  6
CONTINUOUS
 62
           3
100
AcDbLine
 10
1458.286395223652
 20
4749.104768428961
 11
1458.281591543652
 21
4749.007223267961
  0
LINE
  5
4B4
100
AcDbEntity
  8
0
  6
CONTINUOUS
 62
           3
100
AcDbLine
 10
1458.300621660652
 20
4749.198564984161
 11
1458.286395223652
 21
4749.104768428961
  0
LINE
  5
4B3
100
AcDbEntity
  8
0
  6
CONTINUOUS
 62
           3
100
AcDbLine
 10
1458.323724140652
 20
4749.285008384561
 11
1458.300621660652
 21
4749.198564984161
  0
LINE
  5
4B2
100
AcDbEntity
  8
0
  6
CONTINUOUS
 62
           3
100
AcDbLine
 10
1458.354814848452
 20
4749.360776658561
 11
1458.323724140652
 21
4749.285008384561
  0
LINE
  5
4B1
100
AcDbEntity
  8
0
  6
CONTINUOUS
 62
           3
100
AcDbLine
 10
1458.392698985452
 20
4749.422958074161
 11
1458.354814848452
 21
4749.360776658561
  0
LINE
  5
4B0
100
AcDbEntity
  8
0
  6
CONTINUOUS
 62
           3
100
AcDbLine
 10
1458.435920685652
 20
4749.469163034361
 11
1458.392698985452
 21
4749.422958074161
  0
LINE
  5
4AF
100
AcDbEntity
  8
0
  6
CONTINUOUS
 62
           3
100
AcDbLine
 10
1458.482818963252
 20
4749.497615908162
 11
1458.435920685652
 21
4749.469163034361
  0
LINE
  5
4AE
100
AcDbEntity
  8
0
  6
CONTINUOUS
 62
           3
100
AcDbLine
 10
1458.531591543652
 20
4749.507223267961
 11
1458.482818963252
 21
4749.497615908162
  0
LINE
  5
4AD
100
AcDbEntity
  8
0
  6
CONTINUOUS
 62
           3
100
AcDbLine
 10
1458.482818963252
 20
4747.516830627761
 11
1458.531591543652
 21
4747.507223267961
  0
LINE
  5
4AC
100
AcDbEntity
  8
0
  6
CONTINUOUS
 62
           3
100
AcDbLine
 10
1458.435920685652
 20
4747.54528350176
 11
1458.482818963252
 21
4747.516830627761
  0
LINE
  5
4AB
100
AcDbEntity
  8
0
  6
CONTINUOUS
 62
           3
100
AcDbLine
 10
1458.392698985452
 20
4747.591488461962
 11
1458.435920685652
 21
4747.54528350176
  0
LINE
  5
4AA
100
AcDbEntity
  8
0
  6
CONTINUOUS
 62
           3
100
AcDbLine
 10
1458.354814848452
 20
4747.653669877362
 11
1458.392698985452
 21
4747.591488461962
  0
LINE
  5
4A9
100
AcDbEntity
  8
0
  6
CONTINUOUS
 62
           3
100
AcDbLine
 10
1458.323724140652
 20
4747.72943815156
 11
1458.354814848452
 21
4747.653669877362
  0
LINE
  5
4A8
100
AcDbEntity
  8
0
  6
CONTINUOUS
 62
           3
100
AcDbLine
 10
1458.300621660652
 20
4747.815881551962
 11
1458.323724140652
 21
4747.72943815156
  0
LINE
  5
4A7
100
AcDbEntity
  8
0
  6
CONTINUOUS
 62
           3
100
AcDbLine
 10
1458.286395223652
 20
4747.90967810696
 11
1458.300621660652
 21
4747.815881551962
  0
LINE
  5
4A6
100
AcDbEntity
  8
0
  6
CONTINUOUS
 62
           3
100
AcDbLine
 10
1458.281591543652
 20
4748.007223267961
 11
1458.286395223652
 21
4747.90967810696
  0
LINE
  5
4A5
100
AcDbEntity
  8
0
  6
CONTINUOUS
 62
           3
100
AcDbLine
 10
1457.457319900652
 20
4756.663614339289
 11
1457.251317483461
 21
4756.787463316512
  0
LINE
  5
4A4
100
AcDbEntity
  8
0
  6
CONTINUOUS
 62
           3
100
AcDbLine
 10
1458.163612875861
 20
4756.238989891712
 11
1458.070155455252
 21
4756.295176639975
  0
LINE
  5
4A3
100
AcDbEntity
  8
0
  6
CONTINUOUS
 62
           3
100
AcDbLine
 10
1458.070155455252
 20
4756.295176639975
 11
1457.457319900652
 21
4756.663614339289
  0
LINE
  5
4A2
100
AcDbEntity
  8
0
  6
CONTINUOUS
 62
           3
100
AcDbLine
 10
1445.001819727652
 20
4756.658082439159
 11
1444.388984173252
 21
4756.289644739964
  0
LINE
  5
4A1
100
AcDbEntity
  8
0
  6
CONTINUOUS
 62
           3
100
AcDbLine
 10
1444.388984173252
 20
4756.289644739964
 11
1444.304728159061
 21
4756.238989891712
  0
LINE
  5
4A0
100
AcDbEntity
  8
1
  6
CONTINUOUS
 62
           3
100
AcDbLine
 10
1463.734170517452
 20
4736.55920970316
 11
1465.234170517452
 21
4736.55920970316
  0
LINE
  5
49F
100
AcDbEntity
  8
1
  6
CONTINUOUS
 62
           3
100
AcDbLine
 10
1437.234170517452
 20
4736.55920970316
 11
1438.734170517452
 21
4736.55920970316
  0
LINE
  5
49E
100
AcDbEntity
  8
0
  6
CONTINUOUS
 62
           3
100
AcDbLine
 10
782.377293288005
 20
4741.41218201276
 11
782.243885200605
 21
4740.767672691161
  0
LINE
  5
49D
100
AcDbEntity
  8
0
  6
CONTINUOUS
 62
           3
100
AcDbLine
 10
782.463474903805
 20
4742.507223267961
 11
782.377293288005
 21
4741.41218201276
  0
LINE
  5
49C
100
AcDbEntity
  8
0
  6
CONTINUOUS
 62
           3
100
AcDbLine
 10
764.963474903805
 20
4823.507223267961
 11
763.463474903805
 21
4823.507223267961
  0
LINE
  5
49B
100
AcDbEntity
  8
0
  6
CONTINUOUS
 62
           3
100
AcDbLine
 10
764.963474903805
 20
4708.507223267961
 11
763.463474903805
 21
4708.507223267961
  0
LINE
  5
49A
100
AcDbEntity
  8
0
  6
CONTINUOUS
 62
           3
100
AcDbLine
 10
763.463474903805
 20
4708.507223267961
 11
763.463474903805
 21
4823.507223267961
  0
LINE
  5
499
100
AcDbEntity
  8
0
  6
CONTINUOUS
 62
           3
100
AcDbLine
 10
782.463474903805
 20
4742.507223267961
 11
782.463474903805
 21
4817.507223267961
  0
LINE
  5
498
100
AcDbEntity
  8
0
  6
CONTINUOUS
 62
           3
100
AcDbLine
 10
765.537451855405
 20
4708.507223267961
 11
764.963474903805
 21
4708.507223267961
  0
LINE
  5
497
100
AcDbEntity
  8
0
  6
CONTINUOUS
 62
           3
100
AcDbLine
 10
776.463474903805
 20
4823.507223267961
 11
764.963474903805
 21
4823.507223267961
  0
LINE
  5
496
100
AcDbEntity
  8
0
  6
CONTINUOUS
 62
           3
100
AcDbLine
 10
771.801644687005
 20
4588.007223267961
 11
771.801644687005
 21
4595.007223267961
  0
LINE
  5
495
100
AcDbEntity
  8
0
  6
CONTINUOUS
 62
           3
100
AcDbLine
 10
773.783911058405
 20
4587.007223267961
 11
773.783911058405
 21
4596.007223267961
  0
LINE
  5
494
100
AcDbEntity
  8
0
  6
CONTINUOUS
 62
           3
100
AcDbLine
 10
792.463474903805
 20
4576.007223267961
 11
790.963474903805
 21
4576.007223267961
  0
LINE
  5
493
100
AcDbEntity
  8
0
  6
CONTINUOUS
 62
           3
100
AcDbLine
 10
792.463474903805
 20
4823.507223267961
 11
790.963474903805
 21
4823.507223267961
  0
LINE
  5
492
100
AcDbEntity
  8
0
  6
CONTINUOUS
 62
           3
100
AcDbLine
 10
792.463474903805
 20
4576.007223267961
 11
792.463474903805
 21
4823.507223267961
  0
LINE
  5
491
100
AcDbEntity
  8
0
  6
CONTINUOUS
 62
           3
100
AcDbLine
 10
776.463474903805
 20
4596.007223267961
 11
771.463474903805
 21
4596.007223267961
  0
LINE
  5
490
100
AcDbEntity
  8
0
  6
CONTINUOUS
 62
           3
100
AcDbLine
 10
776.463474903805
 20
4587.007223267961
 11
776.463474903805
 21
4596.007223267961
  0
LINE
  5
48F
100
AcDbEntity
  8
0
  6
CONTINUOUS
 62
           3
100
AcDbLine
 10
771.463474903805
 20
4587.007223267961
 11
776.463474903805
 21
4587.007223267961
  0
LINE
  5
48E
100
AcDbEntity
  8
0
  6
CONTINUOUS
 62
           3
100
AcDbLine
 10
770.463474903805
 20
4595.007223267961
 11
770.463474903805
 21
4588.007223267961
  0
LINE
  5
48D
100
AcDbEntity
  8
0
  6
CONTINUOUS
 62
           3
100
AcDbLine
 10
786.113474903805
 20
4638.180085231161
 11
786.113474903805
 21
4710.507223267961
  0
LINE
  5
48C
100
AcDbEntity
  8
0
  6
CONTINUOUS
 62
           3
100
AcDbLine
 10
767.463474903805
 20
4581.007223267961
 11
767.463474903805
 21
4609.97104993056
  0
LINE
  5
48B
100
AcDbEntity
  8
0
  6
CONTINUOUS
 62
           3
100
AcDbLine
 10
790.963474903805
 20
4576.007223267961
 11
772.463474903805
 21
4576.007223267961
  0
LINE
  5
48A
100
AcDbEntity
  8
0
  6
CONTINUOUS
 62
           3
100
AcDbLine
 10
790.963474903805
 20
4823.507223267961
 11
777.463474903805
 21
4823.507223267961
  0
LINE
  5
489
100
AcDbEntity
  8
0
  6
CONTINUOUS
 62
           3
100
AcDbLine
 10
777.463474903805
 20
4823.507223267961
 11
776.899901355005
 21
4823.491329880761
  0
LINE
  5
488
100
AcDbEntity
  8
0
  6
CONTINUOUS
 62
           3
100
AcDbLine
 10
765.614474833805
 20
4615.322399266961
 11
765.580628652405
 21
4617.322066283361
  0
LINE
  5
487
100
AcDbEntity
  8
0
  6
CONTINUOUS
 62
           3
100
AcDbLine
 10
767.114260015205
 20
4615.347784494161
 11
765.614474833805
 21
4615.322399266961
  0
LINE
  5
486
100
AcDbEntity
  8
0
  6
CONTINUOUS
 62
           3
100
AcDbLine
 10
765.580628652405
 20
4617.322066283361
 11
765.563705561605
 21
4618.321899791361
  0
LINE
  5
485
100
AcDbEntity
  8
0
  6
CONTINUOUS
 62
           3
100
AcDbLine
 10
764.057515419205
 20
4707.309153885761
 11
765.557300600405
 21
4707.334539112961
  0
LINE
  5
484
100
AcDbEntity
  8
0
  6
CONTINUOUS
 62
           3
100
AcDbLine
 10
767.063490743005
 20
4618.347285018561
 11
765.563705561605
 21
4618.321899791361
  0
LINE
  5
483
100
AcDbEntity
  8
0
  6
CONTINUOUS
 62
           3
100
AcDbLine
 10
765.563705561605
 20
4618.321899791361
 11
764.057515419205
 21
4707.309153885761
  0
LINE
  5
482
100
AcDbEntity
  8
0
  6
CONTINUOUS
 62
           3
100
AcDbLine
 10
789.462615629405
 20
4609.725121465961
 11
789.040572709205
 21
4634.659848840161
  0
LINE
  5
481
100
AcDbEntity
  8
0
  6
CONTINUOUS
 62
           3
100
AcDbLine
 10
781.268313625405
 20
4746.48471064956
 11
780.004821089205
 21
4747.706143564361
  0
LINE
  5
480
100
AcDbEntity
  8
0
  6
CONTINUOUS
 62
           3
100
AcDbLine
 10
777.868934223205
 20
4748.54879725056
 11
773.444476840605
 21
4748.473909288561
  0
LINE
  5
47F
100
AcDbEntity
  8
0
  6
CONTINUOUS
 62
           3
100
AcDbLine
 10
770.197204205205
 20
4746.713007682161
 11
765.726342185205
 21
4740.092239741362
  0
LINE
  5
47E
100
AcDbEntity
  8
0
  6
CONTINUOUS
 62
           3
100
AcDbLine
 10
765.557300600405
 20
4707.334539112961
 11
765.041881609405
 21
4737.78602025856
  0
LINE
  5
47D
100
AcDbEntity
  8
0
  6
CONTINUOUS
 62
           3
100
AcDbLine
 10
767.063490743005
 20
4618.347285018561
 11
767.181414314205
 21
4611.38023982376
  0
LINE
  5
47C
100
AcDbEntity
  8
0
  6
CONTINUOUS
 62
           3
100
AcDbLine
 10
768.942315920805
 20
4608.132967188361
 11
774.767957234205
 21
4604.199037057761
  0
LINE
  5
47B
100
AcDbEntity
  8
0
  6
CONTINUOUS
 62
           3
100
AcDbLine
 10
777.074176717005
 20
4603.514576481761
 11
783.565015812405
 21
4603.624439831961
  0
LINE
  5
47A
100
AcDbEntity
  8
0
  6
CONTINUOUS
 62
           3
100
AcDbLine
 10
785.249856367005
 20
4638.76326823216
 11
787.719896504205
 21
4637.095303316761
  0
LINE
  5
479
100
AcDbEntity
  8
0
  6
CONTINUOUS
 62
           3
100
AcDbLine
 10
782.182767576405
 20
4744.378564427161
 11
783.929180162005
 21
4641.198722708561
  0
LINE
  5
478
100
AcDbEntity
  8
0
  6
CONTINUOUS
 62
           3
100
AcDbLine
 10
770.699956680605
 20
4593.15914573776
 11
770.463474903805
 21
4594.500300538561
  0
LINE
  5
477
100
AcDbEntity
  8
0
  6
CONTINUOUS
 62
           3
100
AcDbLine
 10
770.699956680605
 20
4593.15914573776
 11
771.568197568805
 21
4588.235106972761
  0
LINE
  5
476
100
AcDbEntity
  8
0
  6
CONTINUOUS
 62
           3
100
AcDbLine
 10
771.568197568805
 20
4588.235106972761
 11
770.463474903805
 21
4588.040314560763
  0
LINE
  5
475
100
AcDbEntity
  8
0
  6
CONTINUOUS
 62
           3
100
AcDbLine
 10
1037.539022073222
 20
4794.538553733761
 11
1037.908023794222
 21
4794.543747417562
  0
LINE
  5
474
100
AcDbEntity
  8
0
  6
CONTINUOUS
 62
           3
100
AcDbLine
 10
1036.563570463222
 20
4794.532888244761
 11
1037.539022073222
 21
4794.538553733761
  0
LINE
  5
473
100
AcDbEntity
  8
0
  6
CONTINUOUS
 62
           3
100
AcDbLine
 10
1022.273570463222
 20
4819.032629489092
 11
1022.323570463223
 21
4819.017325319561
  0
LINE
  5
472
100
AcDbEntity
  8
0
  6
CONTINUOUS
 62
           3
100
AcDbLine
 10
1456.124908521052
 20
4770.29382264456
 11
1456.234170517452
 21
4770.894153570762
  0
LINE
  5
471
100
AcDbEntity
  8
0
  6
CONTINUOUS
 62
           3
100
AcDbLine
 10
1455.801897805652
 20
4769.719729060762
 11
1456.124908521052
 21
4770.29382264456
  0
LINE
  5
470
100
AcDbEntity
  8
0
  6
CONTINUOUS
 62
           3
100
AcDbLine
 10
1455.279255489252
 20
4769.196963463361
 11
1455.801897805652
 21
4769.719729060762
  0
LINE
  5
46F
100
AcDbEntity
  8
0
  6
CONTINUOUS
 62
           3
100
AcDbLine
 10
1454.579823549252
 20
4768.748373217961
 11
1455.279255489252
 21
4769.196963463361
  0
LINE
  5
46E
100
AcDbEntity
  8
0
  6
CONTINUOUS
 62
           3
100
AcDbLine
 10
1453.734170517452
 20
4768.393563870361
 11
1454.579823549252
 21
4768.748373217961
  0
LINE
  5
46D
100
AcDbEntity
  8
0
  6
CONTINUOUS
 62
           3
100
AcDbLine
 10
1452.779255489252
 20
4768.148042291761
 11
1453.734170517452
 21
4768.393563870361
  0
LINE
  5
46C
100
AcDbEntity
  8
0
  6
CONTINUOUS
 62
           3
100
AcDbLine
 10
1451.756812833852
 20
4768.022538953561
 11
1452.779255489252
 21
4768.148042291761
  0
LINE
  5
46B
100
AcDbEntity
  8
0
  6
CONTINUOUS
 62
           3
100
AcDbLine
 10
1450.711528201052
 20
4768.022538953561
 11
1451.756812833852
 21
4768.022538953561
  0
LINE
  5
46A
100
AcDbEntity
  8
0
  6
CONTINUOUS
 62
           3
100
AcDbLine
 10
1449.689085545652
 20
4768.148042291761
 11
1450.711528201052
 21
4768.022538953561
  0
LINE
  5
469
100
AcDbEntity
  8
0
  6
CONTINUOUS
 62
           3
100
AcDbLine
 10
1448.734170517452
 20
4768.393563870361
 11
1449.689085545652
 21
4768.148042291761
  0
LINE
  5
468
100
AcDbEntity
  8
0
  6
CONTINUOUS
 62
           3
100
AcDbLine
 10
1447.888517485652
 20
4768.748373217961
 11
1448.734170517452
 21
4768.393563870361
  0
LINE
  5
467
100
AcDbEntity
  8
0
  6
CONTINUOUS
 62
           3
100
AcDbLine
 10
1447.189085545652
 20
4769.196963463361
 11
1447.888517485652
 21
4768.748373217961
  0
LINE
  5
466
100
AcDbEntity
  8
0
  6
CONTINUOUS
 62
           3
100
AcDbLine
 10
1446.666443229252
 20
4769.719729060762
 11
1447.189085545652
 21
4769.196963463361
  0
LINE
  5
465
100
AcDbEntity
  8
0
  6
CONTINUOUS
 62
           3
100
AcDbLine
 10
1446.343432513852
 20
4770.29382264456
 11
1446.666443229252
 21
4769.719729060762
  0
LINE
  5
464
100
AcDbEntity
  8
0
  6
CONTINUOUS
 62
           3
100
AcDbLine
 10
1446.234170517452
 20
4770.894153570762
 11
1446.343432513852
 21
4770.29382264456
  0
LINE
  5
463
100
AcDbEntity
  8
0
  6
CONTINUOUS
 62
           3
100
AcDbLine
 10
1456.124908521052
 20
4790.505848557561
 11
1456.234170517452
 21
4791.106179483561
  0
LINE
  5
462
100
AcDbEntity
  8
0
  6
CONTINUOUS
 62
           3
100
AcDbLine
 10
1455.801897805653
 20
4789.931754973761
 11
1456.124908521052
 21
4790.505848557561
  0
LINE
  5
461
100
AcDbEntity
  8
0
  6
CONTINUOUS
 62
           3
100
AcDbLine
 10
1455.279255489252
 20
4789.408989376361
 11
1455.801897805653
 21
4789.931754973761
  0
LINE
  5
460
100
AcDbEntity
  8
0
  6
CONTINUOUS
 62
           3
100
AcDbLine
 10
1454.579823549253
 20
4788.960399130761
 11
1455.279255489252
 21
4789.408989376361
  0
LINE
  5
45F
100
AcDbEntity
  8
0
  6
CONTINUOUS
 62
           3
100
AcDbLine
 10
1453.734170517452
 20
4788.605589783361
 11
1454.579823549253
 21
4788.960399130761
  0
LINE
  5
45E
100
AcDbEntity
  8
0
  6
CONTINUOUS
 62
           3
100
AcDbLine
 10
1452.779255489252
 20
4788.360068204762
 11
1453.734170517452
 21
4788.605589783361
  0
LINE
  5
45D
100
AcDbEntity
  8
0
  6
CONTINUOUS
 62
           3
100
AcDbLine
 10
1451.756812833853
 20
4788.234564866561
 11
1452.779255489252
 21
4788.360068204762
  0
LINE
  5
45C
100
AcDbEntity
  8
0
  6
CONTINUOUS
 62
           3
100
AcDbLine
 10
1450.711528201052
 20
4788.234564866561
 11
1451.756812833853
 21
4788.234564866561
  0
LINE
  5
45B
100
AcDbEntity
  8
0
  6
CONTINUOUS
 62
           3
100
AcDbLine
 10
1449.689085545652
 20
4788.360068204762
 11
1450.711528201052
 21
4788.234564866561
  0
LINE
  5
45A
100
AcDbEntity
  8
0
  6
CONTINUOUS
 62
           3
100
AcDbLine
 10
1448.734170517452
 20
4788.605589783361
 11
1449.689085545652
 21
4788.360068204762
  0
LINE
  5
459
100
AcDbEntity
  8
0
  6
CONTINUOUS
 62
           3
100
AcDbLine
 10
1447.888517485652
 20
4788.960399130761
 11
1448.734170517452
 21
4788.605589783361
  0
LINE
  5
458
100
AcDbEntity
  8
0
  6
CONTINUOUS
 62
           3
100
AcDbLine
 10
1447.189085545652
 20
4789.408989376361
 11
1447.888517485652
 21
4788.960399130761
  0
LINE
  5
457
100
AcDbEntity
  8
0
  6
CONTINUOUS
 62
           3
100
AcDbLine
 10
1446.666443229252
 20
4789.931754973761
 11
1447.189085545652
 21
4789.408989376361
  0
LINE
  5
456
100
AcDbEntity
  8
0
  6
CONTINUOUS
 62
           3
100
AcDbLine
 10
1446.343432513852
 20
4790.505848557561
 11
1446.666443229252
 21
4789.931754973761
  0
LINE
  5
455
100
AcDbEntity
  8
0
  6
CONTINUOUS
 62
           3
100
AcDbLine
 10
1446.234170517452
 20
4791.106179483561
 11
1446.343432513852
 21
4790.505848557561
  0
LINE
  5
454
100
AcDbEntity
  8
0
  6
CONTINUOUS
 62
           3
100
AcDbLine
 10
1446.343432513852
 20
4781.819613190561
 11
1446.234170517452
 21
4781.219282264361
  0
LINE
  5
453
100
AcDbEntity
  8
0
  6
CONTINUOUS
 62
           3
100
AcDbLine
 10
1446.666443229252
 20
4782.393706774361
 11
1446.343432513852
 21
4781.819613190561
  0
LINE
  5
452
100
AcDbEntity
  8
0
  6
CONTINUOUS
 62
           3
100
AcDbLine
 10
1447.189085545652
 20
4782.91647237176
 11
1446.666443229252
 21
4782.393706774361
  0
LINE
  5
451
100
AcDbEntity
  8
0
  6
CONTINUOUS
 62
           3
100
AcDbLine
 10
1447.888517485652
 20
4783.36506261736
 11
1447.189085545652
 21
4782.91647237176
  0
LINE
  5
450
100
AcDbEntity
  8
0
  6
CONTINUOUS
 62
           3
100
AcDbLine
 10
1448.734170517452
 20
4783.71987196476
 11
1447.888517485652
 21
4783.36506261736
  0
LINE
  5
44F
100
AcDbEntity
  8
0
  6
CONTINUOUS
 62
           3
100
AcDbLine
 10
1449.689085545652
 20
4783.965393543362
 11
1448.734170517452
 21
4783.71987196476
  0
LINE
  5
44E
100
AcDbEntity
  8
0
  6
CONTINUOUS
 62
           3
100
AcDbLine
 10
1450.711528201052
 20
4784.09089688156
 11
1449.689085545652
 21
4783.965393543362
  0
LINE
  5
44D
100
AcDbEntity
  8
0
  6
CONTINUOUS
 62
           3
100
AcDbLine
 10
1451.756812833852
 20
4784.09089688156
 11
1450.711528201052
 21
4784.09089688156
  0
LINE
  5
44C
100
AcDbEntity
  8
0
  6
CONTINUOUS
 62
           3
100
AcDbLine
 10
1452.779255489252
 20
4783.965393543362
 11
1451.756812833852
 21
4784.09089688156
  0
LINE
  5
44B
100
AcDbEntity
  8
0
  6
CONTINUOUS
 62
           3
100
AcDbLine
 10
1453.734170517452
 20
4783.71987196476
 11
1452.779255489252
 21
4783.965393543362
  0
LINE
  5
44A
100
AcDbEntity
  8
0
  6
CONTINUOUS
 62
           3
100
AcDbLine
 10
1454.579823549252
 20
4783.36506261736
 11
1453.734170517452
 21
4783.71987196476
  0
LINE
  5
449
100
AcDbEntity
  8
0
  6
CONTINUOUS
 62
           3
100
AcDbLine
 10
1455.279255489252
 20
4782.91647237176
 11
1454.579823549252
 21
4783.36506261736
  0
LINE
  5
448
100
AcDbEntity
  8
0
  6
CONTINUOUS
 62
           3
100
AcDbLine
 10
1455.801897805652
 20
4782.393706774361
 11
1455.279255489252
 21
4782.91647237176
  0
LINE
  5
447
100
AcDbEntity
  8
0
  6
CONTINUOUS
 62
           3
100
AcDbLine
 10
1456.124908521052
 20
4781.819613190561
 11
1455.801897805652
 21
4782.393706774361
  0
LINE
  5
446
100
AcDbEntity
  8
0
  6
CONTINUOUS
 62
           3
100
AcDbLine
 10
1456.234170517452
 20
4781.219282264361
 11
1456.124908521052
 21
4781.819613190561
  0
LINE
  5
445
100
AcDbEntity
  8
0
  6
CONTINUOUS
 62
           3
100
AcDbLine
 10
1456.124908521052
 20
4769.069222245362
 11
1456.234170517452
 21
4769.669553171361
  0
LINE
  5
444
100
AcDbEntity
  8
0
  6
CONTINUOUS
 62
           3
100
AcDbLine
 10
1455.801897805652
 20
4768.495128661361
 11
1456.124908521052
 21
4769.069222245362
  0
LINE
  5
443
100
AcDbEntity
  8
0
  6
CONTINUOUS
 62
           3
100
AcDbLine
 10
1455.279255489252
 20
4767.97236306416
 11
1455.801897805652
 21
4768.495128661361
  0
LINE
  5
442
100
AcDbEntity
  8
0
  6
CONTINUOUS
 62
           3
100
AcDbLine
 10
1454.579823549252
 20
4767.52377281856
 11
1455.279255489252
 21
4767.97236306416
  0
LINE
  5
441
100
AcDbEntity
  8
0
  6
CONTINUOUS
 62
           3
100
AcDbLine
 10
1453.734170517452
 20
4767.168963470962
 11
1454.579823549252
 21
4767.52377281856
  0
LINE
  5
440
100
AcDbEntity
  8
0
  6
CONTINUOUS
 62
           3
100
AcDbLine
 10
1452.779255489252
 20
4766.923441892561
 11
1453.734170517452
 21
4767.168963470962
  0
LINE
  5
43F
100
AcDbEntity
  8
0
  6
CONTINUOUS
 62
           3
100
AcDbLine
 10
1451.756812833852
 20
4766.79793855416
 11
1452.779255489252
 21
4766.923441892561
  0
LINE
  5
43E
100
AcDbEntity
  8
0
  6
CONTINUOUS
 62
           3
100
AcDbLine
 10
1450.711528201052
 20
4766.79793855416
 11
1451.756812833852
 21
4766.79793855416
  0
LINE
  5
43D
100
AcDbEntity
  8
0
  6
CONTINUOUS
 62
           3
100
AcDbLine
 10
1449.689085545652
 20
4766.923441892561
 11
1450.711528201052
 21
4766.79793855416
  0
LINE
  5
43C
100
AcDbEntity
  8
0
  6
CONTINUOUS
 62
           3
100
AcDbLine
 10
1448.734170517452
 20
4767.168963470962
 11
1449.689085545652
 21
4766.923441892561
  0
LINE
  5
43B
100
AcDbEntity
  8
0
  6
CONTINUOUS
 62
           3
100
AcDbLine
 10
1447.888517485652
 20
4767.52377281856
 11
1448.734170517452
 21
4767.168963470962
  0
LINE
  5
43A
100
AcDbEntity
  8
0
  6
CONTINUOUS
 62
           3
100
AcDbLine
 10
1447.189085545652
 20
4767.97236306416
 11
1447.888517485652
 21
4767.52377281856
  0
LINE
  5
439
100
AcDbEntity
  8
0
  6
CONTINUOUS
 62
           3
100
AcDbLine
 10
1446.666443229252
 20
4768.495128661361
 11
1447.189085545652
 21
4767.97236306416
  0
LINE
  5
438
100
AcDbEntity
  8
0
  6
CONTINUOUS
 62
           3
100
AcDbLine
 10
1446.343432513852
 20
4769.069222245362
 11
1446.666443229252
 21
4768.495128661361
  0
LINE
  5
437
100
AcDbEntity
  8
0
  6
CONTINUOUS
 62
           3
100
AcDbLine
 10
1446.234170517452
 20
4769.669553171361
 11
1446.343432513852
 21
4769.069222245362
  0
LINE
  5
436
100
AcDbEntity
  8
0
  6
CONTINUOUS
 62
           3
100
AcDbLine
 10
1456.124908521052
 20
4789.281248158161
 11
1456.234170517452
 21
4789.881579084362
  0
LINE
  5
435
100
AcDbEntity
  8
0
  6
CONTINUOUS
 62
           3
100
AcDbLine
 10
1455.801897805653
 20
4788.70715457436
 11
1456.124908521052
 21
4789.281248158161
  0
LINE
  5
434
100
AcDbEntity
  8
0
  6
CONTINUOUS
 62
           3
100
AcDbLine
 10
1455.279255489252
 20
4788.184388977161
 11
1455.801897805653
 21
4788.70715457436
  0
LINE
  5
433
100
AcDbEntity
  8
0
  6
CONTINUOUS
 62
           3
100
AcDbLine
 10
1454.579823549253
 20
4787.735798731561
 11
1455.279255489252
 21
4788.184388977161
  0
LINE
  5
432
100
AcDbEntity
  8
0
  6
CONTINUOUS
 62
           3
100
AcDbLine
 10
1453.734170517452
 20
4787.380989383961
 11
1454.579823549253
 21
4787.735798731561
  0
LINE
  5
431
100
AcDbEntity
  8
0
  6
CONTINUOUS
 62
           3
100
AcDbLine
 10
1452.779255489252
 20
4787.135467805361
 11
1453.734170517452
 21
4787.380989383961
  0
LINE
  5
430
100
AcDbEntity
  8
0
  6
CONTINUOUS
 62
           3
100
AcDbLine
 10
1451.756812833853
 20
4787.009964467161
 11
1452.779255489252
 21
4787.135467805361
  0
LINE
  5
42F
100
AcDbEntity
  8
0
  6
CONTINUOUS
 62
           3
100
AcDbLine
 10
1450.711528201052
 20
4787.009964467161
 11
1451.756812833853
 21
4787.009964467161
  0
LINE
  5
42E
100
AcDbEntity
  8
0
  6
CONTINUOUS
 62
           3
100
AcDbLine
 10
1449.689085545652
 20
4787.135467805361
 11
1450.711528201052
 21
4787.009964467161
  0
LINE
  5
42D
100
AcDbEntity
  8
0
  6
CONTINUOUS
 62
           3
100
AcDbLine
 10
1448.734170517452
 20
4787.380989383961
 11
1449.689085545652
 21
4787.135467805361
  0
LINE
  5
42C
100
AcDbEntity
  8
0
  6
CONTINUOUS
 62
           3
100
AcDbLine
 10
1447.888517485652
 20
4787.735798731561
 11
1448.734170517452
 21
4787.380989383961
  0
LINE
  5
42B
100
AcDbEntity
  8
0
  6
CONTINUOUS
 62
           3
100
AcDbLine
 10
1447.189085545652
 20
4788.184388977161
 11
1447.888517485652
 21
4787.735798731561
  0
LINE
  5
42A
100
AcDbEntity
  8
0
  6
CONTINUOUS
 62
           3
100
AcDbLine
 10
1446.666443229252
 20
4788.70715457436
 11
1447.189085545652
 21
4788.184388977161
  0
LINE
  5
429
100
AcDbEntity
  8
0
  6
CONTINUOUS
 62
           3
100
AcDbLine
 10
1446.343432513852
 20
4789.281248158161
 11
1446.666443229252
 21
4788.70715457436
  0
LINE
  5
428
100
AcDbEntity
  8
0
  6
CONTINUOUS
 62
           3
100
AcDbLine
 10
1446.234170517452
 20
4789.881579084362
 11
1446.343432513852
 21
4789.281248158161
  0
LINE
  5
427
100
AcDbEntity
  8
0
  6
CONTINUOUS
 62
           3
100
AcDbLine
 10
1442.941602132661
 20
4754.942271181311
 11
1442.519957988461
 21
4754.221790509511
  0
LINE
  5
426
100
AcDbEntity
  8
0
  6
CONTINUOUS
 62
           3
100
AcDbLine
 10
1443.540802100661
 20
4755.619504488512
 11
1442.941602132661
 21
4754.942271181311
  0
LINE
  5
425
100
AcDbEntity
  8
0
  6
CONTINUOUS
 62
           3
100
AcDbLine
 10
1444.304728159061
 20
4756.238989891712
 11
1443.540802100661
 21
4755.619504488512
  0
LINE
  5
424
100
AcDbEntity
  8
0
  6
CONTINUOUS
 62
           3
100
AcDbLine
 10
1445.217023551461
 20
4756.787463316512
 11
1445.001819727652
 21
4756.658082439159
  0
LINE
  5
423
100
AcDbEntity
  8
0
  6
CONTINUOUS
 62
           3
100
AcDbLine
 10
1446.258154720461
 20
4757.253181157712
 11
1445.217023551461
 21
4756.787463316512
  0
LINE
  5
422
100
AcDbEntity
  8
0
  6
CONTINUOUS
 62
           3
100
AcDbLine
 10
1447.405829549261
 20
4757.626171725911
 11
1446.258154720461
 21
4757.253181157712
  0
LINE
  5
421
100
AcDbEntity
  8
0
  6
CONTINUOUS
 62
           3
100
AcDbLine
 10
1448.635474668261
 20
4757.898448756312
 11
1447.405829549261
 21
4757.626171725911
  0
LINE
  5
420
100
AcDbEntity
  8
0
  6
CONTINUOUS
 62
           3
100
AcDbLine
 10
1449.920761605261
 20
4758.064182405713
 11
1448.635474668261
 21
4757.898448756312
  0
LINE
  5
41F
100
AcDbEntity
  8
0
  6
CONTINUOUS
 62
           3
100
AcDbLine
 10
1451.234170517461
 20
4758.119824078312
 11
1449.920761605261
 21
4758.064182405713
  0
LINE
  5
41E
100
AcDbEntity
  8
0
  6
CONTINUOUS
 62
           3
100
AcDbLine
 10
1452.547579429661
 20
4758.064182405713
 11
1451.234170517461
 21
4758.119824078312
  0
LINE
  5
41D
100
AcDbEntity
  8
0
  6
CONTINUOUS
 62
           3
100
AcDbLine
 10
1453.832866366861
 20
4757.898448756312
 11
1452.547579429661
 21
4758.064182405713
  0
LINE
  5
41C
100
AcDbEntity
  8
0
  6
CONTINUOUS
 62
           3
100
AcDbLine
 10
1455.062511485661
 20
4757.626171725911
 11
1453.832866366861
 21
4757.898448756312
  0
LINE
  5
41B
100
AcDbEntity
  8
0
  6
CONTINUOUS
 62
           3
100
AcDbLine
 10
1456.210186314461
 20
4757.253181157712
 11
1455.062511485661
 21
4757.626171725911
  0
LINE
  5
41A
100
AcDbEntity
  8
0
  6
CONTINUOUS
 62
           3
100
AcDbLine
 10
1457.251317483461
 20
4756.787463316512
 11
1456.210186314461
 21
4757.253181157712
  0
LINE
  5
419
100
AcDbEntity
  8
0
  6
CONTINUOUS
 62
           3
100
AcDbLine
 10
1458.927538934261
 20
4755.619504488512
 11
1458.163612875861
 21
4756.238989891712
  0
LINE
  5
418
100
AcDbEntity
  8
0
  6
CONTINUOUS
 62
           3
100
AcDbLine
 10
1459.526738902461
 20
4754.942271181311
 11
1458.927538934261
 21
4755.619504488512
  0
LINE
  5
417
100
AcDbEntity
  8
0
  6
CONTINUOUS
 62
           3
100
AcDbLine
 10
1459.948383046461
 20
4754.221790509511
 11
1459.526738902461
 21
4754.942271181311
  0
LINE
  5
416
100
AcDbEntity
  8
0
  6
CONTINUOUS
 62
           3
100
AcDbLine
 10
1444.181945811252
 20
4747.90967810696
 11
1444.186749491252
 21
4748.007223267961
  0
LINE
  5
415
100
AcDbEntity
  8
0
  6
CONTINUOUS
 62
           3
100
AcDbLine
 10
1444.167719374252
 20
4747.815881551962
 11
1444.181945811252
 21
4747.90967810696
  0
LINE
  5
414
100
AcDbEntity
  8
0
  6
CONTINUOUS
 62
           3
100
AcDbLine
 10
1444.144616894252
 20
4747.72943815156
 11
1444.167719374252
 21
4747.815881551962
  0
LINE
  5
413
100
AcDbEntity
  8
0
  6
CONTINUOUS
 62
           3
100
AcDbLine
 10
1444.113526186452
 20
4747.653669877362
 11
1444.144616894252
 21
4747.72943815156
  0
LINE
  5
412
100
AcDbEntity
  8
0
  6
CONTINUOUS
 62
           3
100
AcDbLine
 10
1444.075642049452
 20
4747.591488461962
 11
1444.113526186452
 21
4747.653669877362
  0
LINE
  5
411
100
AcDbEntity
  8
0
  6
CONTINUOUS
 62
           3
100
AcDbLine
 10
1444.032420349252
 20
4747.54528350176
 11
1444.075642049452
 21
4747.591488461962
  0
LINE
  5
410
100
AcDbEntity
  8
0
  6
CONTINUOUS
 62
           3
100
AcDbLine
 10
1443.985522071652
 20
4747.516830627761
 11
1444.032420349252
 21
4747.54528350176
  0
LINE
  5
40F
100
AcDbEntity
  8
0
  6
CONTINUOUS
 62
           3
100
AcDbLine
 10
1443.936749491252
 20
4747.507223267961
 11
1443.985522071652
 21
4747.516830627761
  0
LINE
  5
40E
100
AcDbEntity
  8
0
  6
CONTINUOUS
 62
           3
100
AcDbLine
 10
1443.985522071652
 20
4749.497615908162
 11
1443.936749491252
 21
4749.507223267961
  0
LINE
  5
40D
100
AcDbEntity
  8
0
  6
CONTINUOUS
 62
           3
100
AcDbLine
 10
1444.032420349252
 20
4749.469163034361
 11
1443.985522071652
 21
4749.497615908162
  0
LINE
  5
40C
100
AcDbEntity
  8
0
  6
CONTINUOUS
 62
           3
100
AcDbLine
 10
1444.075642049452
 20
4749.422958074161
 11
1444.032420349252
 21
4749.469163034361
  0
LINE
  5
40B
100
AcDbEntity
  8
0
  6
CONTINUOUS
 62
           3
100
AcDbLine
 10
1444.113526186452
 20
4749.360776658561
 11
1444.075642049452
 21
4749.422958074161
  0
LINE
  5
40A
100
AcDbEntity
  8
0
  6
CONTINUOUS
 62
           3
100
AcDbLine
 10
1444.144616894252
 20
4749.285008384561
 11
1444.113526186452
 21
4749.360776658561
  0
LINE
  5
409
100
AcDbEntity
  8
0
  6
CONTINUOUS
 62
           3
100
AcDbLine
 10
1444.167719374252
 20
4749.198564984161
 11
1444.144616894252
 21
4749.285008384561
  0
LINE
  5
408
100
AcDbEntity
  8
0
  6
CONTINUOUS
 62
           3
100
AcDbLine
 10
1444.181945811252
 20
4749.104768428961
 11
1444.167719374252
 21
4749.198564984161
  0
LINE
  5
407
100
AcDbEntity
  8
0
  6
CONTINUOUS
 62
           3
100
AcDbLine
 10
1444.186749491252
 20
4749.007223267961
 11
1444.181945811252
 21
4749.104768428961
  0
LINE
  5
406
100
AcDbEntity
  8
0
  6
CONTINUOUS
 62
           3
100
AcDbLine
 10
1457.584373494052
 20
4747.90967810696
 11
1457.579569814252
 21
4748.007223267961
  0
LINE
  5
405
100
AcDbEntity
  8
0
  6
CONTINUOUS
 62
           3
100
AcDbLine
 10
1457.598599931052
 20
4747.815881551962
 11
1457.584373494052
 21
4747.90967810696
  0
LINE
  5
404
100
AcDbEntity
  8
0
  6
CONTINUOUS
 62
           3
100
AcDbLine
 10
1457.621702411052
 20
4747.72943815156
 11
1457.598599931052
 21
4747.815881551962
  0
LINE
  5
403
100
AcDbEntity
  8
0
  6
CONTINUOUS
 62
           3
100
AcDbLine
 10
1457.652793118852
 20
4747.653669877362
 11
1457.621702411052
 21
4747.72943815156
  0
LINE
  5
402
100
AcDbEntity
  8
0
  6
CONTINUOUS
 62
           3
100
AcDbLine
 10
1457.690677255853
 20
4747.591488461962
 11
1457.652793118852
 21
4747.653669877362
  0
LINE
  5
401
100
AcDbEntity
  8
0
  6
CONTINUOUS
 62
           3
100
AcDbLine
 10
1457.733898956052
 20
4747.54528350176
 11
1457.690677255853
 21
4747.591488461962
  0
LINE
  5
400
100
AcDbEntity
  8
0
  6
CONTINUOUS
 62
           3
100
AcDbLine
 10
1457.780797233652
 20
4747.516830627761
 11
1457.733898956052
 21
4747.54528350176
  0
LINE
  5
3FF
100
AcDbEntity
  8
0
  6
CONTINUOUS
 62
           3
100
AcDbLine
 10
1457.829569814252
 20
4747.507223267961
 11
1457.780797233652
 21
4747.516830627761
  0
LINE
  5
3FE
100
AcDbEntity
  8
0
  6
CONTINUOUS
 62
           3
100
AcDbLine
 10
1457.780797233652
 20
4749.497615908162
 11
1457.829569814252
 21
4749.507223267961
  0
LINE
  5
3FD
100
AcDbEntity
  8
0
  6
CONTINUOUS
 62
           3
100
AcDbLine
 10
1457.733898956052
 20
4749.469163034361
 11
1457.780797233652
 21
4749.497615908162
  0
LINE
  5
3FC
100
AcDbEntity
  8
0
  6
CONTINUOUS
 62
           3
100
AcDbLine
 10
1457.690677255853
 20
4749.422958074161
 11
1457.733898956052
 21
4749.469163034361
  0
LINE
  5
3FB
100
AcDbEntity
  8
0
  6
CONTINUOUS
 62
           3
100
AcDbLine
 10
1457.652793118852
 20
4749.360776658561
 11
1457.690677255853
 21
4749.422958074161
  0
LINE
  5
3FA
100
AcDbEntity
  8
0
  6
CONTINUOUS
 62
           3
100
AcDbLine
 10
1457.621702411052
 20
4749.285008384561
 11
1457.652793118852
 21
4749.360776658561
  0
LINE
  5
3F9
100
AcDbEntity
  8
0
  6
CONTINUOUS
 62
           3
100
AcDbLine
 10
1457.598599931052
 20
4749.198564984161
 11
1457.621702411052
 21
4749.285008384561
  0
LINE
  5
3F8
100
AcDbEntity
  8
0
  6
CONTINUOUS
 62
           3
100
AcDbLine
 10
1457.584373494052
 20
4749.104768428961
 11
1457.598599931052
 21
4749.198564984161
  0
LINE
  5
3F7
100
AcDbEntity
  8
0
  6
CONTINUOUS
 62
           3
100
AcDbLine
 10
1457.579569814252
 20
4749.007223267961
 11
1457.584373494052
 21
4749.104768428961
  0
LINE
  5
3F6
100
AcDbEntity
  8
0
  6
CONTINUOUS
 62
           3
100
AcDbLine
 10
1444.678342394652
 20
4747.516830627761
 11
1444.629569814252
 21
4747.507223267961
  0
LINE
  5
3F5
100
AcDbEntity
  8
0
  6
CONTINUOUS
 62
           3
100
AcDbLine
 10
1444.725240672252
 20
4747.54528350176
 11
1444.678342394652
 21
4747.516830627761
  0
LINE
  5
3F4
100
AcDbEntity
  8
0
  6
CONTINUOUS
 62
           3
100
AcDbLine
 10
1444.768462372452
 20
4747.591488461962
 11
1444.725240672252
 21
4747.54528350176
  0
LINE
  5
3F3
100
AcDbEntity
  8
0
  6
CONTINUOUS
 62
           3
100
AcDbLine
 10
1444.806346509452
 20
4747.653669877362
 11
1444.768462372452
 21
4747.591488461962
  0
LINE
  5
3F2
100
AcDbEntity
  8
0
  6
CONTINUOUS
 62
           3
100
AcDbLine
 10
1444.837437217252
 20
4747.72943815156
 11
1444.806346509452
 21
4747.653669877362
  0
LINE
  5
3F1
100
AcDbEntity
  8
0
  6
CONTINUOUS
 62
           3
100
AcDbLine
 10
1444.860539697252
 20
4747.815881551962
 11
1444.837437217252
 21
4747.72943815156
  0
LINE
  5
3F0
100
AcDbEntity
  8
0
  6
CONTINUOUS
 62
           3
100
AcDbLine
 10
1444.874766134252
 20
4747.90967810696
 11
1444.860539697252
 21
4747.815881551962
  0
LINE
  5
3EF
100
AcDbEntity
  8
0
  6
CONTINUOUS
 62
           3
100
AcDbLine
 10
1444.879569814252
 20
4748.007223267961
 11
1444.874766134252
 21
4747.90967810696
  0
LINE
  5
3EE
100
AcDbEntity
  8
0
  6
CONTINUOUS
 62
           3
100
AcDbLine
 10
1444.874766134252
 20
4749.104768428961
 11
1444.879569814252
 21
4749.007223267961
  0
LINE
  5
3ED
100
AcDbEntity
  8
0
  6
CONTINUOUS
 62
           3
100
AcDbLine
 10
1444.860539697252
 20
4749.198564984161
 11
1444.874766134252
 21
4749.104768428961
  0
LINE
  5
3EC
100
AcDbEntity
  8
0
  6
CONTINUOUS
 62
           3
100
AcDbLine
 10
1444.837437217252
 20
4749.285008384561
 11
1444.860539697252
 21
4749.198564984161
  0
LINE
  5
3EB
100
AcDbEntity
  8
0
  6
CONTINUOUS
 62
           3
100
AcDbLine
 10
1444.806346509452
 20
4749.360776658561
 11
1444.837437217252
 21
4749.285008384561
  0
LINE
  5
3EA
100
AcDbEntity
  8
0
  6
CONTINUOUS
 62
           3
100
AcDbLine
 10
1444.768462372452
 20
4749.422958074161
 11
1444.806346509452
 21
4749.360776658561
  0
LINE
  5
3E9
100
AcDbEntity
  8
0
  6
CONTINUOUS
 62
           3
100
AcDbLine
 10
1444.725240672252
 20
4749.469163034361
 11
1444.768462372452
 21
4749.422958074161
  0
LINE
  5
3E8
100
AcDbEntity
  8
0
  6
CONTINUOUS
 62
           3
100
AcDbLine
 10
1444.678342394652
 20
4749.497615908162
 11
1444.725240672252
 21
4749.469163034361
  0
LINE
  5
3E7
100
AcDbEntity
  8
0
  6
CONTINUOUS
 62
           3
100
AcDbLine
 10
1444.629569814252
 20
4749.507223267961
 11
1444.678342394652
 21
4749.497615908162
  0
LINE
  5
3E6
100
AcDbEntity
  8
0
  6
CONTINUOUS
 62
           3
100
AcDbLine
 10
1444.489433759852
 20
4749.526437987561
 11
1444.364032118052
 21
4749.507223267961
  0
LINE
  5
3E5
100
AcDbEntity
  8
0
  6
CONTINUOUS
 62
           3
100
AcDbLine
 10
1444.610016286852
 20
4749.583343735561
 11
1444.489433759852
 21
4749.526437987561
  0
LINE
  5
3E4
100
AcDbEntity
  8
0
  6
CONTINUOUS
 62
           3
100
AcDbLine
 10
1444.721145780052
 20
4749.675753655762
 11
1444.610016286852
 21
4749.583343735561
  0
LINE
  5
3E3
100
AcDbEntity
  8
0
  6
CONTINUOUS
 62
           3
100
AcDbLine
 10
1444.818551595652
 20
4749.80011648696
 11
1444.721145780052
 21
4749.675753655762
  0
LINE
  5
3E2
100
AcDbEntity
  8
0
  6
CONTINUOUS
 62
           3
100
AcDbLine
 10
1444.898490482652
 20
4749.951653034961
 11
1444.818551595652
 21
4749.80011648696
  0
LINE
  5
3E1
100
AcDbEntity
  8
0
  6
CONTINUOUS
 62
           3
100
AcDbLine
 10
1444.957890434252
 20
4750.124539835761
 11
1444.898490482652
 21
4749.951653034961
  0
LINE
  5
3E0
100
AcDbEntity
  8
0
  6
CONTINUOUS
 62
           3
100
AcDbLine
 10
1444.994468744052
 20
4750.312132945961
 11
1444.957890434252
 21
4750.124539835761
  0
LINE
  5
3DF
100
AcDbEntity
  8
0
  6
CONTINUOUS
 62
           3
100
AcDbLine
 10
1445.006819727652
 20
4750.507223267961
 11
1444.994468744052
 21
4750.312132945961
  0
LINE
  5
3DE
100
AcDbEntity
  8
0
  6
CONTINUOUS
 62
           3
100
AcDbLine
 10
1444.381633189452
 20
4750.312132945961
 11
1444.393984173252
 21
4750.507223267961
  0
LINE
  5
3DD
100
AcDbEntity
  8
0
  6
CONTINUOUS
 62
           3
100
AcDbLine
 10
1444.345054879852
 20
4750.124539835761
 11
1444.381633189452
 21
4750.312132945961
  0
LINE
  5
3DC
100
AcDbEntity
  8
0
  6
CONTINUOUS
 62
           3
100
AcDbLine
 10
1444.285654928052
 20
4749.951653034961
 11
1444.345054879852
 21
4750.124539835761
  0
LINE
  5
3DB
100
AcDbEntity
  8
0
  6
CONTINUOUS
 62
           3
100
AcDbLine
 10
1444.205716041252
 20
4749.80011648696
 11
1444.285654928052
 21
4749.951653034961
  0
LINE
  5
3DA
100
AcDbEntity
  8
0
  6
CONTINUOUS
 62
           3
100
AcDbLine
 10
1444.108310225652
 20
4749.675753655762
 11
1444.205716041252
 21
4749.80011648696
  0
LINE
  5
3D9
100
AcDbEntity
  8
0
  6
CONTINUOUS
 62
           3
100
AcDbLine
 10
1443.997180732252
 20
4749.583343735561
 11
1444.108310225652
 21
4749.675753655762
  0
LINE
  5
3D8
100
AcDbEntity
  8
0
  6
CONTINUOUS
 62
           3
100
AcDbLine
 10
1443.876598205252
 20
4749.526437987561
 11
1443.997180732252
 21
4749.583343735561
  0
LINE
  5
3D7
100
AcDbEntity
  8
0
  6
CONTINUOUS
 62
           3
100
AcDbLine
 10
1443.751196563452
 20
4749.507223267961
 11
1443.876598205252
 21
4749.526437987561
  0
LINE
  5
3D6
100
AcDbEntity
  8
0
  6
CONTINUOUS
 62
           3
100
AcDbLine
 10
1457.474670884452
 20
4750.312132945961
 11
1457.462319900652
 21
4750.507223267961
  0
LINE
  5
3D5
100
AcDbEntity
  8
0
  6
CONTINUOUS
 62
           3
100
AcDbLine
 10
1457.511249194052
 20
4750.124539835761
 11
1457.474670884452
 21
4750.312132945961
  0
LINE
  5
3D4
100
AcDbEntity
  8
0
  6
CONTINUOUS
 62
           3
100
AcDbLine
 10
1457.570649145852
 20
4749.951653034961
 11
1457.511249194052
 21
4750.124539835761
  0
LINE
  5
3D3
100
AcDbEntity
  8
0
  6
CONTINUOUS
 62
           3
100
AcDbLine
 10
1457.650588032652
 20
4749.80011648696
 11
1457.570649145852
 21
4749.951653034961
  0
LINE
  5
3D2
100
AcDbEntity
  8
0
  6
CONTINUOUS
 62
           3
100
AcDbLine
 10
1457.747993848252
 20
4749.675753655762
 11
1457.650588032652
 21
4749.80011648696
  0
LINE
  5
3D1
100
AcDbEntity
  8
0
  6
CONTINUOUS
 62
           3
100
AcDbLine
 10
1457.859123341652
 20
4749.583343735561
 11
1457.747993848252
 21
4749.675753655762
  0
LINE
  5
3D0
100
AcDbEntity
  8
0
  6
CONTINUOUS
 62
           3
100
AcDbLine
 10
1457.979705868652
 20
4749.526437987561
 11
1457.859123341652
 21
4749.583343735561
  0
LINE
  5
3CF
100
AcDbEntity
  8
0
  6
CONTINUOUS
 62
           3
100
AcDbLine
 10
1458.105107510453
 20
4749.507223267961
 11
1457.979705868652
 21
4749.526437987561
  0
LINE
  5
3CE
100
AcDbEntity
  8
0
  6
CONTINUOUS
 62
           3
100
AcDbLine
 10
1458.592541423052
 20
4749.526437987561
 11
1458.717943064852
 21
4749.507223267961
  0
LINE
  5
3CD
100
AcDbEntity
  8
0
  6
CONTINUOUS
 62
           3
100
AcDbLine
 10
1458.471958896052
 20
4749.583343735561
 11
1458.592541423052
 21
4749.526437987561
  0
LINE
  5
3CC
100
AcDbEntity
  8
0
  6
CONTINUOUS
 62
           3
100
AcDbLine
 10
1458.360829402852
 20
4749.675753655762
 11
1458.471958896052
 21
4749.583343735561
  0
LINE
  5
3CB
100
AcDbEntity
  8
0
  6
CONTINUOUS
 62
           3
100
AcDbLine
 10
1458.263423587252
 20
4749.80011648696
 11
1458.360829402852
 21
4749.675753655762
  0
LINE
  5
3CA
100
AcDbEntity
  8
0
  6
CONTINUOUS
 62
           3
100
AcDbLine
 10
1458.183484700253
 20
4749.951653034961
 11
1458.263423587252
 21
4749.80011648696
  0
LINE
  5
3C9
100
AcDbEntity
  8
0
  6
CONTINUOUS
 62
           3
100
AcDbLine
 10
1458.124084748652
 20
4750.124539835761
 11
1458.183484700253
 21
4749.951653034961
  0
LINE
  5
3C8
100
AcDbEntity
  8
0
  6
CONTINUOUS
 62
           3
100
AcDbLine
 10
1458.087506438853
 20
4750.312132945961
 11
1458.124084748652
 21
4750.124539835761
  0
LINE
  5
3C7
100
AcDbEntity
  8
0
  6
CONTINUOUS
 62
           3
100
AcDbLine
 10
1458.075155455252
 20
4750.507223267961
 11
1458.087506438853
 21
4750.312132945961
  0
LINE
  5
3C6
100
AcDbEntity
  8
0
  6
CONTINUOUS
 62
           3
100
AcDbLine
 10
1155.715348763372
 20
4735.613568996962
 11
1154.499811519772
 21
4735.507223267961
  0
LINE
  5
3C5
100
AcDbEntity
  8
0
  6
CONTINUOUS
 62
           3
100
AcDbLine
 10
1156.498525839172
 20
4735.798636153761
 11
1155.715348763372
 21
4735.613568996962
  0
LINE
  5
3C4
100
AcDbEntity
  8
0
  6
CONTINUOUS
 62
           3
100
AcDbLine
 10
1161.499811519772
 20
4923.97872581908
 11
1155.499811519772
 21
4923.97872581908
  0
LINE
  5
3C3
100
AcDbEntity
  8
0
  6
CONTINUOUS
 62
           3
100
AcDbLine
 10
1161.499811519772
 20
4925.47872581908
 11
1161.499811519772
 21
4923.97872581908
  0
LINE
  5
3C2
100
AcDbEntity
  8
0
  6
CONTINUOUS
 62
           3
100
AcDbLine
 10
1142.499811519772
 20
4925.47872581908
 11
1142.499811519772
 21
4946.87872581908
  0
LINE
  5
3C1
100
AcDbEntity
  8
0
  6
CONTINUOUS
 62
           3
100
AcDbLine
 10
1144.000872155172
 20
4946.87872581908
 11
1144.000872155172
 21
4925.47872581908
  0
LINE
  5
3C0
100
AcDbEntity
  8
0
  6
CONTINUOUS
 62
           3
100
AcDbLine
 10
1155.499811519772
 20
4923.97872581908
 11
1143.999811519772
 21
4923.97872581908
  0
LINE
  5
3BF
100
AcDbEntity
  8
0
  6
CONTINUOUS
 62
           3
100
AcDbLine
 10
1161.499811519772
 20
4948.37872581908
 11
1161.499811519772
 21
4946.87872581908
  0
LINE
  5
3BE
100
AcDbEntity
  8
0
  6
CONTINUOUS
 62
           3
100
AcDbLine
 10
1380.899811519772
 20
4937.17872581908
 11
1380.899811519772
 21
4935.17872581908
  0
LINE
  5
3BD
100
AcDbEntity
  8
0
  6
CONTINUOUS
 62
           3
100
AcDbLine
 10
1386.099811519772
 20
4935.17872581908
 11
1386.099811519772
 21
4937.17872581908
  0
LINE
  5
3BC
100
AcDbEntity
  8
0
  6
CONTINUOUS
 62
           3
100
AcDbLine
 10
1144.999811519772
 20
4946.67872581908
 11
1144.999811519772
 21
4925.67872581908
  0
LINE
  5
3BB
100
AcDbEntity
  8
0
  6
CONTINUOUS
 62
           3
100
AcDbLine
 10
1392.499811519772
 20
4946.67872581908
 11
1392.499811519772
 21
4925.67872581908
  0
LINE
  5
3BA
100
AcDbEntity
  8
0
  6
CONTINUOUS
 62
           3
100
AcDbLine
 10
1147.645764423372
 20
4948.67872581908
 11
1147.602644680972
 21
4948.67872581908
  0
LINE
  5
3B9
100
AcDbEntity
  8
0
  6
CONTINUOUS
 62
           3
100
AcDbLine
 10
1147.942648446372
 20
4948.67872581908
 11
1147.645764423372
 21
4948.67872581908
  0
LINE
  5
3B8
100
AcDbEntity
  8
0
  6
CONTINUOUS
 62
           3
100
AcDbLine
 10
1147.602644680972
 20
4950.17872581908
 11
1149.899811519772
 21
4950.17872581908
  0
LINE
  5
3B7
100
AcDbEntity
  8
0
  6
CONTINUOUS
 62
           3
100
AcDbLine
 10
1148.499811519772
 20
4948.67872581908
 11
1147.942648446372
 21
4948.67872581908
  0
LINE
  5
3B6
100
AcDbEntity
  8
0
  6
CONTINUOUS
 62
           3
100
AcDbLine
 10
1147.602644680972
 20
4922.17872581908
 11
1150.099811519773
 21
4922.17872581908
  0
LINE
  5
3B5
100
AcDbEntity
  8
0
  6
CONTINUOUS
 62
           3
100
AcDbLine
 10
1234.668440920972
 20
4922.17872581908
 11
1234.668440920972
 21
4923.67872581908
  0
LINE
  5
3B4
100
AcDbEntity
  8
0
  6
CONTINUOUS
 62
           3
100
AcDbLine
 10
1234.668440920972
 20
4948.67872581908
 11
1234.668440920972
 21
4950.17872581908
  0
LINE
  5
3B3
100
AcDbEntity
  8
0
  6
CONTINUOUS
 62
           3
100
AcDbLine
 10
1269.142163171772
 20
4923.67872581908
 11
1269.175773011772
 21
4923.67872581908
  0
LINE
  5
3B2
100
AcDbEntity
  8
0
  6
CONTINUOUS
 62
           3
100
AcDbLine
 10
1269.175773011772
 20
4922.17872581908
 11
1269.142163171772
 21
4922.17872581908
  0
LINE
  5
3B1
100
AcDbEntity
  8
0
  6
CONTINUOUS
 62
           3
100
AcDbLine
 10
1269.175773011772
 20
4922.17872581908
 11
1269.175773011772
 21
4923.67872581908
  0
LINE
  5
3B0
100
AcDbEntity
  8
0
  6
CONTINUOUS
 62
           3
100
AcDbLine
 10
1269.175773011772
 20
4948.67872581908
 11
1269.142163171772
 21
4948.67872581908
  0
LINE
  5
3AF
100
AcDbEntity
  8
0
  6
CONTINUOUS
 62
           3
100
AcDbLine
 10
1269.142163171772
 20
4950.17872581908
 11
1269.175773011772
 21
4950.17872581908
  0
LINE
  5
3AE
100
AcDbEntity
  8
0
  6
CONTINUOUS
 62
           3
100
AcDbLine
 10
1269.175773011772
 20
4948.67872581908
 11
1269.175773011772
 21
4950.17872581908
  0
LINE
  5
3AD
100
AcDbEntity
  8
0
  6
CONTINUOUS
 62
           3
100
AcDbLine
 10
1262.760499813172
 20
4952.17872581908
 11
1259.760499813172
 21
4952.17872581908
  0
LINE
  5
3AC
100
AcDbEntity
  8
0
  6
CONTINUOUS
 62
           3
100
AcDbLine
 10
1259.760499813172
 20
4952.17872581908
 11
1256.760499813172
 21
4952.17872581908
  0
LINE
  5
3AB
100
AcDbEntity
  8
0
  6
CONTINUOUS
 62
           1
100
AcDbLine
 10
1264.760499813172
 20
4951.17872581908
 11
1254.760499813172
 21
4951.17872581908
  0
LINE
  5
3AA
100
AcDbEntity
  8
0
  6
CONTINUOUS
 62
           3
100
AcDbLine
 10
1151.499811519772
 20
4952.17872581908
 11
1157.499811519772
 21
4952.17872581908
  0
LINE
  5
3A9
100
AcDbEntity
  8
0
  6
CONTINUOUS
 62
           1
100
AcDbLine
 10
1149.499811519772
 20
4951.17872581908
 11
1159.499811519772
 21
4951.17872581908
  0
LINE
  5
3A8
100
AcDbEntity
  8
0
  6
CONTINUOUS
 62
           3
100
AcDbLine
 10
1312.499811519772
 20
4924.178725819079
 11
1308.499811519772
 21
4924.178725819079
  0
LINE
  5
3A7
100
AcDbEntity
  8
0
  6
CONTINUOUS
 62
           1
100
AcDbLine
 10
1313.499811519772
 20
4924.678725819079
 11
1307.499811519772
 21
4924.678725819079
  0
LINE
  5
3A6
100
AcDbEntity
  8
0
  6
CONTINUOUS
 62
           1
100
AcDbLine
 10
1313.499811519772
 20
4947.678725819079
 11
1307.499811519772
 21
4947.678725819079
  0
LINE
  5
3A5
100
AcDbEntity
  8
0
  6
CONTINUOUS
 62
           3
100
AcDbLine
 10
1312.499811519772
 20
4948.178725819079
 11
1308.499811519772
 21
4948.178725819079
  0
LINE
  5
3A4
100
AcDbEntity
  8
0
  6
CONTINUOUS
 62
           3
100
AcDbLine
 10
1156.499811519772
 20
4921.97872581908
 11
1150.499811519772
 21
4921.97872581908
  0
LINE
  5
3A3
100
AcDbEntity
  8
0
  6
CONTINUOUS
 62
           3
100
AcDbLine
 10
1158.499811519772
 20
4948.47872581908
 11
1148.499811519772
 21
4948.47872581908
  0
LINE
  5
3A2
100
AcDbEntity
  8
0
  6
CONTINUOUS
 62
           1
100
AcDbLine
 10
1158.499811519772
 20
4949.47872581908
 11
1148.499811519772
 21
4949.47872581908
  0
LINE
  5
3A1
100
AcDbEntity
  8
0
  6
CONTINUOUS
 62
           1
100
AcDbLine
 10
1158.499811519772
 20
4922.97872581908
 11
1148.499811519772
 21
4922.97872581908
  0
LINE
  5
3A0
100
AcDbEntity
  8
0
  6
CONTINUOUS
 62
           3
100
AcDbLine
 10
1255.260499813172
 20
4948.578725819081
 11
1264.260499813172
 21
4948.578725819081
  0
LINE
  5
39F
100
AcDbEntity
  8
0
  6
CONTINUOUS
 62
           3
100
AcDbLine
 10
1147.602644680972
 20
4950.17872581908
 11
1147.602644680972
 21
4948.67872581908
  0
LINE
  5
39E
100
AcDbEntity
  8
0
  6
CONTINUOUS
 62
           3
100
AcDbLine
 10
1147.602644680972
 20
4923.67872581908
 11
1147.602644680972
 21
4922.17872581908
  0
LINE
  5
39D
100
AcDbEntity
  8
0
  6
CONTINUOUS
 62
           3
100
AcDbLine
 10
1257.260499813172
 20
4948.67872581908
 11
1257.260499813172
 21
4948.578725819081
  0
LINE
  5
39C
100
AcDbEntity
  8
0
  6
CONTINUOUS
 62
           3
100
AcDbLine
 10
1262.260499813172
 20
4948.578725819081
 11
1262.260499813172
 21
4948.67872581908
  0
LINE
  5
39B
100
AcDbEntity
  8
0
  6
CONTINUOUS
 62
           3
100
AcDbLine
 10
1256.760499813172
 20
4952.17872581908
 11
1254.760499813172
 21
4951.17872581908
  0
LINE
  5
39A
100
AcDbEntity
  8
0
  6
CONTINUOUS
 62
           3
100
AcDbLine
 10
1264.760499813172
 20
4951.17872581908
 11
1262.760499813172
 21
4952.17872581908
  0
LINE
  5
399
100
AcDbEntity
  8
0
  6
CONTINUOUS
 62
           3
100
AcDbLine
 10
1254.760499813172
 20
4951.17872581908
 11
1254.760499813172
 21
4950.17872581908
  0
LINE
  5
398
100
AcDbEntity
  8
0
  6
CONTINUOUS
 62
           3
100
AcDbLine
 10
1264.760499813172
 20
4950.17872581908
 11
1264.760499813172
 21
4951.17872581908
  0
LINE
  5
397
100
AcDbEntity
  8
0
  6
CONTINUOUS
 62
           3
100
AcDbLine
 10
1254.760499813172
 20
4922.17872581908
 11
1254.760499813172
 21
4921.17872581908
  0
LINE
  5
396
100
AcDbEntity
  8
0
  6
CONTINUOUS
 62
           3
100
AcDbLine
 10
1264.760499813172
 20
4921.17872581908
 11
1264.760499813172
 21
4922.17872581908
  0
LINE
  5
395
100
AcDbEntity
  8
0
  6
CONTINUOUS
 62
           3
100
AcDbLine
 10
1159.499811519772
 20
4921.17872581908
 11
1159.499811519772
 21
4922.17872581908
  0
LINE
  5
394
100
AcDbEntity
  8
0
  6
CONTINUOUS
 62
           3
100
AcDbLine
 10
1149.499811519772
 20
4922.17872581908
 11
1149.499811519772
 21
4921.17872581908
  0
LINE
  5
393
100
AcDbEntity
  8
0
  6
CONTINUOUS
 62
           3
100
AcDbLine
 10
1151.499811519772
 20
4952.17872581908
 11
1149.499811519772
 21
4951.17872581908
  0
LINE
  5
392
100
AcDbEntity
  8
0
  6
CONTINUOUS
 62
           3
100
AcDbLine
 10
1159.499811519772
 20
4951.17872581908
 11
1157.499811519772
 21
4952.17872581908
  0
LINE
  5
391
100
AcDbEntity
  8
0
  6
CONTINUOUS
 62
           3
100
AcDbLine
 10
1159.499811519772
 20
4950.17872581908
 11
1159.499811519772
 21
4951.17872581908
  0
LINE
  5
390
100
AcDbEntity
  8
0
  6
CONTINUOUS
 62
           3
100
AcDbLine
 10
1149.499811519772
 20
4951.17872581908
 11
1149.499811519772
 21
4950.17872581908
  0
LINE
  5
38F
100
AcDbEntity
  8
0
  6
CONTINUOUS
 62
           3
100
AcDbLine
 10
1307.499811519772
 20
4947.678725819079
 11
1307.499811519772
 21
4946.678725819079
  0
LINE
  5
38E
100
AcDbEntity
  8
0
  6
CONTINUOUS
 62
           3
100
AcDbLine
 10
1313.499811519772
 20
4946.678725819079
 11
1313.499811519772
 21
4947.678725819079
  0
LINE
  5
38D
100
AcDbEntity
  8
0
  6
CONTINUOUS
 62
           3
100
AcDbLine
 10
1307.499811519772
 20
4925.678725819079
 11
1307.499811519772
 21
4924.678725819079
  0
LINE
  5
38C
100
AcDbEntity
  8
0
  6
CONTINUOUS
 62
           3
100
AcDbLine
 10
1313.499811519772
 20
4924.678725819079
 11
1313.499811519772
 21
4925.678725819079
  0
LINE
  5
38B
100
AcDbEntity
  8
0
  6
CONTINUOUS
 62
           3
100
AcDbLine
 10
1312.499811519772
 20
4924.178725819079
 11
1313.499811519772
 21
4924.678725819079
  0
LINE
  5
38A
100
AcDbEntity
  8
0
  6
CONTINUOUS
 62
           3
100
AcDbLine
 10
1307.499811519772
 20
4924.678725819079
 11
1308.499811519772
 21
4924.178725819079
  0
LINE
  5
389
100
AcDbEntity
  8
0
  6
CONTINUOUS
 62
           3
100
AcDbLine
 10
1308.499811519772
 20
4948.178725819079
 11
1307.499811519772
 21
4947.678725819079
  0
LINE
  5
388
100
AcDbEntity
  8
0
  6
CONTINUOUS
 62
           3
100
AcDbLine
 10
1313.499811519772
 20
4947.678725819079
 11
1312.499811519772
 21
4948.178725819079
  0
LINE
  5
387
100
AcDbEntity
  8
0
  6
CONTINUOUS
 62
           3
100
AcDbLine
 10
1150.999811519772
 20
4925.67872581908
 11
1150.999811519772
 21
4925.47872581908
  0
LINE
  5
386
100
AcDbEntity
  8
0
  6
CONTINUOUS
 62
           3
100
AcDbLine
 10
1150.999811519772
 20
4948.47872581908
 11
1150.999811519772
 21
4948.37872581908
  0
LINE
  5
385
100
AcDbEntity
  8
0
  6
CONTINUOUS
 62
           3
100
AcDbLine
 10
1155.999811519772
 20
4925.47872581908
 11
1155.999811519772
 21
4925.67872581908
  0
LINE
  5
384
100
AcDbEntity
  8
0
  6
CONTINUOUS
 62
           3
100
AcDbLine
 10
1156.499811519772
 20
4921.97872581908
 11
1156.899811519772
 21
4922.17872581908
  0
LINE
  5
383
100
AcDbEntity
  8
0
  6
CONTINUOUS
 62
           3
100
AcDbLine
 10
1148.499811519772
 20
4922.97872581908
 11
1150.099811519773
 21
4922.17872581908
  0
LINE
  5
382
100
AcDbEntity
  8
0
  6
CONTINUOUS
 62
           3
100
AcDbLine
 10
1148.499811519772
 20
4949.47872581908
 11
1148.499811519772
 21
4948.47872581908
  0
LINE
  5
381
100
AcDbEntity
  8
0
  6
CONTINUOUS
 62
           3
100
AcDbLine
 10
1158.499811519772
 20
4948.47872581908
 11
1158.499811519772
 21
4949.47872581908
  0
LINE
  5
380
100
AcDbEntity
  8
0
  6
CONTINUOUS
 62
           3
100
AcDbLine
 10
1150.499811519772
 20
4950.47872581908
 11
1149.899811519772
 21
4950.17872581908
  0
LINE
  5
37F
100
AcDbEntity
  8
0
  6
CONTINUOUS
 62
           3
100
AcDbLine
 10
1158.499811519772
 20
4949.47872581908
 11
1157.099811519773
 21
4950.17872581908
  0
LINE
  5
37E
100
AcDbEntity
  8
0
  6
CONTINUOUS
 62
           3
100
AcDbLine
 10
1148.499811519772
 20
4923.97872581908
 11
1148.499811519772
 21
4923.67872581908
  0
LINE
  5
37D
100
AcDbEntity
  8
0
  6
CONTINUOUS
 62
           3
100
AcDbLine
 10
1158.499811519772
 20
4922.97872581908
 11
1158.499811519772
 21
4923.67872581908
  0
LINE
  5
37C
100
AcDbEntity
  8
0
  6
CONTINUOUS
 62
           3
100
AcDbLine
 10
1264.760499813172
 20
4924.27872581908
 11
1264.760499813172
 21
4925.17872581908
  0
LINE
  5
37B
100
AcDbEntity
  8
0
  6
CONTINUOUS
 62
           3
100
AcDbLine
 10
1254.760499813172
 20
4925.17872581908
 11
1254.760499813172
 21
4924.27872581908
  0
LINE
  5
37A
100
AcDbEntity
  8
0
  6
CONTINUOUS
 62
           3
100
AcDbLine
 10
1254.760499813172
 20
4948.078725819081
 11
1254.760499813172
 21
4947.17872581908
  0
LINE
  5
379
100
AcDbEntity
  8
0
  6
CONTINUOUS
 62
           3
100
AcDbLine
 10
1264.760499813172
 20
4947.17872581908
 11
1264.760499813172
 21
4948.078725819081
  0
LINE
  5
378
100
AcDbEntity
  8
0
  6
CONTINUOUS
 62
           3
100
AcDbLine
 10
1046.723570463222
 20
4823.507223267961
 11
1022.323570463223
 21
4823.507223267961
  0
LINE
  5
377
100
AcDbEntity
  8
0
  6
CONTINUOUS
 62
           3
100
AcDbLine
 10
1022.323570463223
 20
4708.507223267961
 11
1022.323570463223
 21
4823.507223267961
  0
LINE
  5
376
100
AcDbEntity
  8
0
  6
CONTINUOUS
 62
           3
100
AcDbLine
 10
1023.823570463223
 20
4708.507223267961
 11
1022.323570463223
 21
4708.507223267961
  0
LINE
  5
375
100
AcDbEntity
  8
0
  6
CONTINUOUS
 62
           3
100
AcDbLine
 10
1046.723570463222
 20
4708.507223267961
 11
1045.223570463222
 21
4708.507223267961
  0
LINE
  5
374
100
AcDbEntity
  8
0
  6
CONTINUOUS
 62
           3
100
AcDbLine
 10
1033.523570463222
 20
4721.907223267961
 11
1035.523570463222
 21
4721.907223267961
  0
LINE
  5
373
100
AcDbEntity
  8
0
  6
CONTINUOUS
 62
           3
100
AcDbLine
 10
1035.523570463222
 20
4727.107223267962
 11
1033.523570463222
 21
4727.107223267962
  0
LINE
  5
372
100
AcDbEntity
  8
0
  6
CONTINUOUS
 62
           3
100
AcDbLine
 10
1045.223570463222
 20
4708.507223267961
 11
1023.823570463223
 21
4708.507223267961
  0
LINE
  5
371
100
AcDbEntity
  8
0
  6
CONTINUOUS
 62
           3
100
AcDbLine
 10
1035.523570463222
 20
4796.107223267962
 11
1033.523570463222
 21
4796.107223267962
  0
LINE
  5
370
100
AcDbEntity
  8
0
  6
CONTINUOUS
 62
           3
100
AcDbLine
 10
1033.523570463222
 20
4790.907223267961
 11
1035.523570463222
 21
4790.907223267961
  0
LINE
  5
36F
100
AcDbEntity
  8
0
  6
CONTINUOUS
 62
           3
100
AcDbLine
 10
1025.623570463222
 20
4833.007223267961
 11
1043.623570463222
 21
4833.007223267961
  0
LINE
  5
36E
100
AcDbEntity
  8
0
  6
CONTINUOUS
 62
           3
100
AcDbLine
 10
1043.523570463222
 20
4823.507223267961
 11
1043.523570463222
 21
4831.507223267961
  0
LINE
  5
36D
100
AcDbEntity
  8
0
  6
CONTINUOUS
 62
           3
100
AcDbLine
 10
1045.023570463222
 20
4831.507223267961
 11
1045.023570463222
 21
4823.507223267961
  0
LINE
  5
36C
100
AcDbEntity
  8
0
  6
CONTINUOUS
 62
           3
100
AcDbLine
 10
1024.023570463222
 20
4823.507223267961
 11
1024.023570463222
 21
4831.507223267961
  0
LINE
  5
36B
100
AcDbEntity
  8
0
  6
CONTINUOUS
 62
           3
100
AcDbLine
 10
1025.523570463222
 20
4831.507223267961
 11
1025.523570463222
 21
4823.507223267961
  0
LINE
  5
36A
100
AcDbEntity
  8
0
  6
CONTINUOUS
 62
           3
100
AcDbLine
 10
1043.523570463222
 20
4831.507223267961
 11
1025.523570463222
 21
4831.507223267961
  0
LINE
  5
369
100
AcDbEntity
  8
0
  6
CONTINUOUS
 62
           3
100
AcDbLine
 10
1020.523570463222
 20
4828.905624865362
 11
1020.523570463222
 21
4830.007223267961
  0
LINE
  5
368
100
AcDbEntity
  8
0
  6
CONTINUOUS
 62
           3
100
AcDbLine
 10
1022.023570463222
 20
4830.007223267961
 11
1022.023570463222
 21
4828.905624865362
  0
LINE
  5
367
100
AcDbEntity
  8
0
  6
CONTINUOUS
 62
           3
100
AcDbLine
 10
1048.523570463222
 20
4830.007223267961
 11
1048.523570463222
 21
4828.905624865362
  0
LINE
  5
366
100
AcDbEntity
  8
0
  6
CONTINUOUS
 62
           3
100
AcDbLine
 10
1047.023570463222
 20
4828.905624865362
 11
1047.023570463222
 21
4830.007223267961
  0
LINE
  5
365
100
AcDbEntity
  8
0
  6
CONTINUOUS
 62
           3
100
AcDbLine
 10
1048.523570463222
 20
4828.905624865362
 11
1048.523570463222
 21
4818.407223267962
  0
LINE
  5
364
100
AcDbEntity
  8
0
  6
CONTINUOUS
 62
           3
100
AcDbLine
 10
1047.023570463222
 20
4828.905624865362
 11
1047.023570463222
 21
4823.507223267961
  0
LINE
  5
363
100
AcDbEntity
  8
0
  6
CONTINUOUS
 62
           3
100
AcDbLine
 10
1020.523570463222
 20
4828.905624865362
 11
1020.523570463222
 21
4818.607223267961
  0
LINE
  5
362
100
AcDbEntity
  8
0
  6
CONTINUOUS
 62
           3
100
AcDbLine
 10
1022.023570463222
 20
4828.905624865362
 11
1022.023570463222
 21
4820.007223267961
  0
LINE
  5
361
100
AcDbEntity
  8
0
  6
CONTINUOUS
 62
           3
100
AcDbLine
 10
1022.023570463222
 20
4810.007223267961
 11
1022.023570463222
 21
4809.060113943162
  0
LINE
  5
360
100
AcDbEntity
  8
0
  6
CONTINUOUS
 62
           3
100
AcDbLine
 10
1022.023570463222
 20
4809.060113943162
 11
1022.023570463222
 21
4806.596569380761
  0
LINE
  5
35F
100
AcDbEntity
  8
0
  6
CONTINUOUS
 62
           3
100
AcDbLine
 10
1022.023570463222
 20
4805.543340849961
 11
1022.323570463223
 21
4805.543340849961
  0
LINE
  5
35E
100
AcDbEntity
  8
0
  6
CONTINUOUS
 62
           3
100
AcDbLine
 10
1022.023570463222
 20
4735.78665932956
 11
1020.523570463222
 21
4735.78665932956
  0
LINE
  5
35D
100
AcDbEntity
  8
0
  6
CONTINUOUS
 62
           3
100
AcDbLine
 10
1048.523570463222
 20
4735.78665932956
 11
1047.023570463223
 21
4735.78665932956
  0
LINE
  5
35C
100
AcDbEntity
  8
0
  6
CONTINUOUS
 62
           3
100
AcDbLine
 10
1020.523570463222
 20
4735.78665932956
 11
1020.523570463222
 21
4811.407223267962
  0
LINE
  5
35B
100
AcDbEntity
  8
0
  6
CONTINUOUS
 62
           3
100
AcDbLine
 10
1022.023570463222
 20
4806.596569380761
 11
1022.023570463222
 21
4805.543340849961
  0
LINE
  5
35A
100
AcDbEntity
  8
0
  6
CONTINUOUS
 62
           3
100
AcDbLine
 10
1048.523570463222
 20
4735.78665932956
 11
1048.523570463222
 21
4811.607223267961
  0
LINE
  5
359
100
AcDbEntity
  8
0
  6
CONTINUOUS
 62
           3
100
AcDbLine
 10
1050.523570463222
 20
4827.007223267961
 11
1050.523570463222
 21
4821.007223267961
  0
LINE
  5
358
100
AcDbEntity
  8
0
  6
CONTINUOUS
 62
           1
100
AcDbLine
 10
1049.523570463222
 20
4829.007223267961
 11
1049.523570463222
 21
4819.007223267961
  0
LINE
  5
357
100
AcDbEntity
  8
0
  6
CONTINUOUS
 62
           1
100
AcDbLine
 10
1019.523570463222
 20
4829.007223267961
 11
1019.523570463222
 21
4819.007223267961
  0
LINE
  5
356
100
AcDbEntity
  8
0
  6
CONTINUOUS
 62
           3
100
AcDbLine
 10
1018.523570463222
 20
4827.007223267961
 11
1018.523570463222
 21
4821.007223267961
  0
LINE
  5
355
100
AcDbEntity
  8
0
  6
CONTINUOUS
 62
           3
100
AcDbLine
 10
1050.523570463222
 20
4739.507223267961
 11
1050.523570463222
 21
4745.507223267961
  0
LINE
  5
354
100
AcDbEntity
  8
0
  6
CONTINUOUS
 62
           3
100
AcDbLine
 10
1018.523570463222
 20
4739.507223267961
 11
1018.523570463222
 21
4745.507223267961
  0
LINE
  5
353
100
AcDbEntity
  8
0
  6
CONTINUOUS
 62
           1
100
AcDbLine
 10
1019.523570463222
 20
4737.507223267961
 11
1019.523570463222
 21
4747.507223267961
  0
LINE
  5
352
100
AcDbEntity
  8
0
  6
CONTINUOUS
 62
           1
100
AcDbLine
 10
1049.523570463222
 20
4737.507223267961
 11
1049.523570463222
 21
4747.507223267961
  0
LINE
  5
351
100
AcDbEntity
  8
0
  6
CONTINUOUS
 62
           3
100
AcDbLine
 10
1020.273570463222
 20
4818.007223267961
 11
1020.273570463222
 21
4812.007223267961
  0
LINE
  5
350
100
AcDbEntity
  8
0
  6
CONTINUOUS
 62
           3
100
AcDbLine
 10
1048.773570463222
 20
4818.007223267961
 11
1048.773570463222
 21
4812.007223267961
  0
LINE
  5
34F
100
AcDbEntity
  8
0
  6
CONTINUOUS
 62
           1
100
AcDbLine
 10
1047.773570463222
 20
4820.007223267961
 11
1047.773570463222
 21
4810.007223267961
  0
LINE
  5
34E
100
AcDbEntity
  8
0
  6
CONTINUOUS
 62
           3
100
AcDbLine
 10
1022.273570463222
 20
4820.007223267961
 11
1022.273570463222
 21
4819.032629489092
  0
LINE
  5
34D
100
AcDbEntity
  8
0
  6
CONTINUOUS
 62
           1
100
AcDbLine
 10
1021.273570463222
 20
4820.007223267961
 11
1021.273570463222
 21
4810.007223267961
  0
LINE
  5
34C
100
AcDbEntity
  8
0
  6
CONTINUOUS
 62
           3
100
AcDbLine
 10
1031.136723399022
 20
4794.53822331296
 11
1032.083570463222
 21
4794.532888244761
  0
LINE
  5
34B
100
AcDbEntity
  8
0
  6
CONTINUOUS
 62
           3
100
AcDbLine
 10
1032.083570463222
 20
4794.532888244761
 11
1036.563570463222
 21
4794.532888244761
  0
LINE
  5
34A
100
AcDbEntity
  8
0
  6
CONTINUOUS
 62
           3
100
AcDbLine
 10
1027.273570463222
 20
4830.329689481361
 11
1027.273570463222
 21
4828.023950663761
  0
LINE
  5
349
100
AcDbEntity
  8
0
  6
CONTINUOUS
 62
           3
100
AcDbLine
 10
1025.773570463222
 20
4828.023950663761
 11
1025.773570463222
 21
4830.329689481361
  0
LINE
  5
348
100
AcDbEntity
  8
0
  6
CONTINUOUS
 62
           3
100
AcDbLine
 10
1041.773570463222
 20
4828.023950663761
 11
1041.773570463222
 21
4830.329689481361
  0
LINE
  5
347
100
AcDbEntity
  8
0
  6
CONTINUOUS
 62
           3
100
AcDbLine
 10
1043.273570463222
 20
4830.329689481361
 11
1043.273570463222
 21
4828.023950663761
  0
LINE
  5
346
100
AcDbEntity
  8
0
  6
CONTINUOUS
 62
           3
100
AcDbLine
 10
1041.773570463222
 20
4828.023950663761
 11
1041.773570463222
 21
4826.507223267961
  0
LINE
  5
345
100
AcDbEntity
  8
0
  6
CONTINUOUS
 62
           3
100
AcDbLine
 10
1043.273570463222
 20
4828.023950663761
 11
1043.273570463222
 21
4826.507223267961
  0
LINE
  5
344
100
AcDbEntity
  8
0
  6
CONTINUOUS
 62
           3
100
AcDbLine
 10
1027.273570463222
 20
4826.507223267961
 11
1027.273570463222
 21
4828.023950663761
  0
LINE
  5
343
100
AcDbEntity
  8
0
  6
CONTINUOUS
 62
           3
100
AcDbLine
 10
1025.773570463222
 20
4826.507223267961
 11
1025.773570463222
 21
4828.023950663761
  0
LINE
  5
342
100
AcDbEntity
  8
0
  6
CONTINUOUS
 62
           3
100
AcDbLine
 10
1022.123570463222
 20
4820.007223267961
 11
1022.123570463222
 21
4821.507223267961
  0
LINE
  5
341
100
AcDbEntity
  8
0
  6
CONTINUOUS
 62
           3
100
AcDbLine
 10
1022.023570463222
 20
4830.007223267961
 11
1020.523570463222
 21
4830.007223267961
  0
LINE
  5
340
100
AcDbEntity
  8
0
  6
CONTINUOUS
 62
           3
100
AcDbLine
 10
1048.523570463222
 20
4830.007223267961
 11
1047.023570463222
 21
4830.007223267961
  0
LINE
  5
33F
100
AcDbEntity
  8
0
  6
CONTINUOUS
 62
           3
100
AcDbLine
 10
1022.023570463222
 20
4821.507223267961
 11
1022.123570463222
 21
4821.507223267961
  0
LINE
  5
33E
100
AcDbEntity
  8
0
  6
CONTINUOUS
 62
           3
100
AcDbLine
 10
1022.123570463222
 20
4826.507223267961
 11
1022.023570463222
 21
4826.507223267961
  0
LINE
  5
33D
100
AcDbEntity
  8
0
  6
CONTINUOUS
 62
           3
100
AcDbLine
 10
1043.523570463222
 20
4826.507223267961
 11
1025.523570463222
 21
4826.507223267961
  0
LINE
  5
33C
100
AcDbEntity
  8
0
  6
CONTINUOUS
 62
           3
100
AcDbLine
 10
1050.523570463222
 20
4827.007223267961
 11
1049.523570463222
 21
4829.007223267961
  0
LINE
  5
33B
100
AcDbEntity
  8
0
  6
CONTINUOUS
 62
           3
100
AcDbLine
 10
1049.523570463222
 20
4819.007223267961
 11
1050.523570463222
 21
4821.007223267961
  0
LINE
  5
33A
100
AcDbEntity
  8
0
  6
CONTINUOUS
 62
           3
100
AcDbLine
 10
1048.523570463222
 20
4819.007223267961
 11
1049.523570463222
 21
4819.007223267961
  0
LINE
  5
339
100
AcDbEntity
  8
0
  6
CONTINUOUS
 62
           3
100
AcDbLine
 10
1049.523570463222
 20
4829.007223267961
 11
1048.523570463222
 21
4829.007223267961
  0
LINE
  5
338
100
AcDbEntity
  8
0
  6
CONTINUOUS
 62
           3
100
AcDbLine
 10
1019.523570463222
 20
4819.007223267961
 11
1020.523570463222
 21
4819.007223267961
  0
LINE
  5
337
100
AcDbEntity
  8
0
  6
CONTINUOUS
 62
           3
100
AcDbLine
 10
1020.523570463222
 20
4829.007223267961
 11
1019.523570463222
 21
4829.007223267961
  0
LINE
  5
336
100
AcDbEntity
  8
0
  6
CONTINUOUS
 62
           3
100
AcDbLine
 10
1018.523570463222
 20
4821.007223267961
 11
1019.523570463222
 21
4819.007223267961
  0
LINE
  5
335
100
AcDbEntity
  8
0
  6
CONTINUOUS
 62
           3
100
AcDbLine
 10
1019.523570463222
 20
4829.007223267961
 11
1018.523570463222
 21
4827.007223267961
  0
LINE
  5
334
100
AcDbEntity
  8
0
  6
CONTINUOUS
 62
           3
100
AcDbLine
 10
1022.323570463223
 20
4745.007223267961
 11
1022.023570463222
 21
4745.007223267961
  0
LINE
  5
333
100
AcDbEntity
  8
0
  6
CONTINUOUS
 62
           3
100
AcDbLine
 10
1022.023570463222
 20
4740.007223267961
 11
1022.323570463223
 21
4740.007223267961
  0
LINE
  5
332
100
AcDbEntity
  8
0
  6
CONTINUOUS
 62
           3
100
AcDbLine
 10
1050.523570463222
 20
4745.507223267961
 11
1049.523570463222
 21
4747.507223267961
  0
LINE
  5
331
100
AcDbEntity
  8
0
  6
CONTINUOUS
 62
           3
100
AcDbLine
 10
1049.523570463222
 20
4737.507223267961
 11
1050.523570463222
 21
4739.507223267961
  0
LINE
  5
330
100
AcDbEntity
  8
0
  6
CONTINUOUS
 62
           3
100
AcDbLine
 10
1018.523570463222
 20
4739.507223267961
 11
1019.523570463222
 21
4737.507223267961
  0
LINE
  5
32F
100
AcDbEntity
  8
0
  6
CONTINUOUS
 62
           3
100
AcDbLine
 10
1019.523570463222
 20
4747.507223267961
 11
1018.523570463222
 21
4745.507223267961
  0
LINE
  5
32E
100
AcDbEntity
  8
0
  6
CONTINUOUS
 62
           3
100
AcDbLine
 10
1020.523570463222
 20
4747.507223267961
 11
1019.523570463222
 21
4747.507223267961
  0
LINE
  5
32D
100
AcDbEntity
  8
0
  6
CONTINUOUS
 62
           3
100
AcDbLine
 10
1019.523570463222
 20
4737.507223267961
 11
1020.523570463222
 21
4737.507223267961
  0
LINE
  5
32C
100
AcDbEntity
  8
0
  6
CONTINUOUS
 62
           3
100
AcDbLine
 10
1049.523570463222
 20
4747.507223267961
 11
1048.523570463222
 21
4747.507223267961
  0
LINE
  5
32B
100
AcDbEntity
  8
0
  6
CONTINUOUS
 62
           3
100
AcDbLine
 10
1048.523570463222
 20
4737.507223267961
 11
1049.523570463222
 21
4737.507223267961
  0
LINE
  5
32A
100
AcDbEntity
  8
0
  6
CONTINUOUS
 62
           3
100
AcDbLine
 10
1022.273570463222
 20
4812.507223267961
 11
1022.323570463223
 21
4812.507223267961
  0
LINE
  5
329
100
AcDbEntity
  8
0
  6
CONTINUOUS
 62
           3
100
AcDbLine
 10
1022.323570463223
 20
4817.507223267961
 11
1022.273570463222
 21
4817.507223267961
  0
LINE
  5
328
100
AcDbEntity
  8
0
  6
CONTINUOUS
 62
           3
100
AcDbLine
 10
1020.273570463222
 20
4812.007223267961
 11
1020.573570463222
 21
4811.407223267962
  0
LINE
  5
327
100
AcDbEntity
  8
0
  6
CONTINUOUS
 62
           3
100
AcDbLine
 10
1021.273570463222
 20
4820.007223267961
 11
1020.573570463222
 21
4818.607223267961
  0
LINE
  5
326
100
AcDbEntity
  8
0
  6
CONTINUOUS
 62
           3
100
AcDbLine
 10
1046.773570463222
 20
4810.007223267961
 11
1047.023570463222
 21
4810.007223267961
  0
LINE
  5
325
100
AcDbEntity
  8
0
  6
CONTINUOUS
 62
           3
100
AcDbLine
 10
1047.773570463222
 20
4820.007223267961
 11
1047.023570463223
 21
4820.007223267961
  0
LINE
  5
324
100
AcDbEntity
  8
0
  6
CONTINUOUS
 62
           3
100
AcDbLine
 10
1048.773570463222
 20
4818.007223267961
 11
1048.573570463222
 21
4818.407223267962
  0
LINE
  5
323
100
AcDbEntity
  8
0
  6
CONTINUOUS
 62
           3
100
AcDbLine
 10
1047.773570463222
 20
4810.007223267961
 11
1048.573570463222
 21
4811.607223267961
  0
LINE
  5
322
100
AcDbEntity
  8
0
  6
CONTINUOUS
 62
           3
100
AcDbLine
 10
1021.273570463222
 20
4810.007223267961
 11
1022.273570463222
 21
4810.007223267961
  0
LINE
  5
321
100
AcDbEntity
  8
0
  6
CONTINUOUS
 62
           3
100
AcDbLine
 10
1022.273570463222
 20
4820.007223267961
 11
1021.273570463222
 21
4820.007223267961
  0
LINE
  5
320
100
AcDbEntity
  8
0
  6
CONTINUOUS
 62
           3
100
AcDbLine
 10
1027.273570463222
 20
4830.329689481361
 11
1025.773570463222
 21
4830.329689481361
  0
LINE
  5
31F
100
AcDbEntity
  8
0
  6
CONTINUOUS
 62
           3
100
AcDbLine
 10
1043.273570463222
 20
4830.329689481361
 11
1041.773570463222
 21
4830.329689481361
  0
LINE
  5
31E
100
AcDbEntity
  8
0
  6
CONTINUOUS
 62
           3
100
AcDbLine
 10
1046.423570463222
 20
4829.007223267961
 11
1045.523570463222
 21
4829.007223267961
  0
LINE
  5
31D
100
AcDbEntity
  8
0
  6
CONTINUOUS
 62
           3
100
AcDbLine
 10
1023.523570463222
 20
4829.007223267961
 11
1022.623570463222
 21
4829.007223267961
  0
LINE
  5
31C
100
AcDbEntity
  8
0
  6
CONTINUOUS
 62
           3
100
AcDbLine
 10
1463.234170517452
 20
4708.507223267961
 11
1461.734170517452
 21
4708.507223267961
  0
LINE
  5
31B
100
AcDbEntity
  8
0
  6
CONTINUOUS
 62
           3
100
AcDbLine
 10
1450.234170517452
 20
4727.107223267962
 11
1452.234170517452
 21
4727.107223267962
  0
LINE
  5
31A
100
AcDbEntity
  8
0
  6
CONTINUOUS
 62
           3
100
AcDbLine
 10
1452.234170517452
 20
4721.907223267961
 11
1450.234170517452
 21
4721.907223267961
  0
LINE
  5
319
100
AcDbEntity
  8
0
  6
CONTINUOUS
 62
           3
100
AcDbLine
 10
1452.234170517452
 20
4790.907223267961
 11
1450.234170517452
 21
4790.907223267961
  0
LINE
  5
318
100
AcDbEntity
  8
0
  6
CONTINUOUS
 62
           3
100
AcDbLine
 10
1463.234170517452
 20
4730.507223267961
 11
1463.234170517452
 21
4708.507223267961
  0
LINE
  5
317
100
AcDbEntity
  8
0
  6
CONTINUOUS
 62
           3
100
AcDbLine
 10
1461.734170517452
 20
4708.507223267961
 11
1461.734170517452
 21
4730.507223267961
  0
LINE
  5
316
100
AcDbEntity
  8
0
  6
CONTINUOUS
 62
           3
100
AcDbLine
 10
1463.234170517452
 20
4735.507223267961
 11
1463.234170517452
 21
4730.507223267961
  0
LINE
  5
315
100
AcDbEntity
  8
0
  6
CONTINUOUS
 62
           3
100
AcDbLine
 10
1461.734170517452
 20
4730.507223267961
 11
1461.734170517452
 21
4735.507223267961
  0
LINE
  5
314
100
AcDbEntity
  8
0
  6
CONTINUOUS
 62
           3
100
AcDbLine
 10
1463.234170517452
 20
4742.507223267961
 11
1463.234170517452
 21
4735.507223267961
  0
LINE
  5
313
100
AcDbEntity
  8
0
  6
CONTINUOUS
 62
           3
100
AcDbLine
 10
1461.734170517452
 20
4735.507223267961
 11
1461.734170517452
 21
4742.507223267961
  0
LINE
  5
312
100
AcDbEntity
  8
0
  6
CONTINUOUS
 62
           3
100
AcDbLine
 10
1463.234170517452
 20
4735.507223267961
 11
1461.734170517452
 21
4735.507223267961
  0
LINE
  5
311
100
AcDbEntity
  8
0
  6
CONTINUOUS
 62
           3
100
AcDbLine
 10
1440.334170517452
 20
4805.543340849961
 11
1440.334170517452
 21
4811.507223267961
  0
LINE
  5
310
100
AcDbEntity
  8
0
  6
CONTINUOUS
 62
           3
100
AcDbLine
 10
1463.234170517452
 20
4816.507223267961
 11
1463.234170517452
 21
4817.507223267961
  0
LINE
  5
30F
100
AcDbEntity
  8
0
  6
CONTINUOUS
 62
           3
100
AcDbLine
 10
1463.234170517452
 20
4805.543340849961
 11
1463.234170517452
 21
4812.507223267961
  0
LINE
  5
30E
100
AcDbEntity
  8
0
  6
CONTINUOUS
 62
           3
100
AcDbLine
 10
1463.234170517452
 20
4742.507223267961
 11
1463.234170517452
 21
4752.922445986362
  0
LINE
  5
30D
100
AcDbEntity
  8
0
  6
CONTINUOUS
 62
           3
100
AcDbLine
 10
1461.734170517452
 20
4805.543340849961
 11
1461.734170517452
 21
4808.007223267961
  0
LINE
  5
30C
100
AcDbEntity
  8
0
  6
CONTINUOUS
 62
           3
100
AcDbLine
 10
1461.734170517452
 20
4742.507223267961
 11
1461.734170517452
 21
4753.071901233161
  0
LINE
  5
30B
100
AcDbEntity
  8
0
  6
CONTINUOUS
 62
           3
100
AcDbLine
 10
1463.234170517452
 20
4819.017325319561
 11
1463.234170517452
 21
4817.507223267961
  0
LINE
  5
30A
100
AcDbEntity
  8
0
  6
CONTINUOUS
 62
           3
100
AcDbLine
 10
1440.334170517452
 20
4819.017325319561
 11
1440.334170517452
 21
4817.507223267961
  0
LINE
  5
309
100
AcDbEntity
  8
0
  6
CONTINUOUS
 62
           3
100
AcDbLine
 10
1442.484170517452
 20
4812.037946709161
 11
1442.234170517452
 21
4812.037946709161
  0
LINE
  5
308
100
AcDbEntity
  8
0
  6
CONTINUOUS
 62
           3
100
AcDbLine
 10
1459.984170517452
 20
4812.037946709161
 11
1460.234170517452
 21
4812.037946709161
  0
LINE
  5
307
100
AcDbEntity
  8
0
  6
CONTINUOUS
 62
           3
100
AcDbLine
 10
1442.484170517452
 20
4819.176499826761
 11
1442.234170517452
 21
4819.176499826761
  0
LINE
  5
306
100
AcDbEntity
  8
0
  6
CONTINUOUS
 62
           3
100
AcDbLine
 10
1442.484170517452
 20
4812.177565960761
 11
1442.234170517452
 21
4812.177565960761
  0
LINE
  5
305
100
AcDbEntity
  8
0
  6
CONTINUOUS
 62
           3
100
AcDbLine
 10
1459.984170517452
 20
4812.177565960761
 11
1460.234170517452
 21
4812.177565960761
  0
LINE
  5
304
100
AcDbEntity
  8
0
  6
CONTINUOUS
 62
           3
100
AcDbLine
 10
1459.984170517452
 20
4819.176499826761
 11
1460.234170517452
 21
4819.176499826761
  0
LINE
  5
303
100
AcDbEntity
  8
0
  6
CONTINUOUS
 62
           3
100
AcDbLine
 10
1444.934170517452
 20
4813.345393051161
 11
1444.934170517452
 21
4812.345393051161
  0
LINE
  5
302
100
AcDbEntity
  8
0
  6
CONTINUOUS
 62
           3
100
AcDbLine
 10
1443.734170517452
 20
4812.345393051161
 11
1443.734170517452
 21
4813.345393051161
  0
LINE
  5
301
100
AcDbEntity
  8
0
  6
CONTINUOUS
 62
           3
100
AcDbLine
 10
1444.934170517452
 20
4812.345393051161
 11
1443.734170517452
 21
4812.345393051161
  0
LINE
  5
300
100
AcDbEntity
  8
0
  6
CONTINUOUS
 62
           3
100
AcDbLine
 10
1442.234170517452
 20
4815.66744134536
 11
1443.734170517452
 21
4814.327659422561
  0
LINE
  5
2FF
100
AcDbEntity
  8
0
  6
CONTINUOUS
 62
           3
100
AcDbLine
 10
1443.734170517452
 20
4814.327659422561
 11
1443.734170517452
 21
4813.345393051161
  0
LINE
  5
2FE
100
AcDbEntity
  8
0
  6
CONTINUOUS
 62
           3
100
AcDbLine
 10
1444.934170517452
 20
4813.345393051161
 11
1444.934170517452
 21
4814.59561580716
  0
LINE
  5
2FD
100
AcDbEntity
  8
0
  6
CONTINUOUS
 62
           3
100
AcDbLine
 10
1444.934170517452
 20
4814.59561580716
 11
1442.234170517452
 21
4817.007223267961
  0
LINE
  5
2FC
100
AcDbEntity
  8
0
  6
CONTINUOUS
 62
           3
100
AcDbLine
 10
1440.734170517452
 20
4808.007223267961
 11
1440.734170517452
 21
4813.007223267961
  0
LINE
  5
2FB
100
AcDbEntity
  8
0
  6
CONTINUOUS
 62
           3
100
AcDbLine
 10
1442.234170517452
 20
4813.007223267961
 11
1442.234170517452
 21
4808.007223267961
  0
LINE
  5
2FA
100
AcDbEntity
  8
0
  6
CONTINUOUS
 62
           3
100
AcDbLine
 10
1442.234170517452
 20
4808.007223267961
 11
1440.734170517452
 21
4808.007223267961
  0
LINE
  5
2F9
100
AcDbEntity
  8
0
  6
CONTINUOUS
 62
           3
100
AcDbLine
 10
1461.734170517452
 20
4813.007223267961
 11
1461.734170517452
 21
4808.007223267961
  0
LINE
  5
2F8
100
AcDbEntity
  8
0
  6
CONTINUOUS
 62
           3
100
AcDbLine
 10
1460.234170517452
 20
4808.007223267961
 11
1460.234170517452
 21
4813.007223267961
  0
LINE
  5
2F7
100
AcDbEntity
  8
0
  6
CONTINUOUS
 62
           3
100
AcDbLine
 10
1461.734170517452
 20
4808.007223267961
 11
1460.234170517452
 21
4808.007223267961
  0
LINE
  5
2F6
100
AcDbEntity
  8
0
  6
CONTINUOUS
 62
           3
100
AcDbLine
 10
1460.234170517452
 20
4833.007223267961
 11
1442.234170517452
 21
4833.007223267961
  0
LINE
  5
2F5
100
AcDbEntity
  8
0
  6
CONTINUOUS
 62
           3
100
AcDbLine
 10
1460.234170517452
 20
4831.507223267961
 11
1460.234170517452
 21
4813.007223267961
  0
LINE
  5
2F4
100
AcDbEntity
  8
0
  6
CONTINUOUS
 62
           3
100
AcDbLine
 10
1461.734170517452
 20
4813.007223267961
 11
1461.734170517452
 21
4831.507223267961
  0
LINE
  5
2F3
100
AcDbEntity
  8
0
  6
CONTINUOUS
 62
           3
100
AcDbLine
 10
1440.734170517452
 20
4831.507223267961
 11
1440.734170517452
 21
4813.007223267961
  0
LINE
  5
2F2
100
AcDbEntity
  8
0
  6
CONTINUOUS
 62
           3
100
AcDbLine
 10
1442.234170517452
 20
4813.007223267961
 11
1442.234170517452
 21
4831.507223267961
  0
LINE
  5
2F1
100
AcDbEntity
  8
0
  6
CONTINUOUS
 62
           3
100
AcDbLine
 10
1442.234170517452
 20
4831.507223267961
 11
1460.234170517452
 21
4831.507223267961
  0
LINE
  5
2F0
100
AcDbEntity
  8
0
  6
CONTINUOUS
 62
           3
100
AcDbLine
 10
1438.734170517452
 20
4736.55920970316
 11
1438.734170517452
 21
4752.922445986362
  0
LINE
  5
2EF
100
AcDbEntity
  8
0
  6
CONTINUOUS
 62
           3
100
AcDbLine
 10
1437.234170517453
 20
4754.14704638576
 11
1437.234170517452
 21
4736.55920970316
  0
LINE
  5
2EE
100
AcDbEntity
  8
0
  6
CONTINUOUS
 62
           3
100
AcDbLine
 10
1465.234170517453
 20
4754.14704638576
 11
1465.234170517452
 21
4736.55920970316
  0
LINE
  5
2ED
100
AcDbEntity
  8
0
  6
CONTINUOUS
 62
           3
100
AcDbLine
 10
1463.734170517452
 20
4752.922445986362
 11
1463.734170517452
 21
4745.007223267961
  0
LINE
  5
2EC
100
AcDbEntity
  8
0
  6
CONTINUOUS
 62
           3
100
AcDbLine
 10
1465.234170517453
 20
4805.543340849961
 11
1465.234170517453
 21
4754.14704638576
  0
LINE
  5
2EB
100
AcDbEntity
  8
0
  6
CONTINUOUS
 62
           3
100
AcDbLine
 10
1437.234170517453
 20
4754.14704638576
 11
1437.234170517453
 21
4805.543340849961
  0
LINE
  5
2EA
100
AcDbEntity
  8
0
  6
CONTINUOUS
 62
           3
100
AcDbLine
 10
1442.484170517452
 20
4805.543340849961
 11
1438.734170517453
 21
4805.543340849961
  0
LINE
  5
2E9
100
AcDbEntity
  8
0
  6
CONTINUOUS
 62
           3
100
AcDbLine
 10
1463.834170517452
 20
4805.543340849961
 11
1460.399137882052
 21
4805.543340849961
  0
LINE
  5
2E8
100
AcDbEntity
  8
0
  6
CONTINUOUS
 62
           3
100
AcDbLine
 10
1438.734170517453
 20
4830.007223267961
 11
1438.734170517453
 21
4827.472141995961
  0
LINE
  5
2E7
100
AcDbEntity
  8
0
  6
CONTINUOUS
 62
           3
100
AcDbLine
 10
1437.234170517453
 20
4827.472141995961
 11
1437.234170517453
 21
4830.007223267961
  0
LINE
  5
2E6
100
AcDbEntity
  8
0
  6
CONTINUOUS
 62
           3
100
AcDbLine
 10
1465.234170517453
 20
4830.007223267961
 11
1465.234170517453
 21
4827.472141995961
  0
LINE
  5
2E5
100
AcDbEntity
  8
0
  6
CONTINUOUS
 62
           3
100
AcDbLine
 10
1463.734170517453
 20
4827.472141995961
 11
1463.734170517453
 21
4830.007223267961
  0
LINE
  5
2E4
100
AcDbEntity
  8
0
  6
CONTINUOUS
 62
           3
100
AcDbLine
 10
1446.234170517452
 20
4781.219282264361
 11
1446.234170517452
 21
4769.669553171361
  0
LINE
  5
2E3
100
AcDbEntity
  8
0
  6
CONTINUOUS
 62
           3
100
AcDbLine
 10
1456.234170517452
 20
4769.669553171361
 11
1456.234170517452
 21
4781.219282264361
  0
LINE
  5
2E2
100
AcDbEntity
  8
0
  6
CONTINUOUS
 62
           3
100
AcDbLine
 10
1446.234170517452
 20
4794.57807590296
 11
1446.234170517452
 21
4789.881579084362
  0
LINE
  5
2E1
100
AcDbEntity
  8
0
  6
CONTINUOUS
 62
           3
100
AcDbLine
 10
1456.234170517452
 20
4789.881579084362
 11
1456.234170517452
 21
4794.58588673596
  0
LINE
  5
2E0
100
AcDbEntity
  8
0
  6
CONTINUOUS
 62
           3
100
AcDbLine
 10
1442.484170517452
 20
4804.318740450761
 11
1438.734170517453
 21
4804.318740450761
  0
LINE
  5
2DF
100
AcDbEntity
  8
0
  6
CONTINUOUS
 62
           3
100
AcDbLine
 10
1438.734170517461
 20
4752.922445986513
 11
1439.234170517451
 21
4752.922445986513
  0
LINE
  5
2DE
100
AcDbEntity
  8
0
  6
CONTINUOUS
 62
           3
100
AcDbLine
 10
1462.853120556061
 20
4752.922445986513
 11
1463.734170517461
 21
4752.922445986513
  0
LINE
  5
2DD
100
AcDbEntity
  8
0
  6
CONTINUOUS
 62
           3
100
AcDbLine
 10
1463.834170517452
 20
4804.318740450761
 11
1460.399137882052
 21
4804.318740450761
  0
LINE
  5
2DC
100
AcDbEntity
  8
0
  6
CONTINUOUS
 62
           3
100
AcDbLine
 10
1438.734170517453
 20
4809.567291358761
 11
1438.734170517453
 21
4805.543340849961
  0
LINE
  5
2DB
100
AcDbEntity
  8
0
  6
CONTINUOUS
 62
           3
100
AcDbLine
 10
1437.234170517453
 20
4805.543340849961
 11
1437.234170517453
 21
4809.567291358761
  0
LINE
  5
2DA
100
AcDbEntity
  8
0
  6
CONTINUOUS
 62
           3
100
AcDbLine
 10
1437.234170517453
 20
4805.543340849961
 11
1438.734170517453
 21
4805.543340849961
  0
LINE
  5
2D9
100
AcDbEntity
  8
0
  6
CONTINUOUS
 62
           3
100
AcDbLine
 10
1465.234170517453
 20
4805.543340849961
 11
1465.234170517453
 21
4809.567291358761
  0
LINE
  5
2D8
100
AcDbEntity
  8
0
  6
CONTINUOUS
 62
           3
100
AcDbLine
 10
1463.734170517453
 20
4805.543340849961
 11
1463.734170517453
 21
4809.567291358761
  0
LINE
  5
2D7
100
AcDbEntity
  8
0
  6
CONTINUOUS
 62
           3
100
AcDbLine
 10
1463.734170517453
 20
4805.543340849961
 11
1465.234170517453
 21
4805.543340849961
  0
LINE
  5
2D6
100
AcDbEntity
  8
0
  6
CONTINUOUS
 62
           3
100
AcDbLine
 10
1465.234170517453
 20
4822.172260221561
 11
1465.234170517453
 21
4827.472141995961
  0
LINE
  5
2D5
100
AcDbEntity
  8
0
  6
CONTINUOUS
 62
           3
100
AcDbLine
 10
1463.734170517453
 20
4827.472141995961
 11
1463.734170517453
 21
4826.507223267961
  0
LINE
  5
2D4
100
AcDbEntity
  8
0
  6
CONTINUOUS
 62
           3
100
AcDbLine
 10
1438.734170517453
 20
4822.172260221561
 11
1438.734170517453
 21
4827.472141995961
  0
LINE
  5
2D3
100
AcDbEntity
  8
0
  6
CONTINUOUS
 62
           3
100
AcDbLine
 10
1437.234170517453
 20
4822.172260221561
 11
1437.234170517453
 21
4827.472141995961
  0
LINE
  5
2D2
100
AcDbEntity
  8
0
  6
CONTINUOUS
 62
           3
100
AcDbLine
 10
1438.734170517453
 20
4822.172260221561
 11
1438.734170517453
 21
4819.88143942116
  0
LINE
  5
2D1
100
AcDbEntity
  8
0
  6
CONTINUOUS
 62
           3
100
AcDbLine
 10
1437.234170517453
 20
4819.88143942116
 11
1437.234170517453
 21
4822.172260221561
  0
LINE
  5
2D0
100
AcDbEntity
  8
0
  6
CONTINUOUS
 62
           3
100
AcDbLine
 10
1465.234170517453
 20
4822.172260221561
 11
1465.234170517453
 21
4819.88143942116
  0
LINE
  5
2CF
100
AcDbEntity
  8
0
  6
CONTINUOUS
 62
           3
100
AcDbLine
 10
1463.734170517453
 20
4819.88143942116
 11
1463.734170517453
 21
4820.007223267961
  0
LINE
  5
2CE
100
AcDbEntity
  8
0
  6
CONTINUOUS
 62
           3
100
AcDbLine
 10
1438.734170517453
 20
4812.852017441761
 11
1438.734170517453
 21
4809.567291358761
  0
LINE
  5
2CD
100
AcDbEntity
  8
0
  6
CONTINUOUS
 62
           3
100
AcDbLine
 10
1437.234170517453
 20
4809.567291358761
 11
1437.234170517453
 21
4812.852017441761
  0
LINE
  5
2CC
100
AcDbEntity
  8
0
  6
CONTINUOUS
 62
           3
100
AcDbLine
 10
1465.234170517453
 20
4812.852017441761
 11
1465.234170517453
 21
4809.567291358761
  0
LINE
  5
2CB
100
AcDbEntity
  8
0
  6
CONTINUOUS
 62
           3
100
AcDbLine
 10
1463.734170517453
 20
4809.567291358761
 11
1463.734170517453
 21
4812.852017441761
  0
LINE
  5
2CA
100
AcDbEntity
  8
0
  6
CONTINUOUS
 62
           3
100
AcDbLine
 10
1465.234170517453
 20
4819.88143942116
 11
1465.234170517453
 21
4812.852017441761
  0
LINE
  5
2C9
100
AcDbEntity
  8
0
  6
CONTINUOUS
 62
           3
100
AcDbLine
 10
1463.734170517453
 20
4812.852017441761
 11
1463.734170517453
 21
4819.88143942116
  0
LINE
  5
2C8
100
AcDbEntity
  8
0
  6
CONTINUOUS
 62
           3
100
AcDbLine
 10
1438.734170517453
 20
4819.88143942116
 11
1438.734170517453
 21
4812.852017441761
  0
LINE
  5
2C7
100
AcDbEntity
  8
0
  6
CONTINUOUS
 62
           3
100
AcDbLine
 10
1437.234170517453
 20
4812.852017441761
 11
1437.234170517453
 21
4819.88143942116
  0
LINE
  5
2C6
100
AcDbEntity
  8
0
  6
CONTINUOUS
 62
           3
100
AcDbLine
 10
1467.234170517453
 20
4821.007223267961
 11
1467.234170517453
 21
4827.007223267961
  0
LINE
  5
2C5
100
AcDbEntity
  8
0
  6
CONTINUOUS
 62
           1
100
AcDbLine
 10
1466.234170517453
 20
4819.007223267961
 11
1466.234170517453
 21
4829.007223267961
  0
LINE
  5
2C4
100
AcDbEntity
  8
0
  6
CONTINUOUS
 62
           3
100
AcDbLine
 10
1435.234170517453
 20
4821.007223267961
 11
1435.234170517453
 21
4827.007223267961
  0
LINE
  5
2C3
100
AcDbEntity
  8
0
  6
CONTINUOUS
 62
           1
100
AcDbLine
 10
1436.234170517453
 20
4819.007223267961
 11
1436.234170517453
 21
4829.007223267961
  0
LINE
  5
2C2
100
AcDbEntity
  8
0
  6
CONTINUOUS
 62
           3
100
AcDbLine
 10
1435.234170517452
 20
4745.507223267961
 11
1435.234170517452
 21
4739.507223267961
  0
LINE
  5
2C1
100
AcDbEntity
  8
0
  6
CONTINUOUS
 62
           1
100
AcDbLine
 10
1436.234170517452
 20
4747.507223267961
 11
1436.234170517452
 21
4737.507223267961
  0
LINE
  5
2C0
100
AcDbEntity
  8
0
  6
CONTINUOUS
 62
           3
100
AcDbLine
 10
1467.234170517452
 20
4745.507223267961
 11
1467.234170517452
 21
4739.507223267961
  0
LINE
  5
2BF
100
AcDbEntity
  8
0
  6
CONTINUOUS
 62
           1
100
AcDbLine
 10
1466.234170517452
 20
4747.507223267961
 11
1466.234170517452
 21
4737.507223267961
  0
LINE
  5
2BE
100
AcDbEntity
  8
0
  6
CONTINUOUS
 62
           3
100
AcDbLine
 10
1463.234170517452
 20
4812.507223267961
 11
1463.234170517452
 21
4816.507223267961
  0
LINE
  5
2BD
100
AcDbEntity
  8
0
  6
CONTINUOUS
 62
           1
100
AcDbLine
 10
1462.734170517452
 20
4811.507223267961
 11
1462.734170517452
 21
4817.507223267961
  0
LINE
  5
2BC
100
AcDbEntity
  8
0
  6
CONTINUOUS
 62
           3
100
AcDbLine
 10
1439.234170517452
 20
4812.507223267961
 11
1439.234170517452
 21
4816.507223267961
  0
LINE
  5
2BB
100
AcDbEntity
  8
0
  6
CONTINUOUS
 62
           1
100
AcDbLine
 10
1439.734170517452
 20
4811.507223267961
 11
1439.734170517452
 21
4817.507223267961
  0
LINE
  5
2BA
100
AcDbEntity
  8
0
  6
CONTINUOUS
 62
           3
100
AcDbLine
 10
1436.734170517453
 20
4812.007223267961
 11
1436.734170517453
 21
4818.007223267961
  0
LINE
  5
2B9
100
AcDbEntity
  8
0
  6
CONTINUOUS
 62
           3
100
AcDbLine
 10
1463.334170517452
 20
4810.007223267961
 11
1463.334170517452
 21
4819.048965698561
  0
LINE
  5
2B8
100
AcDbEntity
  8
0
  6
CONTINUOUS
 62
           3
100
AcDbLine
 10
1458.484170517452
 20
4830.248251012361
 11
1458.484170517452
 21
4830.329689481361
  0
LINE
  5
2B7
100
AcDbEntity
  8
0
  6
CONTINUOUS
 62
           3
100
AcDbLine
 10
1459.984170517452
 20
4830.329689481361
 11
1459.984170517452
 21
4830.248251012361
  0
LINE
  5
2B6
100
AcDbEntity
  8
0
  6
CONTINUOUS
 62
           3
100
AcDbLine
 10
1443.984170517452
 20
4830.329689481361
 11
1443.984170517452
 21
4830.248251012361
  0
LINE
  5
2B5
100
AcDbEntity
  8
0
  6
CONTINUOUS
 62
           3
100
AcDbLine
 10
1442.484170517452
 20
4830.248251012361
 11
1442.484170517452
 21
4830.329689481361
  0
LINE
  5
2B4
100
AcDbEntity
  8
0
  6
CONTINUOUS
 62
           3
100
AcDbLine
 10
1443.984170517452
 20
4825.83191105936
 11
1443.984170517452
 21
4830.248251012361
  0
LINE
  5
2B3
100
AcDbEntity
  8
0
  6
CONTINUOUS
 62
           3
100
AcDbLine
 10
1442.484170517452
 20
4830.248251012361
 11
1442.484170517452
 21
4825.83191105936
  0
LINE
  5
2B2
100
AcDbEntity
  8
0
  6
CONTINUOUS
 62
           3
100
AcDbLine
 10
1458.484170517452
 20
4830.248251012361
 11
1458.484170517452
 21
4825.83191105936
  0
LINE
  5
2B1
100
AcDbEntity
  8
0
  6
CONTINUOUS
 62
           3
100
AcDbLine
 10
1459.984170517452
 20
4830.248251012361
 11
1459.984170517452
 21
4825.83191105936
  0
LINE
  5
2B0
100
AcDbEntity
  8
0
  6
CONTINUOUS
 62
           3
100
AcDbLine
 10
1443.984170517452
 20
4825.83191105936
 11
1443.984170517452
 21
4825.44533024116
  0
LINE
  5
2AF
100
AcDbEntity
  8
0
  6
CONTINUOUS
 62
           3
100
AcDbLine
 10
1442.484170517452
 20
4825.44533024116
 11
1442.484170517452
 21
4825.83191105936
  0
LINE
  5
2AE
100
AcDbEntity
  8
0
  6
CONTINUOUS
 62
           3
100
AcDbLine
 10
1458.484170517452
 20
4825.44533024116
 11
1458.484170517452
 21
4825.83191105936
  0
LINE
  5
2AD
100
AcDbEntity
  8
0
  6
CONTINUOUS
 62
           3
100
AcDbLine
 10
1459.984170517452
 20
4825.83191105936
 11
1459.984170517452
 21
4825.44533024116
  0
LINE
  5
2AC
100
AcDbEntity
  8
0
  6
CONTINUOUS
 62
           3
100
AcDbLine
 10
1443.984170517452
 20
4821.00643344596
 11
1443.984170517452
 21
4825.44533024116
  0
LINE
  5
2AB
100
AcDbEntity
  8
0
  6
CONTINUOUS
 62
           3
100
AcDbLine
 10
1442.484170517452
 20
4825.44533024116
 11
1442.484170517452
 21
4821.00643344596
  0
LINE
  5
2AA
100
AcDbEntity
  8
0
  6
CONTINUOUS
 62
           3
100
AcDbLine
 10
1458.484170517452
 20
4825.44533024116
 11
1458.484170517452
 21
4821.00643344596
  0
LINE
  5
2A9
100
AcDbEntity
  8
0
  6
CONTINUOUS
 62
           3
100
AcDbLine
 10
1459.984170517452
 20
4825.44533024116
 11
1459.984170517452
 21
4821.00643344596
  0
LINE
  5
2A8
100
AcDbEntity
  8
0
  6
CONTINUOUS
 62
           3
100
AcDbLine
 10
1443.984170517452
 20
4820.830773251961
 11
1443.984170517452
 21
4821.00643344596
  0
LINE
  5
2A7
100
AcDbEntity
  8
0
  6
CONTINUOUS
 62
           3
100
AcDbLine
 10
1442.484170517452
 20
4821.00643344596
 11
1442.484170517452
 21
4820.830773251961
  0
LINE
  5
2A6
100
AcDbEntity
  8
0
  6
CONTINUOUS
 62
           3
100
AcDbLine
 10
1443.984170517452
 20
4821.00643344596
 11
1442.484170517452
 21
4821.00643344596
  0
LINE
  5
2A5
100
AcDbEntity
  8
0
  6
CONTINUOUS
 62
           3
100
AcDbLine
 10
1458.484170517452
 20
4821.00643344596
 11
1458.484170517452
 21
4820.830773251961
  0
LINE
  5
2A4
100
AcDbEntity
  8
0
  6
CONTINUOUS
 62
           3
100
AcDbLine
 10
1459.984170517452
 20
4821.00643344596
 11
1459.984170517452
 21
4820.830773251961
  0
LINE
  5
2A3
100
AcDbEntity
  8
0
  6
CONTINUOUS
 62
           3
100
AcDbLine
 10
1459.984170517452
 20
4821.00643344596
 11
1458.484170517452
 21
4821.00643344596
  0
LINE
  5
2A2
100
AcDbEntity
  8
0
  6
CONTINUOUS
 62
           3
100
AcDbLine
 10
1458.484170517452
 20
4820.830773251961
 11
1458.484170517452
 21
4808.796912755161
  0
LINE
  5
2A1
100
AcDbEntity
  8
0
  6
CONTINUOUS
 62
           3
100
AcDbLine
 10
1459.984170517452
 20
4820.830773251961
 11
1459.984170517452
 21
4819.176499826761
  0
LINE
  5
2A0
100
AcDbEntity
  8
0
  6
CONTINUOUS
 62
           3
100
AcDbLine
 10
1443.984170517452
 20
4815.444144358162
 11
1443.984170517452
 21
4820.830773251961
  0
LINE
  5
29F
100
AcDbEntity
  8
0
  6
CONTINUOUS
 62
           3
100
AcDbLine
 10
1443.984170517452
 20
4808.796912755161
 11
1443.984170517452
 21
4812.345393051161
  0
LINE
  5
29E
100
AcDbEntity
  8
0
  6
CONTINUOUS
 62
           3
100
AcDbLine
 10
1442.484170517452
 20
4816.783926280961
 11
1442.484170517452
 21
4819.176499826761
  0
LINE
  5
29D
100
AcDbEntity
  8
0
  6
CONTINUOUS
 62
           3
100
AcDbLine
 10
1442.484170517452
 20
4808.796912755161
 11
1442.484170517452
 21
4812.037946709161
  0
LINE
  5
29C
100
AcDbEntity
  8
0
  6
CONTINUOUS
 62
           3
100
AcDbLine
 10
1458.474170517452
 20
4810.117365857761
 11
1457.984170517452
 21
4810.117365857761
  0
LINE
  5
29B
100
AcDbEntity
  8
0
  6
CONTINUOUS
 62
           3
100
AcDbLine
 10
1456.234170517452
 20
4821.213973757962
 11
1458.474170517452
 21
4821.213973757962
  0
LINE
  5
29A
100
AcDbEntity
  8
0
  6
CONTINUOUS
 62
           3
100
AcDbLine
 10
1456.234170517452
 20
4821.213973757962
 11
1456.234170517452
 21
4821.507223267961
  0
LINE
  5
299
100
AcDbEntity
  8
0
  6
CONTINUOUS
 62
           3
100
AcDbLine
 10
1446.234170517452
 20
4821.507223267961
 11
1446.234170517452
 21
4821.213973757962
  0
LINE
  5
298
100
AcDbEntity
  8
0
  6
CONTINUOUS
 62
           3
100
AcDbLine
 10
1443.994170517452
 20
4821.213973757962
 11
1446.234170517452
 21
4821.213973757962
  0
LINE
  5
297
100
AcDbEntity
  8
0
  6
CONTINUOUS
 62
           3
100
AcDbLine
 10
1444.484170517452
 20
4810.117365857761
 11
1443.994170517452
 21
4810.117365857761
  0
LINE
  5
296
100
AcDbEntity
  8
0
  6
CONTINUOUS
 62
           3
100
AcDbLine
 10
1444.484170517452
 20
4810.117365857761
 11
1444.484170517452
 21
4809.168542241561
  0
LINE
  5
295
100
AcDbEntity
  8
0
  6
CONTINUOUS
 62
           3
100
AcDbLine
 10
1443.994170517452
 20
4809.168542241561
 11
1444.484170517452
 21
4809.168542241561
  0
LINE
  5
294
100
AcDbEntity
  8
0
  6
CONTINUOUS
 62
           3
100
AcDbLine
 10
1457.984170517452
 20
4809.168542241561
 11
1458.474170517452
 21
4809.168542241561
  0
LINE
  5
293
100
AcDbEntity
  8
0
  6
CONTINUOUS
 62
           3
100
AcDbLine
 10
1457.984170517452
 20
4809.168542241561
 11
1457.984170517452
 21
4810.117365857761
  0
LINE
  5
292
100
AcDbEntity
  8
0
  6
CONTINUOUS
 62
           3
100
AcDbLine
 10
1458.484170517452
 20
4805.184090041761
 11
1458.484170517452
 21
4796.32690914002
  0
LINE
  5
291
100
AcDbEntity
  8
0
  6
CONTINUOUS
 62
           3
100
AcDbLine
 10
1459.984170517452
 20
4805.184090041761
 11
1459.984170517452
 21
4796.924560908761
  0
LINE
  5
290
100
AcDbEntity
  8
0
  6
CONTINUOUS
 62
           3
100
AcDbLine
 10
1458.484170517452
 20
4796.924560908761
 11
1459.984170517452
 21
4796.924560908761
  0
LINE
  5
28F
100
AcDbEntity
  8
0
  6
CONTINUOUS
 62
           3
100
AcDbLine
 10
1443.984170517452
 20
4794.829519533626
 11
1443.984170517452
 21
4795.465572795985
  0
LINE
  5
28E
100
AcDbEntity
  8
0
  6
CONTINUOUS
 62
           3
100
AcDbLine
 10
1442.484170517452
 20
4796.924560908761
 11
1442.484170517452
 21
4804.318740450761
  0
LINE
  5
28D
100
AcDbEntity
  8
0
  6
CONTINUOUS
 62
           3
100
AcDbLine
 10
1443.984170517452
 20
4796.924560908761
 11
1442.484170517452
 21
4796.924560908761
  0
LINE
  5
28C
100
AcDbEntity
  8
0
  6
CONTINUOUS
 62
           3
100
AcDbLine
 10
1459.984170517452
 20
4808.796912755161
 11
1459.984170517452
 21
4805.184090041761
  0
LINE
  5
28B
100
AcDbEntity
  8
0
  6
CONTINUOUS
 62
           3
100
AcDbLine
 10
1458.484170517452
 20
4805.184090041761
 11
1458.484170517452
 21
4808.796912755161
  0
LINE
  5
28A
100
AcDbEntity
  8
0
  6
CONTINUOUS
 62
           3
100
AcDbLine
 10
1442.484170517452
 20
4805.184090041761
 11
1442.484170517452
 21
4805.543340849961
  0
LINE
  5
289
100
AcDbEntity
  8
0
  6
CONTINUOUS
 62
           3
100
AcDbLine
 10
1443.984170517452
 20
4808.796912755161
 11
1443.984170517452
 21
4805.184090041761
  0
LINE
  5
288
100
AcDbEntity
  8
0
  6
CONTINUOUS
 62
           3
100
AcDbLine
 10
1453.474170517452
 20
4794.532888244761
 11
1452.034170517452
 21
4794.532888244761
  0
LINE
  5
287
100
AcDbEntity
  8
0
  6
CONTINUOUS
 62
           3
100
AcDbLine
 10
1453.474170517452
 20
4796.030277850961
 11
1448.994170517452
 21
4796.030277850961
  0
LINE
  5
286
100
AcDbEntity
  8
0
  6
CONTINUOUS
 62
           3
100
AcDbLine
 10
1463.634170517452
 20
4828.507222725961
 11
1463.634170517452
 21
4819.507223267961
  0
LINE
  5
285
100
AcDbEntity
  8
0
  6
CONTINUOUS
 62
           3
100
AcDbLine
 10
1444.186749491252
 20
4749.007223267961
 11
1444.186749491252
 21
4748.007223267961
  0
LINE
  5
284
100
AcDbEntity
  8
0
  6
CONTINUOUS
 62
           3
100
AcDbLine
 10
1458.012582516052
 20
4747.507223267961
 11
1457.829569814252
 21
4747.507223267961
  0
LINE
  5
283
100
AcDbEntity
  8
0
  6
CONTINUOUS
 62
           3
100
AcDbLine
 10
1457.579569814252
 20
4748.007223267961
 11
1457.579569814252
 21
4749.007223267961
  0
LINE
  5
282
100
AcDbEntity
  8
0
  6
CONTINUOUS
 62
           3
100
AcDbLine
 10
1457.829569814252
 20
4749.507223267961
 11
1460.673843673652
 21
4749.507223267961
  0
LINE
  5
281
100
AcDbEntity
  8
0
  6
CONTINUOUS
 62
           3
100
AcDbLine
 10
1444.879569814252
 20
4749.007223267961
 11
1444.879569814252
 21
4748.007223267961
  0
LINE
  5
280
100
AcDbEntity
  8
0
  6
CONTINUOUS
 62
           3
100
AcDbLine
 10
1444.629569814252
 20
4747.507223267961
 11
1444.446557112252
 21
4747.507223267961
  0
LINE
  5
27F
100
AcDbEntity
  8
0
  6
CONTINUOUS
 62
           3
100
AcDbLine
 10
1441.795295954852
 20
4749.507223267961
 11
1444.629569814252
 21
4749.507223267961
  0
LINE
  5
27E
100
AcDbEntity
  8
0
  6
CONTINUOUS
 62
           3
100
AcDbLine
 10
1444.446557112252
 20
4747.507223267961
 11
1444.379569814252
 21
4747.507223267961
  0
LINE
  5
27D
100
AcDbEntity
  8
0
  6
CONTINUOUS
 62
           3
100
AcDbLine
 10
1458.079569814252
 20
4747.507223267961
 11
1458.012582516052
 21
4747.507223267961
  0
LINE
  5
27C
100
AcDbEntity
  8
0
  6
CONTINUOUS
 62
           3
100
AcDbLine
 10
1458.079569814252
 20
4749.507223267961
 11
1458.100107510453
 21
4749.507223267961
  0
LINE
  5
27B
100
AcDbEntity
  8
0
  6
CONTINUOUS
 62
           3
100
AcDbLine
 10
1444.359032118052
 20
4749.507223267961
 11
1444.379569814252
 21
4749.507223267961
  0
LINE
  5
27A
100
AcDbEntity
  8
0
  6
CONTINUOUS
 62
           3
100
AcDbLine
 10
1458.879569814252
 20
4732.507223267961
 11
1443.579569814252
 21
4732.507223267961
  0
LINE
  5
279
100
AcDbEntity
  8
0
  6
CONTINUOUS
 62
           3
100
AcDbLine
 10
1444.379569814252
 20
4737.507223267961
 11
1443.579569814252
 21
4737.507223267961
  0
LINE
  5
278
100
AcDbEntity
  8
0
  6
CONTINUOUS
 62
           3
100
AcDbLine
 10
1443.579569814252
 20
4732.507223267961
 11
1443.579569814252
 21
4740.007223267961
  0
LINE
  5
277
100
AcDbEntity
  8
0
  6
CONTINUOUS
 62
           3
100
AcDbLine
 10
1444.379569814252
 20
4747.507223267961
 11
1444.379569814252
 21
4732.507223267961
  0
LINE
  5
276
100
AcDbEntity
  8
0
  6
CONTINUOUS
 62
           3
100
AcDbLine
 10
1443.579569814252
 20
4747.507223267961
 11
1444.379569814252
 21
4747.507223267961
  0
LINE
  5
275
100
AcDbEntity
  8
0
  6
CONTINUOUS
 62
           3
100
AcDbLine
 10
1458.879569814252
 20
4737.507223267961
 11
1458.079569814252
 21
4737.507223267961
  0
LINE
  5
274
100
AcDbEntity
  8
0
  6
CONTINUOUS
 62
           3
100
AcDbLine
 10
1458.079569814252
 20
4745.507223267961
 11
1458.079569814252
 21
4732.507223267961
  0
LINE
  5
273
100
AcDbEntity
  8
0
  6
CONTINUOUS
 62
           3
100
AcDbLine
 10
1458.879569814252
 20
4747.507223267961
 11
1458.879569814252
 21
4732.507223267961
  0
LINE
  5
272
100
AcDbEntity
  8
0
  6
CONTINUOUS
 62
           3
100
AcDbLine
 10
1458.079569814252
 20
4747.507223267961
 11
1458.879569814252
 21
4747.507223267961
  0
LINE
  5
271
100
AcDbEntity
  8
0
  6
CONTINUOUS
 62
           3
100
AcDbLine
 10
1458.079569814252
 20
4745.507223267961
 11
1458.079569814252
 21
4747.507223267961
  0
LINE
  5
270
100
AcDbEntity
  8
0
  6
CONTINUOUS
 62
           3
100
AcDbLine
 10
1445.006819727652
 20
4750.507223267961
 11
1445.006819727652
 21
4756.658082439159
  0
LINE
  5
26F
100
AcDbEntity
  8
0
  6
CONTINUOUS
 62
           3
100
AcDbLine
 10
1444.393984173252
 20
4750.507223267961
 11
1444.393984173252
 21
4756.289644739964
  0
LINE
  5
26E
100
AcDbEntity
  8
0
  6
CONTINUOUS
 62
           3
100
AcDbLine
 10
1457.462319900652
 20
4756.663614339289
 11
1457.462319900652
 21
4750.507223267961
  0
LINE
  5
26D
100
AcDbEntity
  8
0
  6
CONTINUOUS
 62
           3
100
AcDbLine
 10
1458.075155455252
 20
4756.295176639975
 11
1458.075155455252
 21
4750.507223267961
  0
LINE
  5
26C
100
AcDbEntity
  8
0
  6
CONTINUOUS
 62
           3
100
AcDbLine
 10
1438.734170517453
 20
4830.007223267961
 11
1437.234170517453
 21
4830.007223267961
  0
LINE
  5
26B
100
AcDbEntity
  8
0
  6
CONTINUOUS
 62
           3
100
AcDbLine
 10
1465.234170517453
 20
4830.007223267961
 11
1463.734170517453
 21
4830.007223267961
  0
LINE
  5
26A
100
AcDbEntity
  8
0
  6
CONTINUOUS
 62
           3
100
AcDbLine
 10
1458.484170517452
 20
4826.507223267961
 11
1443.984170517452
 21
4826.507223267961
  0
LINE
  5
269
100
AcDbEntity
  8
0
  6
CONTINUOUS
 62
           3
100
AcDbLine
 10
1460.234170517452
 20
4826.507223267961
 11
1459.984170517452
 21
4826.507223267961
  0
LINE
  5
268
100
AcDbEntity
  8
0
  6
CONTINUOUS
 62
           3
100
AcDbLine
 10
1463.734170517453
 20
4826.507223267961
 11
1463.634170517452
 21
4826.507223267961
  0
LINE
  5
267
100
AcDbEntity
  8
0
  6
CONTINUOUS
 62
           3
100
AcDbLine
 10
1463.634170517452
 20
4821.507223267961
 11
1463.734170517453
 21
4821.507223267961
  0
LINE
  5
266
100
AcDbEntity
  8
0
  6
CONTINUOUS
 62
           3
100
AcDbLine
 10
1459.984170517452
 20
4821.507223267961
 11
1460.234170517452
 21
4821.507223267961
  0
LINE
  5
265
100
AcDbEntity
  8
0
  6
CONTINUOUS
 62
           3
100
AcDbLine
 10
1443.984170517452
 20
4821.507223267961
 11
1458.484170517452
 21
4821.507223267961
  0
LINE
  5
264
100
AcDbEntity
  8
0
  6
CONTINUOUS
 62
           3
100
AcDbLine
 10
1442.234170517452
 20
4821.507223267961
 11
1442.484170517452
 21
4821.507223267961
  0
LINE
  5
263
100
AcDbEntity
  8
0
  6
CONTINUOUS
 62
           3
100
AcDbLine
 10
1467.234170517453
 20
4827.007223267961
 11
1466.234170517453
 21
4829.007223267961
  0
LINE
  5
262
100
AcDbEntity
  8
0
  6
CONTINUOUS
 62
           3
100
AcDbLine
 10
1466.234170517453
 20
4819.007223267961
 11
1467.234170517453
 21
4821.007223267961
  0
LINE
  5
261
100
AcDbEntity
  8
0
  6
CONTINUOUS
 62
           3
100
AcDbLine
 10
1466.234170517453
 20
4829.007223267961
 11
1465.234170517453
 21
4829.007223267961
  0
LINE
  5
260
100
AcDbEntity
  8
0
  6
CONTINUOUS
 62
           3
100
AcDbLine
 10
1465.234170517453
 20
4819.007223267961
 11
1466.234170517453
 21
4819.007223267961
  0
LINE
  5
25F
100
AcDbEntity
  8
0
  6
CONTINUOUS
 62
           3
100
AcDbLine
 10
1435.234170517453
 20
4821.007223267961
 11
1436.234170517453
 21
4819.007223267961
  0
LINE
  5
25E
100
AcDbEntity
  8
0
  6
CONTINUOUS
 62
           3
100
AcDbLine
 10
1436.234170517453
 20
4829.007223267961
 11
1435.234170517453
 21
4827.007223267961
  0
LINE
  5
25D
100
AcDbEntity
  8
0
  6
CONTINUOUS
 62
           3
100
AcDbLine
 10
1437.234170517453
 20
4829.007223267961
 11
1436.234170517453
 21
4829.007223267961
  0
LINE
  5
25C
100
AcDbEntity
  8
0
  6
CONTINUOUS
 62
           3
100
AcDbLine
 10
1436.234170517453
 20
4819.007223267961
 11
1437.234170517453
 21
4819.007223267961
  0
LINE
  5
25B
100
AcDbEntity
  8
0
  6
CONTINUOUS
 62
           3
100
AcDbLine
 10
1463.234170517452
 20
4740.007223267961
 11
1463.734170517452
 21
4740.007223267961
  0
LINE
  5
25A
100
AcDbEntity
  8
0
  6
CONTINUOUS
 62
           3
100
AcDbLine
 10
1458.879569814252
 20
4740.007223267961
 11
1461.734170517452
 21
4740.007223267961
  0
LINE
  5
259
100
AcDbEntity
  8
0
  6
CONTINUOUS
 62
           3
100
AcDbLine
 10
1444.379569814252
 20
4740.007223267961
 11
1458.079569814252
 21
4740.007223267961
  0
LINE
  5
258
100
AcDbEntity
  8
0
  6
CONTINUOUS
 62
           3
100
AcDbLine
 10
1440.734170517452
 20
4740.007223267961
 11
1443.579569814252
 21
4740.007223267961
  0
LINE
  5
257
100
AcDbEntity
  8
0
  6
CONTINUOUS
 62
           3
100
AcDbLine
 10
1443.579569814252
 20
4745.007223267961
 11
1440.734170517452
 21
4745.007223267961
  0
LINE
  5
256
100
AcDbEntity
  8
0
  6
CONTINUOUS
 62
           3
100
AcDbLine
 10
1458.079569814252
 20
4745.007223267961
 11
1444.379569814252
 21
4745.007223267961
  0
LINE
  5
255
100
AcDbEntity
  8
0
  6
CONTINUOUS
 62
           3
100
AcDbLine
 10
1461.734170517452
 20
4745.007223267961
 11
1458.879569814252
 21
4745.007223267961
  0
LINE
  5
254
100
AcDbEntity
  8
0
  6
CONTINUOUS
 62
           3
100
AcDbLine
 10
1463.734170517452
 20
4745.007223267961
 11
1463.234170517452
 21
4745.007223267961
  0
LINE
  5
253
100
AcDbEntity
  8
0
  6
CONTINUOUS
 62
           3
100
AcDbLine
 10
1435.234170517452
 20
4739.507223267961
 11
1436.234170517452
 21
4737.507223267961
  0
LINE
  5
252
100
AcDbEntity
  8
0
  6
CONTINUOUS
 62
           3
100
AcDbLine
 10
1436.234170517452
 20
4747.507223267961
 11
1435.234170517452
 21
4745.507223267961
  0
LINE
  5
251
100
AcDbEntity
  8
0
  6
CONTINUOUS
 62
           3
100
AcDbLine
 10
1465.234170517452
 20
4737.507223267961
 11
1466.234170517452
 21
4737.507223267961
  0
LINE
  5
250
100
AcDbEntity
  8
0
  6
CONTINUOUS
 62
           3
100
AcDbLine
 10
1466.234170517452
 20
4747.507223267961
 11
1465.234170517452
 21
4747.507223267961
  0
LINE
  5
24F
100
AcDbEntity
  8
0
  6
CONTINUOUS
 62
           3
100
AcDbLine
 10
1436.234170517452
 20
4737.507223267961
 11
1437.234170517452
 21
4737.507223267961
  0
LINE
  5
24E
100
AcDbEntity
  8
0
  6
CONTINUOUS
 62
           3
100
AcDbLine
 10
1437.234170517452
 20
4747.507223267961
 11
1436.234170517452
 21
4747.507223267961
  0
LINE
  5
24D
100
AcDbEntity
  8
0
  6
CONTINUOUS
 62
           3
100
AcDbLine
 10
1467.234170517452
 20
4745.507223267961
 11
1466.234170517452
 21
4747.507223267961
  0
LINE
  5
24C
100
AcDbEntity
  8
0
  6
CONTINUOUS
 62
           3
100
AcDbLine
 10
1466.234170517452
 20
4737.507223267961
 11
1467.234170517452
 21
4739.507223267961
  0
LINE
  5
24B
100
AcDbEntity
  8
0
  6
CONTINUOUS
 62
           3
100
AcDbLine
 10
1458.484170517452
 20
4816.507223267961
 11
1443.984170517452
 21
4816.507223267961
  0
LINE
  5
24A
100
AcDbEntity
  8
0
  6
CONTINUOUS
 62
           3
100
AcDbLine
 10
1460.234170517452
 20
4816.507223267961
 11
1459.984170517452
 21
4816.507223267961
  0
LINE
  5
249
100
AcDbEntity
  8
0
  6
CONTINUOUS
 62
           3
100
AcDbLine
 10
1459.984170517452
 20
4812.507223267961
 11
1460.234170517452
 21
4812.507223267961
  0
LINE
  5
248
100
AcDbEntity
  8
0
  6
CONTINUOUS
 62
           3
100
AcDbLine
 10
1444.934170517452
 20
4812.507223267961
 11
1458.484170517452
 21
4812.507223267961
  0
LINE
  5
247
100
AcDbEntity
  8
0
  6
CONTINUOUS
 62
           3
100
AcDbLine
 10
1442.234170517452
 20
4812.507223267961
 11
1442.484170517452
 21
4812.507223267961
  0
LINE
  5
246
100
AcDbEntity
  8
0
  6
CONTINUOUS
 62
           3
100
AcDbLine
 10
1463.234170517452
 20
4816.507223267961
 11
1462.734170517452
 21
4817.507223267961
  0
LINE
  5
245
100
AcDbEntity
  8
0
  6
CONTINUOUS
 62
           3
100
AcDbLine
 10
1462.734170517452
 20
4811.507223267961
 11
1463.234170517452
 21
4812.507223267961
  0
LINE
  5
244
100
AcDbEntity
  8
0
  6
CONTINUOUS
 62
           3
100
AcDbLine
 10
1440.734170517452
 20
4817.507223267961
 11
1439.734170517452
 21
4817.507223267961
  0
LINE
  5
243
100
AcDbEntity
  8
0
  6
CONTINUOUS
 62
           3
100
AcDbLine
 10
1439.734170517452
 20
4811.507223267961
 11
1440.734170517452
 21
4811.507223267961
  0
LINE
  5
242
100
AcDbEntity
  8
0
  6
CONTINUOUS
 62
           3
100
AcDbLine
 10
1462.734170517452
 20
4817.507223267961
 11
1461.734170517452
 21
4817.507223267961
  0
LINE
  5
241
100
AcDbEntity
  8
0
  6
CONTINUOUS
 62
           3
100
AcDbLine
 10
1461.734170517452
 20
4811.507223267961
 11
1462.734170517452
 21
4811.507223267961
  0
LINE
  5
240
100
AcDbEntity
  8
0
  6
CONTINUOUS
 62
           3
100
AcDbLine
 10
1439.234170517452
 20
4812.507223267961
 11
1439.734170517452
 21
4811.507223267961
  0
LINE
  5
23F
100
AcDbEntity
  8
0
  6
CONTINUOUS
 62
           3
100
AcDbLine
 10
1439.734170517452
 20
4817.507223267961
 11
1439.234170517452
 21
4816.507223267961
  0
LINE
  5
23E
100
AcDbEntity
  8
0
  6
CONTINUOUS
 62
           3
100
AcDbLine
 10
1463.334170517452
 20
4817.507223267961
 11
1463.234170517452
 21
4817.507223267961
  0
LINE
  5
23D
100
AcDbEntity
  8
0
  6
CONTINUOUS
 62
           3
100
AcDbLine
 10
1463.234170517452
 20
4812.507223267961
 11
1463.334170517452
 21
4812.507223267961
  0
LINE
  5
23C
100
AcDbEntity
  8
0
  6
CONTINUOUS
 62
           3
100
AcDbLine
 10
1436.734170517453
 20
4812.007223267961
 11
1437.234170517453
 21
4811.007223267961
  0
LINE
  5
23B
100
AcDbEntity
  8
0
  6
CONTINUOUS
 62
           3
100
AcDbLine
 10
1437.234170517453
 20
4819.007223267961
 11
1436.734170517453
 21
4818.007223267961
  0
LINE
  5
23A
100
AcDbEntity
  8
0
  6
CONTINUOUS
 62
           3
100
AcDbLine
 10
1463.734170517453
 20
4820.007223267961
 11
1463.634170517452
 21
4820.007223267961
  0
LINE
  5
239
100
AcDbEntity
  8
0
  6
CONTINUOUS
 62
           3
100
AcDbLine
 10
1463.334170517452
 20
4810.007223267961
 11
1463.834170517452
 21
4810.007223267961
  0
LINE
  5
238
100
AcDbEntity
  8
0
  6
CONTINUOUS
 62
           3
100
AcDbLine
 10
1459.984170517452
 20
4830.329689481361
 11
1458.484170517452
 21
4830.329689481361
  0
LINE
  5
237
100
AcDbEntity
  8
0
  6
CONTINUOUS
 62
           3
100
AcDbLine
 10
1443.984170517452
 20
4830.329689481361
 11
1442.484170517452
 21
4830.329689481361
  0
LINE
  5
236
100
AcDbEntity
  8
0
  6
CONTINUOUS
 62
           3
100
AcDbLine
 10
1439.334170517452
 20
4819.007223267961
 11
1440.234170517452
 21
4819.007223267961
  0
LINE
  5
235
100
AcDbEntity
  8
0
  6
CONTINUOUS
 62
           3
100
AcDbLine
 10
1440.234170517452
 20
4829.007223267961
 11
1439.334170517452
 21
4829.007223267961
  0
LINE
  5
234
100
AcDbEntity
  8
0
  6
CONTINUOUS
 62
           3
100
AcDbLine
 10
1463.134170517452
 20
4829.007223267961
 11
1462.234170517452
 21
4829.007223267961
  0
LINE
  5
233
100
AcDbEntity
  8
0
  6
CONTINUOUS
 62
           3
100
AcDbLine
 10
1462.234170517452
 20
4819.007223267961
 11
1463.134170517452
 21
4819.007223267961
  0
LINE
  5
232
100
AcDbEntity
  8
0
  6
CONTINUOUS
 62
           3
100
AcDbLine
 10
1441.795295954852
 20
4753.497521628994
 11
1441.795295954852
 21
4749.507223267961
  0
LINE
  5
231
100
AcDbEntity
  8
0
  6
CONTINUOUS
 62
           3
100
AcDbLine
 10
1460.673843673652
 20
4749.507223267961
 11
1460.673843673652
 21
4753.496948775444
  0
LINE
  5
230
100
AcDbEntity
  8
0
  6
CONTINUOUS
 62
           3
100
AcDbLine
 10
1143.999811519772
 20
4823.507223267961
 11
1142.499811519772
 21
4823.507223267961
  0
LINE
  5
22F
100
AcDbEntity
  8
0
  6
CONTINUOUS
 62
           3
100
AcDbLine
 10
1143.999811519772
 20
4708.507223267961
 11
1142.499811519772
 21
4708.507223267961
  0
LINE
  5
22E
100
AcDbEntity
  8
0
  6
CONTINUOUS
 62
           3
100
AcDbLine
 10
1142.499811519772
 20
4708.507223267961
 11
1142.499811519772
 21
4823.507223267961
  0
LINE
  5
22D
100
AcDbEntity
  8
0
  6
CONTINUOUS
 62
           3
100
AcDbLine
 10
1161.499811519772
 20
4755.726725550361
 11
1161.499811519772
 21
4817.507223267961
  0
LINE
  5
22C
100
AcDbEntity
  8
0
  6
CONTINUOUS
 62
           3
100
AcDbLine
 10
1145.499811519772
 20
4708.507223267961
 11
1143.999811519772
 21
4708.507223267961
  0
LINE
  5
22B
100
AcDbEntity
  8
0
  6
CONTINUOUS
 62
           3
100
AcDbLine
 10
1149.499811519772
 20
4730.507223267961
 11
1149.499811519772
 21
4712.507223267961
  0
LINE
  5
22A
100
AcDbEntity
  8
0
  6
CONTINUOUS
 62
           3
100
AcDbLine
 10
1155.499811519772
 20
4823.507223267961
 11
1143.999811519772
 21
4823.507223267961
  0
LINE
  5
229
100
AcDbEntity
  8
0
  6
CONTINUOUS
 62
           3
100
AcDbLine
 10
1380.499811519772
 20
4812.345393051161
 11
1373.499811519772
 21
4812.345393051161
  0
LINE
  5
228
100
AcDbEntity
  8
0
  6
CONTINUOUS
 62
           3
100
AcDbLine
 10
1381.499811519772
 20
4814.327659422561
 11
1372.499811519772
 21
4814.327659422561
  0
LINE
  5
227
100
AcDbEntity
  8
0
  6
CONTINUOUS
 62
           3
100
AcDbLine
 10
1211.035325551972
 20
4813.537718251962
 11
1219.034107113172
 21
4813.677337503561
  0
LINE
  5
226
100
AcDbEntity
  8
0
  6
CONTINUOUS
 62
           3
100
AcDbLine
 10
1218.964297487572
 20
4817.676728284161
 11
1210.965515926172
 21
4817.537109032561
  0
LINE
  5
225
100
AcDbEntity
  8
0
  6
CONTINUOUS
 62
           3
100
AcDbLine
 10
1372.499811519772
 20
4817.007223267961
 11
1372.499811519772
 21
4812.007223267961
  0
LINE
  5
224
100
AcDbEntity
  8
0
  6
CONTINUOUS
 62
           3
100
AcDbLine
 10
1381.499811519772
 20
4817.007223267961
 11
1372.499811519772
 21
4817.007223267961
  0
LINE
  5
223
100
AcDbEntity
  8
0
  6
CONTINUOUS
 62
           3
100
AcDbLine
 10
1381.499811519772
 20
4812.007223267961
 11
1381.499811519772
 21
4817.007223267961
  0
LINE
  5
222
100
AcDbEntity
  8
0
  6
CONTINUOUS
 62
           3
100
AcDbLine
 10
1373.499811519772
 20
4811.007223267961
 11
1380.499811519772
 21
4811.007223267961
  0
LINE
  5
221
100
AcDbEntity
  8
0
  6
CONTINUOUS
 62
           3
100
AcDbLine
 10
1359.999811519772
 20
4826.657223267961
 11
1265.235339888572
 21
4826.657223267961
  0
LINE
  5
220
100
AcDbEntity
  8
0
  6
CONTINUOUS
 62
           3
100
AcDbLine
 10
1268.852363537172
 20
4821.357223267962
 11
1359.999811519772
 21
4821.357223267962
  0
LINE
  5
21F
100
AcDbEntity
  8
0
  6
CONTINUOUS
 62
           3
100
AcDbLine
 10
1387.499811519772
 20
4808.007223267961
 11
1265.280275583972
 21
4808.007223267961
  0
LINE
  5
21E
100
AcDbEntity
  8
0
  6
CONTINUOUS
 62
           3
100
AcDbLine
 10
1392.499811519772
 20
4831.507223267961
 11
1392.499811519772
 21
4813.007223267961
  0
LINE
  5
21D
100
AcDbEntity
  8
0
  6
CONTINUOUS
 62
           3
100
AcDbLine
 10
1144.999811519772
 20
4831.507223267961
 11
1144.999811519772
 21
4823.507223267961
  0
LINE
  5
21C
100
AcDbEntity
  8
0
  6
CONTINUOUS
 62
           3
100
AcDbLine
 10
1218.999811519772
 20
4808.007223267961
 11
1161.499811519772
 21
4808.007223267961
  0
LINE
  5
21B
100
AcDbEntity
  8
0
  6
CONTINUOUS
 62
           3
100
AcDbLine
 10
1221.999811519772
 20
4817.007223267961
 11
1221.999811519772
 21
4811.007223267961
  0
LINE
  5
21A
100
AcDbEntity
  8
0
  6
CONTINUOUS
 62
           3
100
AcDbLine
 10
1230.999811519772
 20
4820.007223267961
 11
1224.999811519772
 21
4820.007223267961
  0
LINE
  5
219
100
AcDbEntity
  8
0
  6
CONTINUOUS
 62
           3
100
AcDbLine
 10
1233.999811519772
 20
4817.007223267961
 11
1233.999811519772
 21
4815.007223267961
  0
LINE
  5
218
100
AcDbEntity
  8
0
  6
CONTINUOUS
 62
           3
100
AcDbLine
 10
1218.938118877772
 20
4819.176499826761
 11
1219.060285722972
 21
4812.177565960761
  0
LINE
  5
217
100
AcDbEntity
  8
0
  6
CONTINUOUS
 62
           3
100
AcDbLine
 10
1211.061504161572
 20
4812.037946709161
 11
1210.939337316572
 21
4819.036880575361
  0
LINE
  5
216
100
AcDbEntity
  8
0
  6
CONTINUOUS
 62
           3
100
AcDbLine
 10
1265.112425761772
 20
4806.051159478162
 11
1263.479663245372
 21
4804.896213459761
  0
LINE
  5
215
100
AcDbEntity
  8
0
  6
CONTINUOUS
 62
           3
100
AcDbLine
 10
1264.246196079772
 20
4807.275759877561
 11
1265.112425761772
 21
4806.051159478162
  0
LINE
  5
214
100
AcDbEntity
  8
0
  6
CONTINUOUS
 62
           3
100
AcDbLine
 10
1263.479663245372
 20
4804.896213459761
 11
1262.663281987372
 21
4804.318740450761
  0
LINE
  5
213
100
AcDbEntity
  8
0
  6
CONTINUOUS
 62
           3
100
AcDbLine
 10
1261.797052305372
 20
4805.543340849961
 11
1262.663281987372
 21
4804.318740450761
  0
LINE
  5
212
100
AcDbEntity
  8
0
  6
CONTINUOUS
 62
           3
100
AcDbLine
 10
1190.003658293372
 20
4752.922445986362
 11
1189.137428611372
 21
4754.14704638576
  0
LINE
  5
211
100
AcDbEntity
  8
0
  6
CONTINUOUS
 62
           3
100
AcDbLine
 10
1262.663281987372
 20
4804.318740450761
 11
1190.003658293372
 21
4752.922445986362
  0
LINE
  5
210
100
AcDbEntity
  8
0
  6
CONTINUOUS
 62
           3
100
AcDbLine
 10
1269.175773011772
 20
4812.852017441761
 11
1269.142163171772
 21
4819.88143942116
  0
LINE
  5
20F
100
AcDbEntity
  8
0
  6
CONTINUOUS
 62
           3
100
AcDbLine
 10
1147.942648446372
 20
4745.060685796161
 11
1147.645764423372
 21
4743.328585443562
  0
LINE
  5
20E
100
AcDbEntity
  8
0
  6
CONTINUOUS
 62
           3
100
AcDbLine
 10
1148.153443882172
 20
4741.089313350762
 11
1150.708874059372
 21
4737.476667789761
  0
LINE
  5
20D
100
AcDbEntity
  8
0
  6
CONTINUOUS
 62
           3
100
AcDbLine
 10
1153.993600142372
 20
4735.78665932956
 11
1161.982449640572
 21
4735.824856489162
  0
LINE
  5
20C
100
AcDbEntity
  8
0
  6
CONTINUOUS
 62
           3
100
AcDbLine
 10
1189.137428611372
 20
4754.14704638576
 11
1164.273270440972
 21
4736.55920970316
  0
LINE
  5
20B
100
AcDbEntity
  8
0
  6
CONTINUOUS
 62
           3
100
AcDbLine
 10
1261.797052305372
 20
4805.543340849961
 11
1267.485764551372
 21
4809.567291358761
  0
LINE
  5
20A
100
AcDbEntity
  8
0
  6
CONTINUOUS
 62
           3
100
AcDbLine
 10
1268.407809957772
 20
4822.172260221561
 11
1264.658901410572
 21
4827.472141995961
  0
LINE
  5
209
100
AcDbEntity
  8
0
  6
CONTINUOUS
 62
           3
100
AcDbLine
 10
1256.295581085172
 20
4828.905624865362
 11
1235.935947266172
 21
4814.504095078361
  0
LINE
  5
208
100
AcDbEntity
  8
0
  6
CONTINUOUS
 62
           3
100
AcDbLine
 10
1234.682691309772
 20
4809.060113943162
 11
1234.668440920972
 21
4812.040550515962
  0
LINE
  5
207
100
AcDbEntity
  8
0
  6
CONTINUOUS
 62
           3
100
AcDbLine
 10
1149.167069339972
 20
4747.003073865961
 11
1233.415184964572
 21
4806.596569380761
  0
LINE
  5
206
100
AcDbEntity
  8
0
  6
CONTINUOUS
 62
           3
100
AcDbLine
 10
1309.737346237772
 20
4808.007223267961
 11
1310.989929337172
 21
4807.709261476161
  0
LINE
  5
205
100
AcDbEntity
  8
0
  6
CONTINUOUS
 62
           3
100
AcDbLine
 10
1372.743812874572
 20
4794.827739751161
 11
1362.804883704572
 21
4795.41486314776
  0
LINE
  5
204
100
AcDbEntity
  8
0
  6
CONTINUOUS
 62
           3
100
AcDbLine
 10
1372.832268326572
 20
4796.325129357561
 11
1362.893339156372
 21
4796.91225275396
  0
LINE
  5
203
100
AcDbEntity
  8
0
  6
CONTINUOUS
 62
           3
100
AcDbLine
 10
1377.735111562173
 20
4794.532888244761
 11
1372.743812874572
 21
4794.827739751161
  0
LINE
  5
202
100
AcDbEntity
  8
0
  6
CONTINUOUS
 62
           3
100
AcDbLine
 10
1377.823567014172
 20
4796.030277850961
 11
1377.735111562173
 21
4794.532888244761
  0
LINE
  5
201
100
AcDbEntity
  8
0
  6
CONTINUOUS
 62
           3
100
AcDbLine
 10
1372.832268326572
 20
4796.325129357561
 11
1377.823567014172
 21
4796.030277850961
  0
LINE
  5
200
100
AcDbEntity
  8
0
  6
CONTINUOUS
 62
           3
100
AcDbLine
 10
1362.459983518772
 20
4795.465674935362
 11
1362.809428313972
 21
4796.934684239361
  0
LINE
  5
1FF
100
AcDbEntity
  8
0
  6
CONTINUOUS
 62
           3
100
AcDbLine
 10
1310.989929337172
 20
4807.709261476161
 11
1311.060807851772
 21
4808.007223267961
  0
LINE
  5
1FE
100
AcDbEntity
  8
0
  6
CONTINUOUS
 62
           3
100
AcDbLine
 10
1362.459983518772
 20
4795.465674935362
 11
1310.989929337172
 21
4807.709261476161
  0
LINE
  5
1FD
100
AcDbEntity
  8
0
  6
CONTINUOUS
 62
           3
100
AcDbLine
 10
1281.028881676972
 20
4826.657223267961
 11
1284.498360490172
 21
4825.83191105936
  0
LINE
  5
1FC
100
AcDbEntity
  8
0
  6
CONTINUOUS
 62
           3
100
AcDbLine
 10
1362.851985155172
 20
4796.924560908761
 11
1362.809428313972
 21
4796.934684239361
  0
LINE
  5
1FB
100
AcDbEntity
  8
0
  6
CONTINUOUS
 62
           3
100
AcDbLine
 10
1362.851985155172
 20
4796.924560908761
 11
1364.816744301772
 21
4805.184090041761
  0
LINE
  5
1FA
100
AcDbEntity
  8
1
  6
DOT_CENTER
 62
           1
100
AcDbLine
 10
1439.6602346306
 20
4793.507223267961
 11
1463.3402346306
 21
4793.507223267961
  0
LINE
  5
1F9
100
AcDbEntity
  8
1
  6
DOT_CENTER
 62
           1
100
AcDbLine
 10
1450.234170517452
 20
4794.532888244761
 11
1450.234170517452
 21
4789.242888244761
  0
LINE
  5
1F8
100
AcDbEntity
  8
0
  6
CONTINUOUS
 62
           3
100
AcDbLine
 10
1450.034170517452
 20
4794.532888244761
 11
1448.994170517452
 21
4794.532888244761
  0
LINE
  5
1F7
100
AcDbEntity
  8
1
  6
DOT_CENTER
 62
           1
100
AcDbLine
 10
1452.234170517452
 20
4794.532888244761
 11
1452.234170517452
 21
4789.322888244761
  0
LINE
  5
1F6
100
AcDbEntity
  8
0
  6
CONTINUOUS
 62
           3
100
AcDbLine
 10
1452.034170517452
 20
4794.532888244761
 11
1450.034170517452
 21
4794.532888244761
  0
LINE
  5
1F5
100
AcDbEntity
  8
1
  6
DOT_CENTER
 62
           1
100
AcDbLine
 10
1450.234170517452
 20
4729.094560525091
 11
1450.234170517452
 21
4719.404560525091
  0
LINE
  5
1F4
100
AcDbEntity
  8
1
  6
DOT_CENTER
 62
           1
100
AcDbLine
 10
1452.234170517452
 20
4729.035126765771
 11
1452.234170517452
 21
4719.405126765771
  0
LINE
  5
1F3
100
AcDbEntity
  8
1
  6
DOT_CENTER
 62
           1
100
AcDbLine
 10
1431.17552320859
 20
4742.507223267961
 11
1471.88552320859
 21
4742.507223267961
  0
LINE
  5
1F2
100
AcDbEntity
  8
1
  6
DOT_CENTER
 62
           1
100
AcDbLine
 10
1434.14721117468
 20
4724.507223267961
 11
1468.43721117468
 21
4724.507223267961
  0
LINE
  5
1F1
100
AcDbEntity
  8
1
  6
DOT_CENTER
 62
           1
100
AcDbLine
 10
1451.234170517452
 20
4857.43668766003
 11
1451.234170517452
 21
4700.590470716941
  0
LINE
  5
1F0
100
AcDbEntity
  8
0
  6
CONTINUOUS
 62
           3
100
AcDbLine
 10
879.481009312497
 20
4604.72512146596
 11
880.381009312497
 21
4604.72512146596
  0
LINE
  5
1EF
100
AcDbEntity
  8
0
  6
CONTINUOUS
 62
           3
100
AcDbLine
 10
880.381009312497
 20
4614.725121465962
 11
879.481009312497
 21
4614.725121465962
  0
LINE
  5
1EE
100
AcDbEntity
  8
0
  6
CONTINUOUS
 62
           3
100
AcDbLine
 10
857.281009312497
 20
4614.623580557562
 11
856.381009312497
 21
4614.623580557562
  0
LINE
  5
1ED
100
AcDbEntity
  8
0
  6
CONTINUOUS
 62
           3
100
AcDbLine
 10
856.381009312497
 20
4604.62358055756
 11
857.281009312497
 21
4604.62358055756
  0
LINE
  5
1EC
100
AcDbEntity
  8
0
  6
CONTINUOUS
 62
           3
100
AcDbLine
 10
855.131009312497
 20
4810.007223267961
 11
856.131009312497
 21
4810.007223267961
  0
LINE
  5
1EB
100
AcDbEntity
  8
0
  6
CONTINUOUS
 62
           3
100
AcDbLine
 10
856.131009312497
 20
4820.007223267961
 11
855.131009312497
 21
4820.007223267961
  0
LINE
  5
1EA
100
AcDbEntity
  8
0
  6
CONTINUOUS
 62
           3
100
AcDbLine
 10
881.631009312497
 20
4810.007223267961
 11
882.631009312497
 21
4812.007223267961
  0
LINE
  5
1E9
100
AcDbEntity
  8
0
  6
CONTINUOUS
 62
           3
100
AcDbLine
 10
882.631009312497
 20
4818.007223267961
 11
881.631009312497
 21
4820.007223267961
  0
LINE
  5
1E8
100
AcDbEntity
  8
0
  6
CONTINUOUS
 62
           3
100
AcDbLine
 10
855.131009312497
 20
4820.007223267961
 11
854.131009312497
 21
4818.007223267961
  0
LINE
  5
1E7
100
AcDbEntity
  8
0
  6
CONTINUOUS
 62
           3
100
AcDbLine
 10
854.131009312497
 20
4812.007223267961
 11
855.131009312497
 21
4810.007223267961
  0
LINE
  5
1E6
100
AcDbEntity
  8
0
  6
CONTINUOUS
 62
           3
100
AcDbLine
 10
880.631009312497
 20
4810.007223267961
 11
881.631009312497
 21
4810.007223267961
  0
LINE
  5
1E5
100
AcDbEntity
  8
0
  6
CONTINUOUS
 62
           3
100
AcDbLine
 10
881.631009312497
 20
4820.007223267961
 11
880.631009312497
 21
4820.007223267961
  0
LINE
  5
1E4
100
AcDbEntity
  8
0
  6
CONTINUOUS
 62
           3
100
AcDbLine
 10
856.881009312497
 20
4661.007223267961
 11
856.381009312497
 21
4660.007223267961
  0
LINE
  5
1E3
100
AcDbEntity
  8
0
  6
CONTINUOUS
 62
           3
100
AcDbLine
 10
856.381009312497
 20
4656.007223267961
 11
856.881009312497
 21
4655.007223267961
  0
LINE
  5
1E2
100
AcDbEntity
  8
0
  6
CONTINUOUS
 62
           3
100
AcDbLine
 10
878.881009312497
 20
4655.007223267961
 11
879.881009312497
 21
4655.007223267961
  0
LINE
  5
1E1
100
AcDbEntity
  8
0
  6
CONTINUOUS
 62
           3
100
AcDbLine
 10
879.881009312497
 20
4661.007223267961
 11
878.881009312497
 21
4661.007223267961
  0
LINE
  5
1E0
100
AcDbEntity
  8
0
  6
CONTINUOUS
 62
           3
100
AcDbLine
 10
856.881009312497
 20
4655.007223267961
 11
857.881009312497
 21
4655.007223267961
  0
LINE
  5
1DF
100
AcDbEntity
  8
0
  6
CONTINUOUS
 62
           3
100
AcDbLine
 10
857.881009312497
 20
4661.007223267961
 11
856.881009312497
 21
4661.007223267961
  0
LINE
  5
1DE
100
AcDbEntity
  8
0
  6
CONTINUOUS
 62
           3
100
AcDbLine
 10
879.881009312497
 20
4655.007223267961
 11
880.381009312497
 21
4656.007223267961
  0
LINE
  5
1DD
100
AcDbEntity
  8
0
  6
CONTINUOUS
 62
           3
100
AcDbLine
 10
880.381009312497
 20
4660.007223267961
 11
879.881009312497
 21
4661.007223267961
  0
LINE
  5
1DC
100
AcDbEntity
  8
0
  6
CONTINUOUS
 62
           3
100
AcDbLine
 10
883.381009312497
 20
4737.507223267961
 11
884.381009312497
 21
4739.507223267961
  0
LINE
  5
1DB
100
AcDbEntity
  8
0
  6
CONTINUOUS
 62
           3
100
AcDbLine
 10
884.381009312497
 20
4745.507223267961
 11
883.381009312497
 21
4747.507223267961
  0
LINE
  5
1DA
100
AcDbEntity
  8
0
  6
CONTINUOUS
 62
           3
100
AcDbLine
 10
883.381009312497
 20
4747.507223267961
 11
882.381009312497
 21
4747.507223267961
  0
LINE
  5
1D9
100
AcDbEntity
  8
0
  6
CONTINUOUS
 62
           3
100
AcDbLine
 10
882.381009312497
 20
4737.507223267961
 11
883.381009312497
 21
4737.507223267961
  0
LINE
  5
1D8
100
AcDbEntity
  8
0
  6
CONTINUOUS
 62
           3
100
AcDbLine
 10
854.381009312497
 20
4747.507223267961
 11
853.381009312497
 21
4747.507223267961
  0
LINE
  5
1D7
100
AcDbEntity
  8
0
  6
CONTINUOUS
 62
           3
100
AcDbLine
 10
853.381009312497
 20
4737.507223267961
 11
854.381009312497
 21
4737.507223267961
  0
LINE
  5
1D6
100
AcDbEntity
  8
0
  6
CONTINUOUS
 62
           3
100
AcDbLine
 10
853.381009312497
 20
4747.507223267961
 11
852.381009312497
 21
4745.507223267961
  0
LINE
  5
1D5
100
AcDbEntity
  8
0
  6
CONTINUOUS
 62
           3
100
AcDbLine
 10
852.381009312497
 20
4739.507223267961
 11
853.381009312497
 21
4737.507223267961
  0
LINE
  5
1D4
100
AcDbEntity
  8
0
  6
CONTINUOUS
 62
           3
100
AcDbLine
 10
880.881009312497
 20
4745.007223267961
 11
880.581009312497
 21
4745.007223267961
  0
LINE
  5
1D3
100
AcDbEntity
  8
0
  6
CONTINUOUS
 62
           3
100
AcDbLine
 10
857.881009312497
 20
4745.007223267961
 11
857.681009312497
 21
4745.007223267961
  0
LINE
  5
1D2
100
AcDbEntity
  8
0
  6
CONTINUOUS
 62
           3
100
AcDbLine
 10
855.881009312497
 20
4740.007223267961
 11
856.181009312496
 21
4740.007223267961
  0
LINE
  5
1D1
100
AcDbEntity
  8
0
  6
CONTINUOUS
 62
           3
100
AcDbLine
 10
878.881009312497
 20
4740.007223267961
 11
879.081009312497
 21
4740.007223267961
  0
LINE
  5
1D0
100
AcDbEntity
  8
0
  6
CONTINUOUS
 62
           3
100
AcDbLine
 10
853.381009312497
 20
4614.623580557562
 11
852.381009312497
 21
4612.623580557562
  0
LINE
  5
1CF
100
AcDbEntity
  8
0
  6
CONTINUOUS
 62
           3
100
AcDbLine
 10
852.381009312497
 20
4606.623580557562
 11
853.381009312497
 21
4604.62358055756
  0
LINE
  5
1CE
100
AcDbEntity
  8
0
  6
CONTINUOUS
 62
           3
100
AcDbLine
 10
883.381009312497
 20
4604.62358055756
 11
884.381009312497
 21
4606.623580557562
  0
LINE
  5
1CD
100
AcDbEntity
  8
0
  6
CONTINUOUS
 62
           3
100
AcDbLine
 10
884.381009312497
 20
4612.623580557562
 11
883.381009312497
 21
4614.623580557562
  0
LINE
  5
1CC
100
AcDbEntity
  8
0
  6
CONTINUOUS
 62
           3
100
AcDbLine
 10
853.381009312497
 20
4604.62358055756
 11
854.381009312497
 21
4604.62358055756
  0
LINE
  5
1CB
100
AcDbEntity
  8
0
  6
CONTINUOUS
 62
           3
100
AcDbLine
 10
854.381009312497
 20
4614.623580557562
 11
853.381009312497
 21
4614.623580557562
  0
LINE
  5
1CA
100
AcDbEntity
  8
0
  6
CONTINUOUS
 62
           3
100
AcDbLine
 10
882.381009312497
 20
4604.62358055756
 11
883.381009312497
 21
4604.62358055756
  0
LINE
  5
1C9
100
AcDbEntity
  8
0
  6
CONTINUOUS
 62
           3
100
AcDbLine
 10
883.381009312497
 20
4614.623580557562
 11
882.381009312497
 21
4614.623580557562
  0
LINE
  5
1C8
100
AcDbEntity
  8
0
  6
CONTINUOUS
 62
           3
100
AcDbLine
 10
882.381009312497
 20
4748.549226887761
 11
880.881009312497
 21
4748.549226887761
  0
LINE
  5
1C7
100
AcDbEntity
  8
0
  6
CONTINUOUS
 62
           3
100
AcDbLine
 10
855.881009312497
 20
4748.549226887761
 11
854.381009312497
 21
4748.549226887761
  0
LINE
  5
1C6
100
AcDbEntity
  8
0
  6
CONTINUOUS
 62
           3
100
AcDbLine
 10
880.881009312497
 20
4603.514003632161
 11
882.381009312497
 21
4603.514003632161
  0
LINE
  5
1C5
100
AcDbEntity
  8
0
  6
CONTINUOUS
 62
           3
100
AcDbLine
 10
854.381009312497
 20
4603.514003632161
 11
855.881009312497
 21
4603.514003632161
  0
LINE
  5
1C4
100
AcDbEntity
  8
0
  6
CONTINUOUS
 62
           3
100
AcDbLine
 10
857.676408609229
 20
4761.007223267961
 11
857.676408609229
 21
4759.007223267961
  0
LINE
  5
1C3
100
AcDbEntity
  8
0
  6
CONTINUOUS
 62
           3
100
AcDbLine
 10
880.881009312497
 20
4605.22512146596
 11
880.881009312497
 21
4614.225121465962
  0
LINE
  5
1C2
100
AcDbEntity
  8
0
  6
CONTINUOUS
 62
           1
100
AcDbLine
 10
855.131009312497
 20
4810.007223267961
 11
855.131009312497
 21
4820.007223267961
  0
LINE
  5
1C1
100
AcDbEntity
  8
0
  6
CONTINUOUS
 62
           3
100
AcDbLine
 10
882.631009312497
 20
4812.007223267961
 11
882.631009312497
 21
4818.007223267961
  0
LINE
  5
1C0
100
AcDbEntity
  8
0
  6
CONTINUOUS
 62
           1
100
AcDbLine
 10
881.631009312497
 20
4810.007223267961
 11
881.631009312497
 21
4820.007223267961
  0
LINE
  5
1BF
100
AcDbEntity
  8
0
  6
CONTINUOUS
 62
           3
100
AcDbLine
 10
854.131009312497
 20
4812.007223267961
 11
854.131009312497
 21
4818.007223267961
  0
LINE
  5
1BE
100
AcDbEntity
  8
0
  6
CONTINUOUS
 62
           1
100
AcDbLine
 10
856.881009312497
 20
4655.007223267961
 11
856.881009312497
 21
4661.007223267961
  0
LINE
  5
1BD
100
AcDbEntity
  8
0
  6
CONTINUOUS
 62
           3
100
AcDbLine
 10
856.381009312497
 20
4656.007223267961
 11
856.381009312497
 21
4660.007223267961
  0
LINE
  5
1BC
100
AcDbEntity
  8
0
  6
CONTINUOUS
 62
           1
100
AcDbLine
 10
879.881009312497
 20
4655.007223267961
 11
879.881009312497
 21
4661.007223267961
  0
LINE
  5
1BB
100
AcDbEntity
  8
0
  6
CONTINUOUS
 62
           3
100
AcDbLine
 10
880.381009312497
 20
4656.007223267961
 11
880.381009312497
 21
4660.007223267961
  0
LINE
  5
1BA
100
AcDbEntity
  8
0
  6
CONTINUOUS
 62
           1
100
AcDbLine
 10
883.381009312497
 20
4747.507223267961
 11
883.381009312497
 21
4737.507223267961
  0
LINE
  5
1B9
100
AcDbEntity
  8
0
  6
CONTINUOUS
 62
           3
100
AcDbLine
 10
884.381009312497
 20
4745.507223267961
 11
884.381009312497
 21
4739.507223267961
  0
LINE
  5
1B8
100
AcDbEntity
  8
0
  6
CONTINUOUS
 62
           1
100
AcDbLine
 10
853.381009312497
 20
4747.507223267961
 11
853.381009312497
 21
4737.507223267961
  0
LINE
  5
1B7
100
AcDbEntity
  8
0
  6
CONTINUOUS
 62
           3
100
AcDbLine
 10
852.381009312497
 20
4745.507223267961
 11
852.381009312497
 21
4739.507223267961
  0
LINE
  5
1B6
100
AcDbEntity
  8
0
  6
CONTINUOUS
 62
           1
100
AcDbLine
 10
853.381009312497
 20
4604.62358055756
 11
853.381009312497
 21
4614.623580557562
  0
LINE
  5
1B5
100
AcDbEntity
  8
0
  6
CONTINUOUS
 62
           3
100
AcDbLine
 10
852.381009312497
 20
4606.623580557562
 11
852.381009312497
 21
4612.623580557562
  0
LINE
  5
1B4
100
AcDbEntity
  8
0
  6
CONTINUOUS
 62
           3
100
AcDbLine
 10
884.381009312497
 20
4606.623580557562
 11
884.381009312497
 21
4612.623580557562
  0
LINE
  5
1B3
100
AcDbEntity
  8
0
  6
CONTINUOUS
 62
           1
100
AcDbLine
 10
883.381009312497
 20
4604.62358055756
 11
883.381009312497
 21
4614.623580557562
  0
LINE
  5
1B2
100
AcDbEntity
  8
0
  6
CONTINUOUS
 62
           3
100
AcDbLine
 10
855.881009312497
 20
4609.725121465961
 11
855.881009312497
 21
4603.624439831961
  0
LINE
  5
1B1
100
AcDbEntity
  8
0
  6
CONTINUOUS
 62
           3
100
AcDbLine
 10
854.381009312497
 20
4603.624439831961
 11
854.381009312497
 21
4609.725121465961
  0
LINE
  5
1B0
100
AcDbEntity
  8
0
  6
CONTINUOUS
 62
           3
100
AcDbLine
 10
882.381009312497
 20
4609.725121465961
 11
882.381009312497
 21
4603.624439831961
  0
LINE
  5
1AF
100
AcDbEntity
  8
0
  6
CONTINUOUS
 62
           3
100
AcDbLine
 10
880.881009312497
 20
4603.624439831961
 11
880.881009312497
 21
4609.725121465961
  0
LINE
  5
1AE
100
AcDbEntity
  8
0
  6
CONTINUOUS
 62
           3
100
AcDbLine
 10
882.381009312497
 20
4609.725121465961
 11
882.381009312497
 21
4634.659848840161
  0
LINE
  5
1AD
100
AcDbEntity
  8
0
  6
CONTINUOUS
 62
           3
100
AcDbLine
 10
880.881009312497
 20
4609.725121465961
 11
880.881009312497
 21
4634.659848840161
  0
LINE
  5
1AC
100
AcDbEntity
  8
0
  6
CONTINUOUS
 62
           3
100
AcDbLine
 10
854.381009312497
 20
4609.725121465961
 11
854.381009312497
 21
4634.659848840161
  0
LINE
  5
1AB
100
AcDbEntity
  8
0
  6
CONTINUOUS
 62
           3
100
AcDbLine
 10
855.881009312497
 20
4609.725121465961
 11
855.881009312497
 21
4634.659848840161
  0
LINE
  5
1AA
100
AcDbEntity
  8
0
  6
CONTINUOUS
 62
           3
100
AcDbLine
 10
854.381009312497
 20
4634.659848840161
 11
854.381009312497
 21
4637.095303316761
  0
LINE
  5
1A9
100
AcDbEntity
  8
0
  6
CONTINUOUS
 62
           3
100
AcDbLine
 10
855.881009312497
 20
4637.095303316761
 11
855.881009312497
 21
4634.659848840161
  0
LINE
  5
1A8
100
AcDbEntity
  8
0
  6
CONTINUOUS
 62
           3
100
AcDbLine
 10
882.381009312497
 20
4637.095303316761
 11
882.381009312497
 21
4634.659848840161
  0
LINE
  5
1A7
100
AcDbEntity
  8
0
  6
CONTINUOUS
 62
           3
100
AcDbLine
 10
880.881009312497
 20
4634.659848840161
 11
880.881009312497
 21
4637.095303316761
  0
LINE
  5
1A6
100
AcDbEntity
  8
0
  6
CONTINUOUS
 62
           3
100
AcDbLine
 10
854.381009312497
 20
4638.76326823216
 11
854.381009312497
 21
4637.095303316761
  0
LINE
  5
1A5
100
AcDbEntity
  8
0
  6
CONTINUOUS
 62
           3
100
AcDbLine
 10
855.881009312497
 20
4638.76326823216
 11
855.881009312497
 21
4637.095303316761
  0
LINE
  5
1A4
100
AcDbEntity
  8
0
  6
CONTINUOUS
 62
           3
100
AcDbLine
 10
882.381009312497
 20
4638.76326823216
 11
882.381009312497
 21
4637.095303316761
  0
LINE
  5
1A3
100
AcDbEntity
  8
0
  6
CONTINUOUS
 62
           3
100
AcDbLine
 10
880.881009312497
 20
4637.095303316761
 11
880.881009312497
 21
4638.76326823216
  0
LINE
  5
1A2
100
AcDbEntity
  8
0
  6
CONTINUOUS
 62
           3
100
AcDbLine
 10
854.381009312497
 20
4638.76326823216
 11
854.381009312497
 21
4641.198722708561
  0
LINE
  5
1A1
100
AcDbEntity
  8
0
  6
CONTINUOUS
 62
           3
100
AcDbLine
 10
855.881009312497
 20
4641.198722708561
 11
855.881009312497
 21
4638.76326823216
  0
LINE
  5
1A0
100
AcDbEntity
  8
0
  6
CONTINUOUS
 62
           3
100
AcDbLine
 10
882.381009312497
 20
4641.198722708561
 11
882.381009312497
 21
4638.76326823216
  0
LINE
  5
19F
100
AcDbEntity
  8
0
  6
CONTINUOUS
 62
           3
100
AcDbLine
 10
880.881009312497
 20
4638.76326823216
 11
880.881009312497
 21
4641.198722708561
  0
LINE
  5
19E
100
AcDbEntity
  8
0
  6
CONTINUOUS
 62
           3
100
AcDbLine
 10
854.381009312497
 20
4744.378564427161
 11
854.381009312497
 21
4641.198722708561
  0
LINE
  5
19D
100
AcDbEntity
  8
0
  6
CONTINUOUS
 62
           3
100
AcDbLine
 10
855.881009312497
 20
4745.007223267961
 11
855.881009312497
 21
4641.198722708561
  0
LINE
  5
19C
100
AcDbEntity
  8
0
  6
CONTINUOUS
 62
           3
100
AcDbLine
 10
882.381009312497
 20
4744.378564427161
 11
882.381009312497
 21
4641.198722708561
  0
LINE
  5
19B
100
AcDbEntity
  8
0
  6
CONTINUOUS
 62
           3
100
AcDbLine
 10
880.881009312497
 20
4641.198722708561
 11
880.881009312497
 21
4748.549226887761
  0
LINE
  5
19A
100
AcDbEntity
  8
0
  6
CONTINUOUS
 62
           3
100
AcDbLine
 10
882.381009312497
 20
4603.514576481761
 11
882.381009312497
 21
4603.624439831961
  0
LINE
  5
199
100
AcDbEntity
  8
0
  6
CONTINUOUS
 62
           3
100
AcDbLine
 10
880.881009312497
 20
4603.624439831961
 11
880.881009312497
 21
4603.514576481761
  0
LINE
  5
198
100
AcDbEntity
  8
0
  6
CONTINUOUS
 62
           3
100
AcDbLine
 10
854.381009312497
 20
4603.514576481761
 11
854.381009312497
 21
4603.624439831961
  0
LINE
  5
197
100
AcDbEntity
  8
0
  6
CONTINUOUS
 62
           3
100
AcDbLine
 10
855.881009312497
 20
4603.514576481761
 11
855.881009312497
 21
4603.624439831961
  0
LINE
  5
196
100
AcDbEntity
  8
0
  6
CONTINUOUS
 62
           3
100
AcDbLine
 10
882.381009312497
 20
4746.48471064956
 11
882.381009312497
 21
4744.378564427161
  0
LINE
  5
195
100
AcDbEntity
  8
0
  6
CONTINUOUS
 62
           3
100
AcDbLine
 10
854.381009312497
 20
4744.378564427161
 11
854.381009312497
 21
4746.48471064956
  0
LINE
  5
194
100
AcDbEntity
  8
0
  6
CONTINUOUS
 62
           3
100
AcDbLine
 10
854.381009312497
 20
4746.48471064956
 11
854.381009312497
 21
4747.706143564361
  0
LINE
  5
193
100
AcDbEntity
  8
0
  6
CONTINUOUS
 62
           3
100
AcDbLine
 10
882.381009312497
 20
4747.706143564361
 11
882.381009312497
 21
4746.48471064956
  0
LINE
  5
192
100
AcDbEntity
  8
0
  6
CONTINUOUS
 62
           3
100
AcDbLine
 10
882.381009312497
 20
4748.54879725056
 11
882.381009312497
 21
4747.706143564361
  0
LINE
  5
191
100
AcDbEntity
  8
0
  6
CONTINUOUS
 62
           3
100
AcDbLine
 10
854.381009312497
 20
4747.706143564361
 11
854.381009312497
 21
4748.54879725056
  0
LINE
  5
190
100
AcDbEntity
  8
0
  6
CONTINUOUS
 62
           3
100
AcDbLine
 10
855.881009312497
 20
4707.334539112961
 11
856.762059273897
 21
4707.334539112961
  0
LINE
  5
18F
100
AcDbEntity
  8
0
  6
CONTINUOUS
 62
           3
100
AcDbLine
 10
879.999959351097
 20
4707.334539112961
 11
880.881009312497
 21
4707.334539112961
  0
LINE
  5
18E
100
AcDbEntity
  8
0
  6
CONTINUOUS
 62
           3
100
AcDbLine
 10
880.881009312497
 20
4618.347285018561
 11
878.881009312497
 21
4618.347285018561
  0
LINE
  5
18D
100
AcDbEntity
  8
0
  6
CONTINUOUS
 62
           3
100
AcDbLine
 10
857.881009312497
 20
4618.347285018561
 11
855.881009312497
 21
4618.347285018561
  0
LINE
  5
18C
100
AcDbEntity
  8
0
  6
CONTINUOUS
 62
           3
100
AcDbLine
 10
880.881009312497
 20
4618.321899791361
 11
878.881009312497
 21
4618.321899791361
  0
LINE
  5
18B
100
AcDbEntity
  8
0
  6
CONTINUOUS
 62
           3
100
AcDbLine
 10
857.881009312497
 20
4618.321899791361
 11
855.881009312497
 21
4618.321899791361
  0
LINE
  5
18A
100
AcDbEntity
  8
0
  6
CONTINUOUS
 62
           3
100
AcDbLine
 10
878.881009312497
 20
4576.007223267961
 11
878.881009312497
 21
4618.321899791361
  0
LINE
  5
189
100
AcDbEntity
  8
0
  6
CONTINUOUS
 62
           3
100
AcDbLine
 10
878.881009312497
 20
4576.007223267961
 11
857.881009312497
 21
4576.007223267961
  0
LINE
  5
188
100
AcDbEntity
  8
0
  6
CONTINUOUS
 62
           3
100
AcDbLine
 10
869.381009312497
 20
4587.60722326796
 11
867.381009312497
 21
4587.60722326796
  0
LINE
  5
187
100
AcDbEntity
  8
0
  6
CONTINUOUS
 62
           3
100
AcDbLine
 10
867.381009312497
 20
4582.407223267961
 11
869.381009312497
 21
4582.407223267961
  0
LINE
  5
186
100
AcDbEntity
  8
0
  6
CONTINUOUS
 62
           3
100
AcDbLine
 10
857.881009312497
 20
4576.007223267961
 11
857.881009312497
 21
4618.321899791361
  0
LINE
  5
185
100
AcDbEntity
  8
0
  6
CONTINUOUS
 62
           3
100
AcDbLine
 10
880.581009312497
 20
4735.507223267961
 11
879.081009312497
 21
4735.507223267961
  0
LINE
  5
184
100
AcDbEntity
  8
0
  6
CONTINUOUS
 62
           3
100
AcDbLine
 10
857.681009312497
 20
4735.507223267961
 11
856.181009312496
 21
4735.507223267961
  0
LINE
  5
183
100
AcDbEntity
  8
0
  6
CONTINUOUS
 62
           3
100
AcDbLine
 10
880.581009312497
 20
4708.507223267961
 11
879.081009312497
 21
4708.507223267961
  0
LINE
  5
182
100
AcDbEntity
  8
0
  6
CONTINUOUS
 62
           3
100
AcDbLine
 10
857.681009312497
 20
4708.507223267961
 11
856.181009312496
 21
4708.507223267961
  0
LINE
  5
181
100
AcDbEntity
  8
0
  6
CONTINUOUS
 62
           3
100
AcDbLine
 10
869.331009312497
 20
4721.907223267961
 11
867.331009312497
 21
4721.907223267961
  0
LINE
  5
180
100
AcDbEntity
  8
1
  6
DOT_CENTER
 62
           1
100
AcDbLine
 10
868.381009312497
 20
4836.91312138888
 11
868.381009312497
 21
4563.49312138888
  0
LINE
  5
17F
100
AcDbEntity
  8
1
  6
CONTINUOUS
 62
           3
100
AcDbLine
 10
878.981009312497
 20
4614.225121465962
 11
878.981009312497
 21
4605.22512146596
  0
LINE
  5
17E
100
AcDbEntity
  8
1
  6
CONTINUOUS
 62
           3
100
AcDbLine
 10
857.781009312497
 20
4614.123580557562
 11
857.781009312497
 21
4605.12358055756
  0
LINE
  5
17D
100
AcDbEntity
  8
0
  6
CONTINUOUS
 62
           3
100
AcDbLine
 10
857.881009312497
 20
4618.347285018561
 11
857.881009312497
 21
4707.118084417086
  0
LINE
  5
17C
100
AcDbEntity
  8
0
  6
CONTINUOUS
 62
           3
100
AcDbLine
 10
857.881009312497
 20
4618.321899791361
 11
857.881009312497
 21
4618.347285018561
  0
LINE
  5
17B
100
AcDbEntity
  8
0
  6
CONTINUOUS
 62
           3
100
AcDbLine
 10
878.881009312497
 20
4618.321899791361
 11
878.881009312497
 21
4618.347285018561
  0
LINE
  5
17A
100
AcDbEntity
  8
0
  6
CONTINUOUS
 62
           3
100
AcDbLine
 10
878.881009312497
 20
4618.347285018561
 11
878.881009312497
 21
4707.118084023069
  0
LINE
  5
179
100
AcDbEntity
  8
0
  6
CONTINUOUS
 62
           3
100
AcDbLine
 10
878.881009312497
 20
4707.118084023069
 11
878.881009312497
 21
4740.007223267961
  0
LINE
  5
178
100
AcDbEntity
  8
0
  6
CONTINUOUS
 62
           3
100
AcDbLine
 10
857.881009312497
 20
4707.118084417086
 11
857.881009312497
 21
4740.007223267961
  0
LINE
  5
177
100
AcDbEntity
  8
0
  6
CONTINUOUS
 62
           3
100
AcDbLine
 10
857.881009312497
 20
4745.007223267961
 11
857.881009312497
 21
4823.507223267961
  0
LINE
  5
176
100
AcDbEntity
  8
0
  6
CONTINUOUS
 62
           3
100
AcDbLine
 10
857.881009312497
 20
4740.007223267961
 11
857.881009312497
 21
4745.007223267961
  0
LINE
  5
175
100
AcDbEntity
  8
0
  6
CONTINUOUS
 62
           3
100
AcDbLine
 10
878.881009312497
 20
4740.007223267961
 11
878.881009312497
 21
4745.007223267961
  0
LINE
  5
174
100
AcDbEntity
  8
0
  6
CONTINUOUS
 62
           3
100
AcDbLine
 10
855.881009312497
 20
4745.007223267961
 11
855.881009312497
 21
4748.549226887761
  0
LINE
  5
173
100
AcDbEntity
  8
0
  6
CONTINUOUS
 62
           3
100
AcDbLine
 10
879.081009312497
 20
4708.507223267961
 11
879.081009312497
 21
4740.007223267961
  0
LINE
  5
172
100
AcDbEntity
  8
0
  6
CONTINUOUS
 62
           3
100
AcDbLine
 10
879.081009312497
 20
4745.007223267961
 11
878.881009312497
 21
4745.007223267961
  0
LINE
  5
171
100
AcDbEntity
  8
0
  6
CONTINUOUS
 62
           3
100
AcDbLine
 10
880.581009312497
 20
4740.007223267961
 11
880.881009312497
 21
4740.007223267961
  0
LINE
  5
170
100
AcDbEntity
  8
0
  6
CONTINUOUS
 62
           3
100
AcDbLine
 10
856.181009312496
 20
4745.007223267961
 11
855.881009312497
 21
4745.007223267961
  0
LINE
  5
16F
100
AcDbEntity
  8
0
  6
CONTINUOUS
 62
           3
100
AcDbLine
 10
857.681009312497
 20
4740.007223267961
 11
857.881009312497
 21
4740.007223267961
  0
LINE
  5
16E
100
AcDbEntity
  8
0
  6
CONTINUOUS
 62
           3
100
AcDbLine
 10
856.181009312496
 20
4708.507223267961
 11
856.181009312496
 21
4745.007223267961
  0
LINE
  5
16D
100
AcDbEntity
  8
0
  6
CONTINUOUS
 62
           3
100
AcDbLine
 10
857.681009312497
 20
4708.507223267961
 11
857.681009312497
 21
4823.507223267961
  0
LINE
  5
16C
100
AcDbEntity
  8
0
  6
CONTINUOUS
 62
           3
100
AcDbLine
 10
856.181009312496
 20
4745.007223267961
 11
856.181009312496
 21
4823.507223267961
  0
LINE
  5
16B
100
AcDbEntity
  8
0
  6
CONTINUOUS
 62
           3
100
AcDbLine
 10
880.581009312497
 20
4708.507223267961
 11
880.581009312497
 21
4823.507223267961
  0
LINE
  5
16A
100
AcDbEntity
  8
0
  6
CONTINUOUS
 62
           3
100
AcDbLine
 10
879.081009312497
 20
4708.507223267961
 11
879.031009312497
 21
4708.507223267961
  0
LINE
  5
169
100
AcDbEntity
  8
1
  6
CONTINUOUS
 62
           3
100
AcDbLine
 10
867.381009312497
 20
4796.10954031376
 11
869.381009312497
 21
4796.10954031376
  0
LINE
  5
168
100
AcDbEntity
  8
1
  6
CONTINUOUS
 62
           3
100
AcDbLine
 10
867.381009312497
 20
4790.909540313761
 11
869.381009312497
 21
4790.909540313761
  0
LINE
  5
167
100
AcDbEntity
  8
0
  6
CONTINUOUS
 62
           3
100
AcDbLine
 10
880.631009312497
 20
4810.007223267961
 11
880.631009312497
 21
4820.007223267961
  0
LINE
  5
166
100
AcDbEntity
  8
0
  6
CONTINUOUS
 62
           3
100
AcDbLine
 10
878.881009312497
 20
4745.007223267961
 11
878.881009312497
 21
4823.507223267961
  0
LINE
  5
165
100
AcDbEntity
  8
0
  6
CONTINUOUS
 62
           3
100
AcDbLine
 10
879.081009312497
 20
4740.007223267961
 11
879.081009312497
 21
4823.507223267961
  0
LINE
  5
164
100
AcDbEntity
  8
1
  6
CONTINUOUS
 62
           3
100
AcDbLine
 10
856.131009312497
 20
4820.007223267961
 11
856.131009312497
 21
4810.007223267961
  0
LINE
  5
163
100
AcDbEntity
  8
0
  6
CONTINUOUS
 62
           3
100
AcDbLine
 10
880.581009312497
 20
4823.507223267961
 11
856.181009312496
 21
4823.507223267961
  0
LINE
  5
162
100
AcDbEntity
  8
0
  6
CONTINUOUS
 62
           3
100
AcDbLine
 10
858.031009312497
 20
4823.507223267961
 11
857.681009312497
 21
4823.507223267961
  0
LINE
  5
161
100
AcDbEntity
  8
0
  6
CONTINUOUS
 62
           3
100
AcDbLine
 10
856.181009312496
 20
4823.507223267961
 11
856.131009312497
 21
4823.507223267961
  0
LINE
  5
160
100
AcDbEntity
  8
1
  6
DOT_CENTER
 62
           1
100
AcDbLine
 10
867.381009312497
 20
4802.27909537407
 11
867.381009312497
 21
4783.849095374069
  0
LINE
  5
15F
100
AcDbEntity
  8
1
  6
DOT_CENTER
 62
           1
100
AcDbLine
 10
869.381009312497
 20
4802.30921770683
 11
869.381009312497
 21
4783.96921770683
  0
LINE
  5
15E
100
AcDbEntity
  8
1
  6
DOT_CENTER
 62
           1
100
AcDbLine
 10
858.968556675658
 20
4793.509540313761
 11
876.948556675658
 21
4793.509540313761
  0
LINE
  5
15D
100
AcDbEntity
  8
1
  6
DOT_CENTER
 62
           1
100
AcDbLine
 10
848.699128730711
 20
4742.507223267961
 11
888.389128730711
 21
4742.507223267961
  0
LINE
  5
15C
100
AcDbEntity
  8
0
  6
CONTINUOUS
 62
           3
100
AcDbLine
 10
857.681009312497
 20
4812.507223267961
 11
857.881009312497
 21
4812.507223267961
  0
LINE
  5
15B
100
AcDbEntity
  8
0
  6
CONTINUOUS
 62
           3
100
AcDbLine
 10
879.081009312497
 20
4817.507223267961
 11
878.881009312497
 21
4817.507223267961
  0
LINE
  5
15A
100
AcDbEntity
  8
0
  6
CONTINUOUS
 62
           3
100
AcDbLine
 10
878.881009312497
 20
4812.507223267961
 11
879.081009312497
 21
4812.507223267961
  0
LINE
  5
159
100
AcDbEntity
  8
0
  6
CONTINUOUS
 62
           3
100
AcDbLine
 10
857.881009312497
 20
4817.507223267961
 11
857.681009312497
 21
4817.507223267961
  0
LINE
  5
158
100
AcDbEntity
  8
1
  6
DOT_CENTER
 62
           1
100
AcDbLine
 10
849.466610512468
 20
4815.007223267961
 11
888.566610512468
 21
4815.007223267961
  0
LINE
  5
157
100
AcDbEntity
  8
1
  6
DOT_CENTER
 62
           1
100
AcDbLine
 10
851.000346539155
 20
4658.007223267961
 11
886.440346539155
 21
4658.007223267961
  0
LINE
  5
156
100
AcDbEntity
  8
1
  6
DOT_CENTER
 62
           1
100
AcDbLine
 10
849.041351636308
 20
4609.623580557562
 11
888.121351636308
 21
4609.623580557562
  0
LINE
  5
155
100
AcDbEntity
  8
1
  6
DOT_CENTER
 62
           1
100
AcDbLine
 10
774.463474903805
 20
4825.40052765524
 11
774.463474903805
 21
4804.65153083429
  0
LINE
  5
154
100
AcDbEntity
  8
1
  6
DOT_CENTER
 62
           1
100
AcDbLine
 10
764.446208705467
 20
4815.007223267961
 11
784.138543651273
 21
4815.007223267961
  0
LINE
  5
153
100
AcDbEntity
  8
1
  6
DOT_CENTER
 62
           1
100
AcDbLine
 10
765.446208705467
 20
4742.507223267961
 11
785.138543651273
 21
4742.507223267961
  0
LINE
  5
152
100
AcDbEntity
  8
1
  6
DOT_CENTER
 62
           1
100
AcDbLine
 10
775.463474903805
 20
4752.90052765524
 11
775.463474903805
 21
4732.15153083429
  0
LINE
  5
151
100
AcDbEntity
  8
1
  6
DOT_CENTER
 62
           1
100
AcDbLine
 10
773.446208705467
 20
4609.62358055756
 11
793.138543651273
 21
4609.62358055756
  0
LINE
  5
150
100
AcDbEntity
  8
1
  6
DOT_CENTER
 62
           1
100
AcDbLine
 10
783.463474903805
 20
4620.016884944838
 11
783.463474903805
 21
4599.267888123888
  0
LINE
  5
14F
100
AcDbEntity
  8
1
  6
DOT_CENTER
 62
           1
100
AcDbLine
 10
860.34818158128
 20
4722.007223267961
 11
876.10818158128
 21
4722.007223267961
  0
LINE
  5
14E
100
AcDbEntity
  8
1
  6
DOT_CENTER
 62
           1
100
AcDbLine
 10
1025.369852340038
 20
4793.507223267961
 11
1042.709852340038
 21
4793.507223267961
  0
LINE
  5
14D
100
AcDbEntity
  8
1
  6
DOT_CENTER
 62
           1
100
AcDbLine
 10
875.57010130744
 20
4780.507223267961
 11
861.06010130744
 21
4780.507223267961
  0
LINE
  5
14C
100
AcDbEntity
  8
1
  6
DOT_CENTER
 62
           1
100
AcDbLine
 10
861.08130560122
 20
4585.007223267961
 11
876.52130560122
 21
4585.007223267961
  0
LINE
  5
14B
100
AcDbEntity
  8
1
  6
DOT_CENTER
 62
           1
100
AcDbLine
 10
867.381009312497
 20
4590.22499536972
 11
867.381009312497
 21
4579.70499536972
  0
LINE
  5
14A
100
AcDbEntity
  8
1
  6
DOT_CENTER
 62
           1
100
AcDbLine
 10
869.381009312497
 20
4590.22499536972
 11
869.381009312497
 21
4579.77499536972
  0
LINE
  5
149
100
AcDbEntity
  8
0
  6
CONTINUOUS
 62
           3
100
AcDbLine
 10
1047.023570463222
 20
4823.507223267961
 11
1047.023570463223
 21
4820.007223267961
  0
LINE
  5
148
100
AcDbEntity
  8
0
  6
CONTINUOUS
 62
           3
100
AcDbLine
 10
1046.923570463222
 20
4828.507223267961
 11
1046.923570463223
 21
4820.007223267961
  0
LINE
  5
147
100
AcDbEntity
  8
0
  6
CONTINUOUS
 62
           3
100
AcDbLine
 10
1047.023570463223
 20
4826.507223267961
 11
1046.923570463222
 21
4826.507223267961
  0
LINE
  5
146
100
AcDbEntity
  8
0
  6
CONTINUOUS
 62
           3
100
AcDbLine
 10
1046.923570463223
 20
4821.507223267961
 11
1047.023570463223
 21
4821.507223267961
  0
LINE
  5
145
100
AcDbEntity
  8
0
  6
CONTINUOUS
 62
           3
100
AcDbLine
 10
1047.023570463223
 20
4820.007223267961
 11
1047.023570463222
 21
4828.905624865362
  0
LINE
  5
144
100
AcDbEntity
  8
0
  6
CONTINUOUS
 62
           3
100
AcDbLine
 10
1022.123570463222
 20
4826.507223267961
 11
1022.123570463222
 21
4828.507223267961
  0
LINE
  5
143
100
AcDbEntity
  8
0
  6
CONTINUOUS
 62
           3
100
AcDbLine
 10
1022.123570463222
 20
4821.507223267961
 11
1022.123570463222
 21
4826.507223267961
  0
LINE
  5
142
100
AcDbEntity
  8
0
  6
CONTINUOUS
 62
           3
100
AcDbLine
 10
1020.573570463222
 20
4818.607223267961
 11
1020.273570463222
 21
4818.007223267961
  0
LINE
  5
141
100
AcDbEntity
  8
0
  6
CONTINUOUS
 62
           3
100
AcDbLine
 10
1048.573570463222
 20
4818.407223267962
 11
1047.773570463222
 21
4820.007223267961
  0
LINE
  5
140
100
AcDbEntity
  8
0
  6
CONTINUOUS
 62
           3
100
AcDbLine
 10
1048.573570463222
 20
4811.607223267961
 11
1048.773570463222
 21
4812.007223267961
  0
LINE
  5
13F
100
AcDbEntity
  8
0
  6
CONTINUOUS
 62
           3
100
AcDbLine
 10
1020.573570463222
 20
4811.407223267962
 11
1021.273570463222
 21
4810.007223267961
  0
LINE
  5
13E
100
AcDbEntity
  8
1
  6
CONTINUOUS
 62
           3
100
AcDbLine
 10
1046.723570463222
 20
4823.507223267961
 11
1046.723570463222
 21
4708.507223267961
  0
LINE
  5
13D
100
AcDbEntity
  8
1
  6
CONTINUOUS
 62
           3
100
AcDbLine
 10
1046.773570463222
 20
4820.007223267961
 11
1046.773570463222
 21
4810.007223267961
  0
LINE
  5
13C
100
AcDbEntity
  8
0
  6
CONTINUOUS
 62
           3
100
AcDbLine
 10
1022.273570463222
 20
4819.032629489092
 11
1022.273570463222
 21
4817.507223267961
  0
LINE
  5
13B
100
AcDbEntity
  8
0
  6
CONTINUOUS
 62
           3
100
AcDbLine
 10
1022.273570463222
 20
4817.507223267961
 11
1022.273570463222
 21
4812.507223267961
  0
LINE
  5
13A
100
AcDbEntity
  8
0
  6
CONTINUOUS
 62
           3
100
AcDbLine
 10
1022.273570463222
 20
4812.507223267961
 11
1022.273570463222
 21
4810.007223267961
  0
LINE
  5
139
100
AcDbEntity
  8
0
  6
CONTINUOUS
 62
           3
100
AcDbLine
 10
1047.023570463222
 20
4810.007223267961
 11
1047.023570463223
 21
4735.78665932956
  0
LINE
  5
138
100
AcDbEntity
  8
0
  6
CONTINUOUS
 62
           3
100
AcDbLine
 10
1047.023570463223
 20
4820.007223267961
 11
1046.773570463222
 21
4820.007223267961
  0
LINE
  5
137
100
AcDbEntity
  8
0
  6
CONTINUOUS
 62
           3
100
AcDbLine
 10
1047.023570463222
 20
4810.007223267961
 11
1047.773570463222
 21
4810.007223267961
  0
LINE
  5
136
100
AcDbEntity
  8
0
  6
CONTINUOUS
 62
           3
100
AcDbLine
 10
1046.723570463222
 20
4819.017325319561
 11
1046.773570463222
 21
4819.032629489092
  0
LINE
  5
135
100
AcDbEntity
  8
0
  6
CONTINUOUS
 62
           3
100
AcDbLine
 10
1046.773570463222
 20
4817.507223267961
 11
1046.723570463222
 21
4817.507223267961
  0
LINE
  5
134
100
AcDbEntity
  8
0
  6
CONTINUOUS
 62
           3
100
AcDbLine
 10
1046.723570463222
 20
4812.507223267961
 11
1046.773570463222
 21
4812.507223267961
  0
LINE
  5
133
100
AcDbEntity
  8
0
  6
CONTINUOUS
 62
           3
100
AcDbLine
 10
1022.023570463222
 20
4805.543340849961
 11
1022.023570463222
 21
4735.78665932956
  0
LINE
  5
132
100
AcDbEntity
  8
0
  6
CONTINUOUS
 62
           3
100
AcDbLine
 10
1047.023570463222
 20
4745.007223267961
 11
1046.723570463222
 21
4745.007223267961
  0
LINE
  5
131
100
AcDbEntity
  8
0
  6
CONTINUOUS
 62
           3
100
AcDbLine
 10
1046.723570463222
 20
4740.007223267961
 11
1047.023570463222
 21
4740.007223267961
  0
LINE
  5
130
100
AcDbEntity
  8
0
  6
CONTINUOUS
 62
           3
100
AcDbLine
 10
1046.723570463222
 20
4805.543340849961
 11
1047.023570463222
 21
4805.543340849961
  0
LINE
  5
12F
100
AcDbEntity
  8
1
  6
DOT_CENTER
 62
           1
100
AcDbLine
 10
1014.005490141847
 20
4824.007223267961
 11
1057.725490141847
 21
4824.007223267961
  0
LINE
  5
12E
100
AcDbEntity
  8
1
  6
DOT_CENTER
 62
           1
100
AcDbLine
 10
1014.005490141847
 20
4815.007223267961
 11
1057.645490141847
 21
4815.007223267961
  0
LINE
  5
12D
100
AcDbEntity
  8
1
  6
DOT_CENTER
 62
           1
100
AcDbLine
 10
1034.523570463222
 20
4852.52841314984
 11
1034.523570463222
 21
4695.710385115091
  0
LINE
  5
12C
100
AcDbEntity
  8
1
  6
DOT_CENTER
 62
           1
100
AcDbLine
 10
1012.409525102734
 20
4742.507223267961
 11
1058.349525102734
 21
4742.507223267961
  0
LINE
  5
12B
100
AcDbEntity
  8
1
  6
DOT_CENTER
 62
           1
100
AcDbLine
 10
1025.08848853838
 20
4724.507223267961
 11
1044.38848853838
 21
4724.507223267961
  0
LINE
  5
12A
100
AcDbEntity
  8
1
  6
CONTINUOUS
 62
           1
100
AcDbLine
 10
1030.923570463222
 20
4797.589540313761
 11
1030.923570463222
 21
4793.509540313761
  0
LINE
  5
129
100
AcDbEntity
  8
1
  6
CONTINUOUS
 62
           1
100
AcDbLine
 10
1038.123570463223
 20
4793.509540313761
 11
1038.123570463223
 21
4797.589540313761
  0
LINE
  5
128
100
AcDbEntity
  8
1
  6
CONTINUOUS
 62
           1
100
AcDbLine
 10
1030.923570463222
 20
4728.587223267961
 11
1030.923570463222
 21
4724.507223267961
  0
LINE
  5
127
100
AcDbEntity
  8
1
  6
CONTINUOUS
 62
           1
100
AcDbLine
 10
1038.123570463223
 20
4724.507223267961
 11
1038.123570463223
 21
4728.587223267961
  0
LINE
  5
126
100
AcDbEntity
  8
1
  6
DOTTED
 62
           1
100
AcDbLine
 10
1143.999811519772
 20
4823.507223267961
 11
1143.999811519772
 21
4708.507223267961
  0
LINE
  5
125
100
AcDbEntity
  8
1
  6
DOT_CENTER
 62
           1
100
AcDbLine
 10
1145.499811519772
 20
4742.507223267961
 11
1163.499811519772
 21
4742.507223267961
  0
LINE
  5
124
100
AcDbEntity
  8
1
  6
DOT_CENTER
 62
           1
100
AcDbLine
 10
1154.499811519772
 20
4733.507223267961
 11
1154.499811519772
 21
4751.507223267961
  0
LINE
  5
123
100
AcDbEntity
  8
1
  6
DOT_CENTER
 62
           1
100
AcDbLine
 10
1144.499811519772
 20
4815.007223267961
 11
1162.499811519772
 21
4815.007223267961
  0
LINE
  5
122
100
AcDbEntity
  8
1
  6
DOT_CENTER
 62
           1
100
AcDbLine
 10
1153.499811519772
 20
4806.007223267961
 11
1153.499811519772
 21
4824.007223267961
  0
LINE
  5
121
100
AcDbEntity
  8
1
  6
DOT_CENTER
 62
           1
100
AcDbLine
 10
1250.760499813172
 20
4824.007223267961
 11
1268.760499813172
 21
4824.007223267961
  0
LINE
  5
120
100
AcDbEntity
  8
1
  6
DOT_CENTER
 62
           1
100
AcDbLine
 10
1259.760499813172
 20
4815.007223267961
 11
1259.760499813172
 21
4833.007223267961
  0
LINE
  5
11F
100
AcDbEntity
  8
1
  6
DOT_CENTER
 62
           1
100
AcDbLine
 10
1301.499811519772
 20
4814.507223267961
 11
1319.499811519772
 21
4814.507223267961
  0
LINE
  5
11E
100
AcDbEntity
  8
1
  6
DOT_CENTER
 62
           1
100
AcDbLine
 10
1310.499811519772
 20
4805.507223267961
 11
1310.499811519772
 21
4823.507223267961
  0
LINE
  5
11D
100
AcDbEntity
  8
1
  6
DOT_CENTER
 62
           1
100
AcDbLine
 10
1123.12115795343
 20
4724.507223267961
 11
1151.60115795343
 21
4724.507223267961
  0
LINE
  5
11C
100
AcDbEntity
  8
1
  6
CONTINUOUS
 62
           1
100
AcDbLine
 10
1130.371226224142
 20
4725.879977512222
 11
1131.328176381852
 21
4723.039497260204
  0
LINE
  5
11B
100
AcDbEntity
  8
1
  6
CONTINUOUS
 62
           1
100
AcDbLine
 10
1132.13637303812
 20
4726.507223267961
 11
1133.48396228051
 21
4722.507223267961
  0
LINE
  5
11A
100
AcDbEntity
  8
1
  6
CONTINUOUS
 62
           1
100
AcDbLine
 10
1134.11283726029
 20
4726.507223267961
 11
1135.46042650268
 21
4722.507223267961
  0
LINE
  5
119
100
AcDbEntity
  8
1
  6
CONTINUOUS
 62
           1
100
AcDbLine
 10
1136.08930148246
 20
4726.507223267961
 11
1137.43689072485
 21
4722.507223267961
  0
LINE
  5
118
100
AcDbEntity
  8
1
  6
CONTINUOUS
 62
           1
100
AcDbLine
 10
1138.06576570463
 20
4726.507223267961
 11
1139.41335494702
 21
4722.507223267961
  0
LINE
  5
117
100
AcDbEntity
  8
1
  6
CONTINUOUS
 62
           1
100
AcDbLine
 10
1140.0422299268
 20
4726.507223267961
 11
1141.38981916919
 21
4722.507223267961
  0
LINE
  5
116
100
AcDbEntity
  8
1
  6
CONTINUOUS
 62
           1
100
AcDbLine
 10
1142.01869414897
 20
4726.507223267961
 11
1143.36628339136
 21
4722.507223267961
  0
LINE
  5
115
100
AcDbEntity
  8
1
  6
CONTINUOUS
 62
           1
100
AcDbLine
 10
1132.43583731419
 20
4723.207223267959
 11
1143.999811519772
 21
4723.207223267959
  0
LINE
  5
114
100
AcDbEntity
  8
1
  6
CONTINUOUS
 62
           1
100
AcDbLine
 10
1127.999811519772
 20
4724.50722326796
 11
1132.43583731419
 21
4723.207223267959
  0
LINE
  5
113
100
AcDbEntity
  8
1
  6
CONTINUOUS
 62
           1
100
AcDbLine
 10
1132.43583731419
 20
4725.807223267962
 11
1127.999811519772
 21
4724.50722326796
  0
LINE
  5
112
100
AcDbEntity
  8
1
  6
CONTINUOUS
 62
           1
100
AcDbLine
 10
1143.999811519772
 20
4725.807223267962
 11
1132.43583731419
 21
4725.807223267962
  0
LINE
  5
111
100
AcDbEntity
  8
1
  6
DOTTED
 62
           1
100
AcDbLine
 10
1143.999811519772
 20
4720.507223267961
 11
1144.499811519772
 21
4720.507223267961
  0
LINE
  5
110
100
AcDbEntity
  8
1
  6
DOTTED
 62
           1
100
AcDbLine
 10
1144.499811519772
 20
4728.507223267963
 11
1143.999811519772
 21
4728.507223267961
  0
LINE
  5
10F
100
AcDbEntity
  8
1
  6
DOT_CENTER
 62
           1
100
AcDbLine
 10
1123.12115795343
 20
4793.507223267961
 11
1151.60115795343
 21
4793.507223267961
  0
LINE
  5
10E
100
AcDbEntity
  8
1
  6
CONTINUOUS
 62
           1
100
AcDbLine
 10
1130.371226224142
 20
4794.879977512222
 11
1131.328176381852
 21
4792.039497260204
  0
LINE
  5
10D
100
AcDbEntity
  8
1
  6
CONTINUOUS
 62
           1
100
AcDbLine
 10
1132.13637303812
 20
4795.507223267961
 11
1133.48396228051
 21
4791.507223267961
  0
LINE
  5
10C
100
AcDbEntity
  8
1
  6
CONTINUOUS
 62
           1
100
AcDbLine
 10
1134.11283726029
 20
4795.507223267961
 11
1135.46042650268
 21
4791.507223267961
  0
LINE
  5
10B
100
AcDbEntity
  8
1
  6
CONTINUOUS
 62
           1
100
AcDbLine
 10
1136.08930148246
 20
4795.507223267961
 11
1137.43689072485
 21
4791.507223267961
  0
LINE
  5
10A
100
AcDbEntity
  8
1
  6
CONTINUOUS
 62
           1
100
AcDbLine
 10
1138.06576570463
 20
4795.507223267961
 11
1139.41335494702
 21
4791.507223267961
  0
LINE
  5
109
100
AcDbEntity
  8
1
  6
CONTINUOUS
 62
           1
100
AcDbLine
 10
1140.0422299268
 20
4795.507223267961
 11
1141.38981916919
 21
4791.507223267961
  0
LINE
  5
108
100
AcDbEntity
  8
1
  6
CONTINUOUS
 62
           1
100
AcDbLine
 10
1142.01869414897
 20
4795.507223267961
 11
1143.36628339136
 21
4791.507223267961
  0
LINE
  5
107
100
AcDbEntity
  8
1
  6
CONTINUOUS
 62
           1
100
AcDbLine
 10
1132.43583731419
 20
4792.207223267959
 11
1143.999811519772
 21
4792.207223267959
  0
LINE
  5
106
100
AcDbEntity
  8
1
  6
CONTINUOUS
 62
           1
100
AcDbLine
 10
1127.999811519772
 20
4793.50722326796
 11
1132.43583731419
 21
4792.207223267959
  0
LINE
  5
105
100
AcDbEntity
  8
1
  6
CONTINUOUS
 62
           1
100
AcDbLine
 10
1132.43583731419
 20
4794.807223267962
 11
1127.999811519772
 21
4793.50722326796
  0
LINE
  5
104
100
AcDbEntity
  8
1
  6
CONTINUOUS
 62
           1
100
AcDbLine
 10
1143.999811519772
 20
4794.807223267962
 11
1132.43583731419
 21
4794.807223267962
  0
LINE
  5
103
100
AcDbEntity
  8
1
  6
DOTTED
 62
           1
100
AcDbLine
 10
1143.999811519772
 20
4789.507223267961
 11
1144.499811519772
 21
4789.507223267961
  0
LINE
  5
102
100
AcDbEntity
  8
1
  6
DOTTED
 62
           1
100
AcDbLine
 10
1144.499811519772
 20
4797.507223267963
 11
1143.999811519772
 21
4797.507223267961
  0
LINE
  5
101
100
AcDbEntity
  8
1
  6
DOT_CENTER
 62
           1
100
AcDbLine
 10
1187.999811519772
 20
4852.560512634083
 11
1187.999811519772
 21
4824.080512634084
  0
LINE
  5
100
100
AcDbEntity
  8
1
  6
DOT_CENTER
 62
           1
100
AcDbLine
 10
1246.499811519772
 20
4852.560512634083
 11
1246.499811519772
 21
4824.080512634084
  0
LINE
  5
FF
100
AcDbEntity
  8
1
  6
DOT_CENTER
 62
           1
100
AcDbLine
 10
1383.499811519772
 20
4852.560512634083
 11
1383.499811519772
 21
4824.080512634084
  0
LINE
  5
FE
100
AcDbEntity
  8
1
  6
CONTINUOUS
 62
           1
100
AcDbLine
 10
1384.872565764035
 20
4845.135808563591
 11
1382.032085512018
 21
4844.178858405881
  0
LINE
  5
FD
100
AcDbEntity
  8
1
  6
CONTINUOUS
 62
           1
100
AcDbLine
 10
1385.499811519774
 20
4843.370661749614
 11
1381.499811519774
 21
4842.023072507223
  0
LINE
  5
FC
100
AcDbEntity
  8
1
  6
CONTINUOUS
 62
           1
100
AcDbLine
 10
1385.499811519774
 20
4841.394197527444
 11
1381.499811519774
 21
4840.046608285054
  0
LINE
  5
FB
100
AcDbEntity
  8
1
  6
CONTINUOUS
 62
           1
100
AcDbLine
 10
1385.499811519774
 20
4839.417733305274
 11
1381.499811519774
 21
4838.070144062884
  0
LINE
  5
FA
100
AcDbEntity
  8
1
  6
CONTINUOUS
 62
           1
100
AcDbLine
 10
1385.499811519774
 20
4837.441269083103
 11
1381.499811519774
 21
4836.093679840714
  0
LINE
  5
F9
100
AcDbEntity
  8
1
  6
CONTINUOUS
 62
           1
100
AcDbLine
 10
1385.499811519774
 20
4835.464804860933
 11
1381.499811519774
 21
4834.117215618544
  0
LINE
  5
F8
100
AcDbEntity
  8
1
  6
CONTINUOUS
 62
           1
100
AcDbLine
 10
1385.499811519774
 20
4833.488340638764
 11
1381.499811519774
 21
4832.140751396373
  0
LINE
  5
F7
100
AcDbEntity
  8
1
  6
CONTINUOUS
 62
           1
100
AcDbLine
 10
1382.199811519772
 20
4843.071197473543
 11
1382.199811519772
 21
4831.507223267961
  0
LINE
  5
F6
100
AcDbEntity
  8
1
  6
CONTINUOUS
 62
           1
100
AcDbLine
 10
1383.499811519774
 20
4847.507223267961
 11
1382.199811519772
 21
4843.071197473543
  0
LINE
  5
F5
100
AcDbEntity
  8
1
  6
CONTINUOUS
 62
           1
100
AcDbLine
 10
1384.799811519775
 20
4843.071197473543
 11
1383.499811519774
 21
4847.507223267961
  0
LINE
  5
F4
100
AcDbEntity
  8
1
  6
CONTINUOUS
 62
           1
100
AcDbLine
 10
1384.799811519775
 20
4831.507223267961
 11
1384.799811519775
 21
4843.071197473543
  0
LINE
  5
F3
100
AcDbEntity
  8
1
  6
DOTTED
 62
           1
100
AcDbLine
 10
1379.499811519774
 20
4831.507223267961
 11
1379.499811519774
 21
4831.007223267961
  0
LINE
  5
F2
100
AcDbEntity
  8
1
  6
DOTTED
 62
           1
100
AcDbLine
 10
1387.499811519776
 20
4831.007223267961
 11
1387.499811519775
 21
4831.507223267962
  0
LINE
  5
F1
100
AcDbEntity
  8
1
  6
CONTINUOUS
 62
           1
100
AcDbLine
 10
1247.872565764035
 20
4845.135808563591
 11
1245.032085512017
 21
4844.178858405881
  0
LINE
  5
F0
100
AcDbEntity
  8
1
  6
CONTINUOUS
 62
           1
100
AcDbLine
 10
1248.499811519774
 20
4843.370661749614
 11
1244.499811519774
 21
4842.023072507223
  0
LINE
  5
EF
100
AcDbEntity
  8
1
  6
CONTINUOUS
 62
           1
100
AcDbLine
 10
1248.499811519774
 20
4841.394197527444
 11
1244.499811519774
 21
4840.046608285054
  0
LINE
  5
EE
100
AcDbEntity
  8
1
  6
CONTINUOUS
 62
           1
100
AcDbLine
 10
1248.499811519774
 20
4839.417733305274
 11
1244.499811519774
 21
4838.070144062884
  0
LINE
  5
ED
100
AcDbEntity
  8
1
  6
CONTINUOUS
 62
           1
100
AcDbLine
 10
1248.499811519774
 20
4837.441269083103
 11
1244.499811519774
 21
4836.093679840714
  0
LINE
  5
EC
100
AcDbEntity
  8
1
  6
CONTINUOUS
 62
           1
100
AcDbLine
 10
1248.499811519774
 20
4835.464804860933
 11
1244.499811519774
 21
4834.117215618544
  0
LINE
  5
EB
100
AcDbEntity
  8
1
  6
CONTINUOUS
 62
           1
100
AcDbLine
 10
1248.499811519774
 20
4833.488340638764
 11
1244.499811519774
 21
4832.140751396373
  0
LINE
  5
EA
100
AcDbEntity
  8
1
  6
CONTINUOUS
 62
           1
100
AcDbLine
 10
1245.199811519772
 20
4843.071197473543
 11
1245.199811519772
 21
4831.507223267961
  0
LINE
  5
E9
100
AcDbEntity
  8
1
  6
CONTINUOUS
 62
           1
100
AcDbLine
 10
1246.499811519772
 20
4847.507223267961
 11
1245.199811519772
 21
4843.071197473543
  0
LINE
  5
E8
100
AcDbEntity
  8
1
  6
CONTINUOUS
 62
           1
100
AcDbLine
 10
1247.799811519774
 20
4843.071197473543
 11
1246.499811519774
 21
4847.507223267961
  0
LINE
  5
E7
100
AcDbEntity
  8
1
  6
CONTINUOUS
 62
           1
100
AcDbLine
 10
1247.799811519774
 20
4831.507223267961
 11
1247.799811519774
 21
4843.071197473543
  0
LINE
  5
E6
100
AcDbEntity
  8
1
  6
DOTTED
 62
           1
100
AcDbLine
 10
1242.499811519774
 20
4831.507223267961
 11
1242.499811519774
 21
4831.007223267961
  0
LINE
  5
E5
100
AcDbEntity
  8
1
  6
DOTTED
 62
           1
100
AcDbLine
 10
1250.499811519776
 20
4831.007223267961
 11
1250.499811519774
 21
4831.507223267962
  0
LINE
  5
E4
100
AcDbEntity
  8
1
  6
CONTINUOUS
 62
           1
100
AcDbLine
 10
1189.372565764035
 20
4845.135808563591
 11
1186.532085512017
 21
4844.178858405881
  0
LINE
  5
E3
100
AcDbEntity
  8
1
  6
CONTINUOUS
 62
           1
100
AcDbLine
 10
1189.999811519774
 20
4843.370661749614
 11
1185.999811519774
 21
4842.023072507223
  0
LINE
  5
E2
100
AcDbEntity
  8
1
  6
CONTINUOUS
 62
           1
100
AcDbLine
 10
1189.999811519774
 20
4841.394197527444
 11
1185.999811519774
 21
4840.046608285054
  0
LINE
  5
E1
100
AcDbEntity
  8
1
  6
CONTINUOUS
 62
           1
100
AcDbLine
 10
1189.999811519774
 20
4839.417733305274
 11
1185.999811519774
 21
4838.070144062884
  0
LINE
  5
E0
100
AcDbEntity
  8
1
  6
CONTINUOUS
 62
           1
100
AcDbLine
 10
1189.999811519774
 20
4837.441269083103
 11
1185.999811519774
 21
4836.093679840714
  0
LINE
  5
DF
100
AcDbEntity
  8
1
  6
CONTINUOUS
 62
           1
100
AcDbLine
 10
1189.999811519774
 20
4835.464804860933
 11
1185.999811519774
 21
4834.117215618544
  0
LINE
  5
DE
100
AcDbEntity
  8
1
  6
CONTINUOUS
 62
           1
100
AcDbLine
 10
1189.999811519774
 20
4833.488340638764
 11
1185.999811519774
 21
4832.140751396373
  0
LINE
  5
DD
100
AcDbEntity
  8
1
  6
CONTINUOUS
 62
           1
100
AcDbLine
 10
1186.699811519772
 20
4843.071197473543
 11
1186.699811519772
 21
4831.507223267961
  0
LINE
  5
DC
100
AcDbEntity
  8
1
  6
CONTINUOUS
 62
           1
100
AcDbLine
 10
1187.999811519772
 20
4847.507223267961
 11
1186.699811519772
 21
4843.071197473543
  0
LINE
  5
DB
100
AcDbEntity
  8
1
  6
CONTINUOUS
 62
           1
100
AcDbLine
 10
1189.299811519774
 20
4843.071197473543
 11
1187.999811519774
 21
4847.507223267961
  0
LINE
  5
DA
100
AcDbEntity
  8
1
  6
CONTINUOUS
 62
           1
100
AcDbLine
 10
1189.299811519774
 20
4831.507223267961
 11
1189.299811519774
 21
4843.071197473543
  0
LINE
  5
D9
100
AcDbEntity
  8
1
  6
DOTTED
 62
           1
100
AcDbLine
 10
1183.999811519774
 20
4831.507223267961
 11
1183.999811519774
 21
4831.007223267961
  0
LINE
  5
D8
100
AcDbEntity
  8
1
  6
DOTTED
 62
           1
100
AcDbLine
 10
1191.999811519776
 20
4831.007223267961
 11
1191.999811519774
 21
4831.507223267962
  0
LINE
  5
D7
100
AcDbEntity
  8
1
  6
DOTTED
 62
           1
100
AcDbLine
 10
1144.999811519772
 20
4831.507223267961
 11
1392.499811519772
 21
4831.507223267961
  0
LINE
  5
D6
100
AcDbEntity
  8
0
  6
CONTINUOUS
 62
           3
100
AcDbLine
 10
1392.499811519772
 20
4833.007223267961
 11
1144.999811519772
 21
4833.007223267961
  0
LINE
  5
D5
100
AcDbEntity
  8
0
  6
CONTINUOUS
 62
           3
100
AcDbLine
 10
1144.999811519772
 20
4833.007223267961
 11
1144.999811519772
 21
4831.507223267961
  0
LINE
  5
D4
100
AcDbEntity
  8
0
  6
CONTINUOUS
 62
           3
100
AcDbLine
 10
1392.499811519772
 20
4833.007223267961
 11
1392.499811519772
 21
4831.507223267961
  0
LINE
  5
D3
100
AcDbEntity
  8
0
  6
CONTINUOUS
 62
           3
100
AcDbLine
 10
1149.499811519772
 20
4921.17872581908
 11
1151.499811519772
 21
4920.17872581908
  0
LINE
  5
D2
100
AcDbEntity
  8
0
  6
CONTINUOUS
 62
           3
100
AcDbLine
 10
1157.499811519772
 20
4920.17872581908
 11
1159.499811519772
 21
4921.17872581908
  0
LINE
  5
D1
100
AcDbEntity
  8
0
  6
CONTINUOUS
 62
           3
100
AcDbLine
 10
1254.760499813172
 20
4921.17872581908
 11
1256.760499813172
 21
4920.17872581908
  0
LINE
  5
D0
100
AcDbEntity
  8
0
  6
CONTINUOUS
 62
           3
100
AcDbLine
 10
1262.760499813172
 20
4920.17872581908
 11
1264.760499813172
 21
4921.17872581908
  0
LINE
  5
CF
100
AcDbEntity
  8
0
  6
CONTINUOUS
 62
           3
100
AcDbLine
 10
1151.499811519772
 20
4920.17872581908
 11
1157.499811519772
 21
4920.17872581908
  0
LINE
  5
CE
100
AcDbEntity
  8
0
  6
CONTINUOUS
 62
           1
100
AcDbLine
 10
1149.499811519772
 20
4921.17872581908
 11
1159.499811519772
 21
4921.17872581908
  0
LINE
  5
CD
100
AcDbEntity
  8
0
  6
CONTINUOUS
 62
           1
100
AcDbLine
 10
1264.760499813172
 20
4921.17872581908
 11
1254.760499813172
 21
4921.17872581908
  0
LINE
  5
CC
100
AcDbEntity
  8
0
  6
CONTINUOUS
 62
           3
100
AcDbLine
 10
1259.760499813172
 20
4920.17872581908
 11
1256.760499813172
 21
4920.17872581908
  0
LINE
  5
CB
100
AcDbEntity
  8
0
  6
CONTINUOUS
 62
           3
100
AcDbLine
 10
1262.760499813172
 20
4920.17872581908
 11
1259.760499813172
 21
4920.17872581908
  0
LINE
  5
CA
100
AcDbEntity
  8
0
  6
CONTINUOUS
 62
           3
100
AcDbLine
 10
1269.175773011772
 20
4948.67872581908
 11
1262.260499813172
 21
4948.67872581908
  0
LINE
  5
C9
100
AcDbEntity
  8
0
  6
CONTINUOUS
 62
           3
100
AcDbLine
 10
1161.499811519772
 20
4946.87872581908
 11
1144.000872155172
 21
4946.87872581908
  0
LINE
  5
C8
100
AcDbEntity
  8
0
  6
CONTINUOUS
 62
           3
100
AcDbLine
 10
1392.499811519772
 20
4925.67872581908
 11
1155.999811519772
 21
4925.67872581908
  0
LINE
  5
C7
100
AcDbEntity
  8
0
  6
CONTINUOUS
 62
           3
100
AcDbLine
 10
1392.499811519772
 20
4946.67872581908
 11
1144.999811519772
 21
4946.67872581908
  0
LINE
  5
C6
100
AcDbEntity
  8
0
  6
CONTINUOUS
 62
           3
100
AcDbLine
 10
1155.999811519772
 20
4925.67872581908
 11
1150.999811519772
 21
4925.67872581908
  0
LINE
  5
C5
100
AcDbEntity
  8
0
  6
CONTINUOUS
 62
           3
100
AcDbLine
 10
1150.999811519772
 20
4925.67872581908
 11
1144.999811519772
 21
4925.67872581908
  0
LINE
  5
C4
100
AcDbEntity
  8
0
  6
CONTINUOUS
 62
           3
100
AcDbLine
 10
1155.999811519772
 20
4948.37872581908
 11
1155.999811519772
 21
4948.47872581908
  0
LINE
  5
C3
100
AcDbEntity
  8
0
  6
CONTINUOUS
 62
           3
100
AcDbLine
 10
1143.999811519772
 20
4948.37872581908
 11
1161.499811519772
 21
4948.37872581908
  0
LINE
  5
C2
100
AcDbEntity
  8
0
  6
CONTINUOUS
 62
           3
100
AcDbLine
 10
1144.000872155172
 20
4925.47872581908
 11
1161.499811519772
 21
4925.47872581908
  0
LINE
  5
C1
100
AcDbEntity
  8
0
  6
CONTINUOUS
 62
           3
100
AcDbLine
 10
1147.602644680972
 20
4923.67872581908
 11
1148.499811519772
 21
4923.67872581908
  0
LINE
  5
C0
100
AcDbEntity
  8
0
  6
CONTINUOUS
 62
           3
100
AcDbLine
 10
1158.499811519772
 20
4923.67872581908
 11
1234.668440920972
 21
4923.67872581908
  0
LINE
  5
BF
100
AcDbEntity
  8
0
  6
CONTINUOUS
 62
           3
100
AcDbLine
 10
1156.899811519772
 20
4922.17872581908
 11
1234.668440920972
 21
4922.17872581908
  0
LINE
  5
BE
100
AcDbEntity
  8
0
  6
CONTINUOUS
 62
           3
100
AcDbLine
 10
1158.499811519772
 20
4923.67872581908
 11
1158.499811519772
 21
4923.97872581908
  0
LINE
  5
BD
100
AcDbEntity
  8
0
  6
CONTINUOUS
 62
           3
100
AcDbLine
 10
1148.499811519772
 20
4923.67872581908
 11
1148.499811519772
 21
4922.97872581908
  0
LINE
  5
BC
100
AcDbEntity
  8
0
  6
CONTINUOUS
 62
           3
100
AcDbLine
 10
1150.099811519773
 20
4922.17872581908
 11
1150.499811519772
 21
4921.97872581908
  0
LINE
  5
BB
100
AcDbEntity
  8
0
  6
CONTINUOUS
 62
           3
100
AcDbLine
 10
1156.899811519772
 20
4922.17872581908
 11
1158.499811519772
 21
4922.97872581908
  0
LINE
  5
BA
100
AcDbEntity
  8
1
  6
CONTINUOUS
 62
           3
100
AcDbLine
 10
1150.499811519772
 20
4950.47872581908
 11
1156.499811519772
 21
4950.47872581908
  0
LINE
  5
B9
100
AcDbEntity
  8
0
  6
CONTINUOUS
 62
           3
100
AcDbLine
 10
1157.099811519773
 20
4950.17872581908
 11
1234.668440920972
 21
4950.17872581908
  0
LINE
  5
B8
100
AcDbEntity
  8
0
  6
CONTINUOUS
 62
           3
100
AcDbLine
 10
1149.899811519772
 20
4950.17872581908
 11
1148.499811519772
 21
4949.47872581908
  0
LINE
  5
B7
100
AcDbEntity
  8
0
  6
CONTINUOUS
 62
           3
100
AcDbLine
 10
1157.099811519773
 20
4950.17872581908
 11
1156.499811519772
 21
4950.47872581908
  0
LINE
  5
B6
100
AcDbEntity
  8
0
  6
CONTINUOUS
 62
           3
100
AcDbLine
 10
1234.668440920972
 20
4950.17872581908
 11
1269.175773011772
 21
4950.17872581908
  0
LINE
  5
B5
100
AcDbEntity
  8
0
  6
CONTINUOUS
 62
           3
100
AcDbLine
 10
1234.668440920972
 20
4948.67872581908
 11
1158.499811519772
 21
4948.67872581908
  0
LINE
  5
B4
100
AcDbEntity
  8
0
  6
CONTINUOUS
 62
           3
100
AcDbLine
 10
1234.668440920972
 20
4923.67872581908
 11
1269.175773011772
 21
4923.67872581908
  0
LINE
  5
B3
100
AcDbEntity
  8
0
  6
CONTINUOUS
 62
           3
100
AcDbLine
 10
1234.668440920972
 20
4922.17872581908
 11
1269.175773011772
 21
4922.17872581908
  0
LINE
  5
B2
100
AcDbEntity
  8
1
  6
CONTINUOUS
 62
           3
100
AcDbLine
 10
1255.260499813172
 20
4923.77872581908
 11
1264.260499813172
 21
4923.77872581908
  0
LINE
  5
B1
100
AcDbEntity
  8
0
  6
CONTINUOUS
 62
           3
100
AcDbLine
 10
1262.260499813172
 20
4948.67872581908
 11
1257.260499813172
 21
4948.67872581908
  0
LINE
  5
B0
100
AcDbEntity
  8
0
  6
CONTINUOUS
 62
           3
100
AcDbLine
 10
1257.260499813172
 20
4948.67872581908
 11
1234.668440920972
 21
4948.67872581908
  0
LINE
  5
AF
100
AcDbEntity
  8
0
  6
CONTINUOUS
 62
           3
100
AcDbLine
 10
1257.260499813172
 20
4923.778725819078
 11
1257.260499813172
 21
4923.67872581908
  0
LINE
  5
AE
100
AcDbEntity
  8
0
  6
CONTINUOUS
 62
           3
100
AcDbLine
 10
1262.260499813172
 20
4923.67872581908
 11
1262.260499813172
 21
4923.778725819078
  0
LINE
  5
AD
100
AcDbEntity
  8
1
  6
DOT_CENTER
 62
           1
100
AcDbLine
 10
1259.760499813172
 20
4955.910011009661
 11
1259.760499813172
 21
4916.660011009661
  0
LINE
  5
AC
100
AcDbEntity
  8
1
  6
DOT_CENTER
 62
           1
100
AcDbLine
 10
1154.499811519772
 20
4955.55240929748
 11
1154.499811519772
 21
4916.31240929748
  0
LINE
  5
AB
100
AcDbEntity
  8
1
  6
DOT_CENTER
 62
           1
100
AcDbLine
 10
1153.499811519772
 20
4953.25239329795
 11
1153.499811519772
 21
4917.40239329795
  0
LINE
  5
AA
100
AcDbEntity
  8
1
  6
DOT_CENTER
 62
           1
100
AcDbLine
 10
1118.70491960096
 20
4936.17872581908
 11
1403.4663766728
 21
4936.17872581908
  0
LINE
  5
A9
100
AcDbEntity
  8
1
  6
DOT_CENTER
 62
           1
100
AcDbLine
 10
1174.999811519772
 20
4944.35849411124
 11
1174.999811519772
 21
4927.80849411124
  0
LINE
  5
A8
100
AcDbEntity
  8
1
  6
DOT_CENTER
 62
           1
100
AcDbLine
 10
1187.999811519772
 20
4944.26281567812
 11
1187.999811519772
 21
4928.38281567812
  0
LINE
  5
A7
100
AcDbEntity
  8
1
  6
DOT_CENTER
 62
           1
100
AcDbLine
 10
1246.499811519772
 20
4944.07145881189
 11
1246.499811519772
 21
4928.28145881189
  0
LINE
  5
A6
100
AcDbEntity
  8
1
  6
DOT_CENTER
 62
           1
100
AcDbLine
 10
1383.499811519772
 20
4944.734803139841
 11
1383.499811519772
 21
4928.004803139841
  0
LINE
  5
A5
100
AcDbEntity
  8
1
  6
DOT_CENTER
 62
           1
100
AcDbLine
 10
1310.499811519772
 20
4951.02902405018
 11
1310.499811519772
 21
4920.93902405018
  0
LINE
  5
A4
100
AcDbEntity
  8
1
  6
CONTINUOUS
 62
           1
100
AcDbLine
 10
1383.499811519772
 20
4939.77872581908
 11
1392.739811519772
 21
4939.77872581908
  0
LINE
  5
A3
100
AcDbEntity
  8
1
  6
CONTINUOUS
 62
           1
100
AcDbLine
 10
1383.499811519772
 20
4932.578725819079
 11
1392.739811519772
 21
4932.578725819079
  0
LINE
  5
A2
100
AcDbEntity
  8
0
  6
CONTINUOUS
 62
           3
100
AcDbLine
 10
1438.834170517452
 20
4819.507223267961
 11
1438.834170517453
 21
4828.507222725961
  0
LINE
  5
A1
100
AcDbEntity
  8
0
  6
CONTINUOUS
 62
           3
100
AcDbLine
 10
1463.734170517453
 20
4826.507223267961
 11
1463.734170517453
 21
4822.172260221561
  0
LINE
  5
A0
100
AcDbEntity
  8
0
  6
CONTINUOUS
 62
           3
100
AcDbLine
 10
1463.734170517453
 20
4821.507223267961
 11
1463.734170517453
 21
4822.172260221561
  0
LINE
  5
9F
100
AcDbEntity
  8
0
  6
CONTINUOUS
 62
           3
100
AcDbLine
 10
1463.734170517453
 20
4820.007223267961
 11
1463.734170517453
 21
4821.507223267961
  0
LINE
  5
9E
100
AcDbEntity
  8
0
  6
CONTINUOUS
 62
           3
100
AcDbLine
 10
1438.834170517453
 20
4826.507223267961
 11
1438.734170517452
 21
4826.507223267961
  0
LINE
  5
9D
100
AcDbEntity
  8
0
  6
CONTINUOUS
 62
           3
100
AcDbLine
 10
1438.734170517453
 20
4822.172260221561
 11
1438.734170517452
 21
4821.507223267961
  0
LINE
  5
9C
100
AcDbEntity
  8
0
  6
CONTINUOUS
 62
           3
100
AcDbLine
 10
1438.734170517452
 20
4821.507223267961
 11
1438.834170517453
 21
4821.507223267961
  0
LINE
  5
9B
100
AcDbEntity
  8
0
  6
CONTINUOUS
 62
           3
100
AcDbLine
 10
1438.834170517453
 20
4820.007223267961
 11
1438.734170517452
 21
4820.007223267961
  0
LINE
  5
9A
100
AcDbEntity
  8
0
  6
CONTINUOUS
 62
           3
100
AcDbLine
 10
1442.484170517453
 20
4826.507223267961
 11
1442.234170517453
 21
4826.507223267961
  0
LINE
  5
99
100
AcDbEntity
  8
0
  6
CONTINUOUS
 62
           3
100
AcDbLine
 10
1442.484170517452
 20
4805.543340849961
 11
1442.484170517452
 21
4808.796912755161
  0
LINE
  5
98
100
AcDbEntity
  8
0
  6
CONTINUOUS
 62
           3
100
AcDbLine
 10
1442.484170517452
 20
4804.318740450761
 11
1442.484170517452
 21
4805.184090041761
  0
LINE
  5
97
100
AcDbEntity
  8
0
  6
CONTINUOUS
 62
           3
100
AcDbLine
 10
1442.484170517452
 20
4819.176499826761
 11
1442.484170517452
 21
4820.830773251961
  0
LINE
  5
96
100
AcDbEntity
  8
0
  6
CONTINUOUS
 62
           3
100
AcDbLine
 10
1442.484170517452
 20
4812.177565960761
 11
1442.484170517452
 21
4815.444144358162
  0
LINE
  5
95
100
AcDbEntity
  8
0
  6
CONTINUOUS
 62
           3
100
AcDbLine
 10
1442.484170517452
 20
4812.037946709161
 11
1442.484170517452
 21
4812.177565960761
  0
LINE
  5
94
100
AcDbEntity
  8
0
  6
CONTINUOUS
 62
           3
100
AcDbLine
 10
1459.984170517452
 20
4819.176499826761
 11
1459.984170517452
 21
4812.177565960761
  0
LINE
  5
93
100
AcDbEntity
  8
0
  6
CONTINUOUS
 62
           3
100
AcDbLine
 10
1459.984170517452
 20
4812.177565960761
 11
1459.984170517452
 21
4812.037946709161
  0
LINE
  5
92
100
AcDbEntity
  8
0
  6
CONTINUOUS
 62
           3
100
AcDbLine
 10
1459.984170517452
 20
4812.037946709161
 11
1459.984170517452
 21
4808.796912755161
  0
LINE
  5
91
100
AcDbEntity
  8
1
  6
DOT_CENTER
 62
           1
100
AcDbLine
 10
774.463474903805
 20
4953.25239329795
 11
774.463474903805
 21
4917.40239329795
  0
LINE
  5
90
100
AcDbEntity
  8
0
  6
CONTINUOUS
 62
           3
100
AcDbLine
 10
778.063474903806
 20
4950.17872581908
 11
777.463474903805
 21
4950.47872581908
  0
LINE
  5
8F
100
AcDbEntity
  8
0
  6
CONTINUOUS
 62
           3
100
AcDbLine
 10
770.863474903805
 20
4950.17872581908
 11
769.463474903805
 21
4949.47872581908
  0
LINE
  5
8E
100
AcDbEntity
  8
0
  6
CONTINUOUS
 62
           3
100
AcDbLine
 10
778.063474903806
 20
4950.17872581908
 11
782.463474903805
 21
4950.17872581908
  0
LINE
  5
8D
100
AcDbEntity
  8
1
  6
CONTINUOUS
 62
           3
100
AcDbLine
 10
771.463474903805
 20
4950.47872581908
 11
777.463474903805
 21
4950.47872581908
  0
LINE
  5
8C
100
AcDbEntity
  8
0
  6
CONTINUOUS
 62
           3
100
AcDbLine
 10
777.863474903805
 20
4922.17872581908
 11
779.463474903805
 21
4922.97872581908
  0
LINE
  5
8B
100
AcDbEntity
  8
0
  6
CONTINUOUS
 62
           3
100
AcDbLine
 10
771.063474903806
 20
4922.17872581908
 11
771.463474903805
 21
4921.97872581908
  0
LINE
  5
8A
100
AcDbEntity
  8
0
  6
CONTINUOUS
 62
           3
100
AcDbLine
 10
769.463474903805
 20
4923.67872581908
 11
769.463474903805
 21
4922.97872581908
  0
LINE
  5
89
100
AcDbEntity
  8
0
  6
CONTINUOUS
 62
           3
100
AcDbLine
 10
779.463474903805
 20
4923.67872581908
 11
779.463474903805
 21
4923.97872581908
  0
LINE
  5
88
100
AcDbEntity
  8
0
  6
CONTINUOUS
 62
           3
100
AcDbLine
 10
777.863474903805
 20
4922.17872581908
 11
789.462615629267
 21
4922.17872581908
  0
LINE
  5
87
100
AcDbEntity
  8
0
  6
CONTINUOUS
 62
           3
100
AcDbLine
 10
779.463474903805
 20
4923.67872581908
 11
789.462615629267
 21
4923.67872581908
  0
LINE
  5
86
100
AcDbEntity
  8
0
  6
CONTINUOUS
 62
           3
100
AcDbLine
 10
764.964535539205
 20
4923.67872581908
 11
769.463474903805
 21
4923.67872581908
  0
LINE
  5
85
100
AcDbEntity
  8
0
  6
CONTINUOUS
 62
           3
100
AcDbLine
 10
764.964535539205
 20
4925.47872581908
 11
782.463474903805
 21
4925.47872581908
  0
LINE
  5
84
100
AcDbEntity
  8
0
  6
CONTINUOUS
 62
           3
100
AcDbLine
 10
764.963474903805
 20
4948.37872581908
 11
764.964535539205
 21
4948.37872581908
  0
LINE
  5
83
100
AcDbEntity
  8
0
  6
CONTINUOUS
 62
           3
100
AcDbLine
 10
776.963474903805
 20
4948.37872581908
 11
776.963474903805
 21
4948.47872581908
  0
LINE
  5
82
100
AcDbEntity
  8
0
  6
CONTINUOUS
 62
           3
100
AcDbLine
 10
771.963474903805
 20
4925.67872581908
 11
765.963474903805
 21
4925.67872581908
  0
LINE
  5
81
100
AcDbEntity
  8
0
  6
CONTINUOUS
 62
           3
100
AcDbLine
 10
776.963474903805
 20
4925.67872581908
 11
771.963474903805
 21
4925.67872581908
  0
LINE
  5
80
100
AcDbEntity
  8
0
  6
CONTINUOUS
 62
           3
100
AcDbLine
 10
782.463474903805
 20
4946.87872581908
 11
764.964535539205
 21
4946.87872581908
  0
LINE
  5
7F
100
AcDbEntity
  8
0
  6
CONTINUOUS
 62
           1
100
AcDbLine
 10
770.463474903805
 20
4921.17872581908
 11
780.463474903805
 21
4921.17872581908
  0
LINE
  5
7E
100
AcDbEntity
  8
0
  6
CONTINUOUS
 62
           3
100
AcDbLine
 10
772.463474903805
 20
4920.17872581908
 11
778.463474903805
 21
4920.17872581908
  0
LINE
  5
7D
100
AcDbEntity
  8
0
  6
CONTINUOUS
 62
           3
100
AcDbLine
 10
778.463474903805
 20
4920.17872581908
 11
780.463474903805
 21
4921.17872581908
  0
LINE
  5
7C
100
AcDbEntity
  8
0
  6
CONTINUOUS
 62
           3
100
AcDbLine
 10
770.463474903805
 20
4921.17872581908
 11
772.463474903805
 21
4920.17872581908
  0
LINE
  5
7B
100
AcDbEntity
  8
0
  6
CONTINUOUS
 62
           3
100
AcDbLine
 10
779.463474903805
 20
4922.97872581908
 11
779.463474903805
 21
4923.67872581908
  0
LINE
  5
7A
100
AcDbEntity
  8
0
  6
CONTINUOUS
 62
           3
100
AcDbLine
 10
769.463474903805
 20
4923.97872581908
 11
769.463474903805
 21
4923.67872581908
  0
LINE
  5
79
100
AcDbEntity
  8
0
  6
CONTINUOUS
 62
           3
100
AcDbLine
 10
779.463474903805
 20
4949.47872581908
 11
778.063474903806
 21
4950.17872581908
  0
LINE
  5
78
100
AcDbEntity
  8
0
  6
CONTINUOUS
 62
           3
100
AcDbLine
 10
771.463474903805
 20
4950.47872581908
 11
770.863474903805
 21
4950.17872581908
  0
LINE
  5
77
100
AcDbEntity
  8
0
  6
CONTINUOUS
 62
           3
100
AcDbLine
 10
779.463474903805
 20
4948.47872581908
 11
779.463474903805
 21
4949.47872581908
  0
LINE
  5
76
100
AcDbEntity
  8
0
  6
CONTINUOUS
 62
           3
100
AcDbLine
 10
769.463474903805
 20
4949.47872581908
 11
769.463474903805
 21
4948.47872581908
  0
LINE
  5
75
100
AcDbEntity
  8
0
  6
CONTINUOUS
 62
           3
100
AcDbLine
 10
769.463474903805
 20
4922.97872581908
 11
771.063474903806
 21
4922.17872581908
  0
LINE
  5
74
100
AcDbEntity
  8
0
  6
CONTINUOUS
 62
           3
100
AcDbLine
 10
777.463474903805
 20
4921.97872581908
 11
777.863474903805
 21
4922.17872581908
  0
LINE
  5
73
100
AcDbEntity
  8
0
  6
CONTINUOUS
 62
           3
100
AcDbLine
 10
776.963474903805
 20
4925.47872581908
 11
776.963474903805
 21
4925.67872581908
  0
LINE
  5
72
100
AcDbEntity
  8
0
  6
CONTINUOUS
 62
           3
100
AcDbLine
 10
771.963474903805
 20
4948.47872581908
 11
771.963474903805
 21
4948.37872581908
  0
LINE
  5
71
100
AcDbEntity
  8
0
  6
CONTINUOUS
 62
           3
100
AcDbLine
 10
771.963474903805
 20
4925.67872581908
 11
771.963474903805
 21
4925.47872581908
  0
LINE
  5
70
100
AcDbEntity
  8
0
  6
CONTINUOUS
 62
           3
100
AcDbLine
 10
770.463474903805
 20
4951.17872581908
 11
770.463474903805
 21
4950.17872581908
  0
LINE
  5
6F
100
AcDbEntity
  8
0
  6
CONTINUOUS
 62
           3
100
AcDbLine
 10
780.463474903805
 20
4950.17872581908
 11
780.463474903805
 21
4951.17872581908
  0
LINE
  5
6E
100
AcDbEntity
  8
0
  6
CONTINUOUS
 62
           3
100
AcDbLine
 10
780.463474903805
 20
4951.17872581908
 11
778.463474903805
 21
4952.17872581908
  0
LINE
  5
6D
100
AcDbEntity
  8
0
  6
CONTINUOUS
 62
           3
100
AcDbLine
 10
772.463474903805
 20
4952.17872581908
 11
770.463474903805
 21
4951.17872581908
  0
LINE
  5
6C
100
AcDbEntity
  8
0
  6
CONTINUOUS
 62
           3
100
AcDbLine
 10
770.463474903805
 20
4922.17872581908
 11
770.463474903805
 21
4921.17872581908
  0
LINE
  5
6B
100
AcDbEntity
  8
0
  6
CONTINUOUS
 62
           3
100
AcDbLine
 10
780.463474903805
 20
4921.17872581908
 11
780.463474903805
 21
4922.17872581908
  0
LINE
  5
6A
100
AcDbEntity
  8
0
  6
CONTINUOUS
 62
           3
100
AcDbLine
 10
768.566308065005
 20
4923.67872581908
 11
768.566308065005
 21
4922.17872581908
  0
LINE
  5
69
100
AcDbEntity
  8
0
  6
CONTINUOUS
 62
           3
100
AcDbLine
 10
768.566308065005
 20
4950.17872581908
 11
768.566308065005
 21
4948.67872581908
  0
LINE
  5
68
100
AcDbEntity
  8
0
  6
CONTINUOUS
 62
           1
100
AcDbLine
 10
779.463474903805
 20
4922.97872581908
 11
769.463474903805
 21
4922.97872581908
  0
LINE
  5
67
100
AcDbEntity
  8
0
  6
CONTINUOUS
 62
           1
100
AcDbLine
 10
779.463474903805
 20
4949.47872581908
 11
769.463474903805
 21
4949.47872581908
  0
LINE
  5
66
100
AcDbEntity
  8
0
  6
CONTINUOUS
 62
           3
100
AcDbLine
 10
779.463474903805
 20
4948.47872581908
 11
769.463474903805
 21
4948.47872581908
  0
LINE
  5
65
100
AcDbEntity
  8
0
  6
CONTINUOUS
 62
           3
100
AcDbLine
 10
777.463474903805
 20
4921.97872581908
 11
771.463474903805
 21
4921.97872581908
  0
LINE
  5
64
100
AcDbEntity
  8
0
  6
CONTINUOUS
 62
           1
100
AcDbLine
 10
770.463474903805
 20
4951.17872581908
 11
780.463474903805
 21
4951.17872581908
  0
LINE
  5
63
100
AcDbEntity
  8
0
  6
CONTINUOUS
 62
           3
100
AcDbLine
 10
772.463474903805
 20
4952.17872581908
 11
778.463474903805
 21
4952.17872581908
  0
LINE
  5
62
100
AcDbEntity
  8
0
  6
CONTINUOUS
 62
           3
100
AcDbLine
 10
764.963474903805
 20
4922.17872581908
 11
771.063474903806
 21
4922.17872581908
  0
LINE
  5
61
100
AcDbEntity
  8
0
  6
CONTINUOUS
 62
           3
100
AcDbLine
 10
769.463474903805
 20
4948.67872581908
 11
764.964535539205
 21
4948.67872581908
  0
LINE
  5
60
100
AcDbEntity
  8
0
  6
CONTINUOUS
 62
           3
100
AcDbLine
 10
764.963474903805
 20
4950.17872581908
 11
770.863474903805
 21
4950.17872581908
  0
LINE
  5
5F
100
AcDbEntity
  8
0
  6
CONTINUOUS
 62
           3
100
AcDbLine
 10
765.963474903805
 20
4946.67872581908
 11
765.963474903805
 21
4945.17872581908
  0
LINE
  5
5E
100
AcDbEntity
  8
0
  6
CONTINUOUS
 62
           3
100
AcDbLine
 10
782.463474903805
 20
4948.37872581908
 11
782.463474903805
 21
4946.87872581908
  0
LINE
  5
5D
100
AcDbEntity
  8
0
  6
CONTINUOUS
 62
           3
100
AcDbLine
 10
776.463474903805
 20
4923.97872581908
 11
764.964535539205
 21
4923.97872581908
  0
LINE
  5
5C
100
AcDbEntity
  8
0
  6
CONTINUOUS
 62
           3
100
AcDbLine
 10
764.964535539205
 20
4948.67872581908
 11
764.964535539205
 21
4948.37872581908
  0
LINE
  5
5B
100
AcDbEntity
  8
0
  6
CONTINUOUS
 62
           3
100
AcDbLine
 10
763.463474903805
 20
4923.67872581908
 11
763.463474903805
 21
4948.67872581908
  0
LINE
  5
5A
100
AcDbEntity
  8
0
  6
CONTINUOUS
 62
           3
100
AcDbLine
 10
782.463474903805
 20
4925.47872581908
 11
782.463474903805
 21
4923.97872581908
  0
LINE
  5
59
100
AcDbEntity
  8
0
  6
CONTINUOUS
 62
           3
100
AcDbLine
 10
782.463474903805
 20
4923.97872581908
 11
776.463474903805
 21
4923.97872581908
  0
LINE
  5
58
100
AcDbEntity
  8
1
  6
DOT_CENTER
 62
           1
100
AcDbLine
 10
752.622486613481
 20
4936.17872581908
 11
800.568479526547
 21
4936.17872581908
  0
LINE
  5
57
100
AcDbEntity
  8
1
  6
CONTINUOUS
 62
           3
100
AcDbLine
 10
792.463474903805
 20
4945.17872581908
 11
792.463474903805
 21
4927.17872581908
  0
LINE
  5
56
100
AcDbEntity
  8
0
  6
CONTINUOUS
 62
           3
100
AcDbLine
 10
790.963474903805
 20
4946.67872581908
 11
765.963474903805
 21
4946.67872581908
  0
LINE
  5
55
100
AcDbEntity
  8
0
  6
CONTINUOUS
 62
           3
100
AcDbLine
 10
790.963474903805
 20
4925.67872581908
 11
782.463474903805
 21
4925.67872581908
  0
LINE
  5
54
100
AcDbEntity
  8
1
  6
CONTINUOUS
 62
           3
100
AcDbLine
 10
765.963474903805
 20
4945.17872581908
 11
771.963474903805
 21
4945.17872581908
  0
LINE
  5
53
100
AcDbEntity
  8
1
  6
CONTINUOUS
 62
           3
100
AcDbLine
 10
790.963474903805
 20
4945.17872581908
 11
790.963474903805
 21
4927.17872581908
  0
LINE
  5
52
100
AcDbEntity
  8
1
  6
CONTINUOUS
 62
           3
100
AcDbLine
 10
790.963474903805
 20
4927.17872581908
 11
782.463474903805
 21
4927.17872581908
  0
LINE
  5
51
100
AcDbEntity
  8
0
  6
CONTINUOUS
 62
           3
100
AcDbLine
 10
765.963474903805
 20
4927.17872581908
 11
765.963474903805
 21
4925.67872581908
  0
LINE
  5
50
100
AcDbEntity
  8
0
  6
CONTINUOUS
 62
           3
100
AcDbLine
 10
764.964535539205
 20
4946.87872581908
 11
764.964535539205
 21
4925.47872581908
  0
LINE
  5
4F
100
AcDbEntity
  8
0
  6
CONTINUOUS
 62
           3
100
AcDbLine
 10
764.964535539205
 20
4923.97872581908
 11
764.964535539205
 21
4923.67872581908
  0
LINE
  5
4E
100
AcDbEntity
  8
0
  6
CONTINUOUS
 62
           3
100
AcDbLine
 10
764.964535539205
 20
4948.37872581908
 11
782.463474903805
 21
4948.37872581908
  0
LINE
  5
4D
100
AcDbEntity
  8
0
  6
CONTINUOUS
 62
           3
100
AcDbLine
 10
764.964535539205
 20
4923.97872581908
 11
764.963474903805
 21
4923.97872581908
  0
LINE
  5
4C
100
AcDbEntity
  8
1
  6
CONTINUOUS
 62
           3
100
AcDbLine
 10
789.462615629267
 20
4950.17872581908
 11
789.462615629267
 21
4948.67872581908
  0
LINE
  5
4B
100
AcDbEntity
  8
0
  6
CONTINUOUS
 62
           3
100
AcDbLine
 10
789.462615629267
 20
4948.67872581908
 11
782.463474903805
 21
4948.67872581908
  0
LINE
  5
4A
100
AcDbEntity
  8
1
  6
CONTINUOUS
 62
           3
100
AcDbLine
 10
789.462615629267
 20
4923.67872581908
 11
789.462615629267
 21
4922.17872581908
  0
LINE
  5
49
100
AcDbEntity
  8
1
  6
CONTINUOUS
 62
           3
100
AcDbLine
 10
771.963474903805
 20
4945.17872581908
 11
771.963474903805
 21
4927.17872581908
  0
LINE
  5
48
100
AcDbEntity
  8
1
  6
CONTINUOUS
 62
           3
100
AcDbLine
 10
771.963474903805
 20
4945.17872581908
 11
776.963474903805
 21
4945.17872581908
  0
LINE
  5
47
100
AcDbEntity
  8
1
  6
CONTINUOUS
 62
           3
100
AcDbLine
 10
771.963474903805
 20
4927.17872581908
 11
765.963474903805
 21
4927.17872581908
  0
LINE
  5
46
100
AcDbEntity
  8
1
  6
CONTINUOUS
 62
           3
100
AcDbLine
 10
776.963474903805
 20
4945.17872581908
 11
776.963474903805
 21
4927.17872581908
  0
LINE
  5
45
100
AcDbEntity
  8
1
  6
CONTINUOUS
 62
           3
100
AcDbLine
 10
776.963474903805
 20
4927.17872581908
 11
771.963474903805
 21
4927.17872581908
  0
LINE
  5
44
100
AcDbEntity
  8
1
  6
CONTINUOUS
 62
           3
100
AcDbLine
 10
776.963474903805
 20
4945.17872581908
 11
790.963474903805
 21
4945.17872581908
  0
LINE
  5
43
100
AcDbEntity
  8
1
  6
CONTINUOUS
 62
           3
100
AcDbLine
 10
782.463474903805
 20
4950.17872581908
 11
782.463474903805
 21
4948.67872581908
  0
LINE
  5
42
100
AcDbEntity
  8
0
  6
CONTINUOUS
 62
           3
100
AcDbLine
 10
782.463474903805
 20
4950.17872581908
 11
789.462615629267
 21
4950.17872581908
  0
LINE
  5
41
100
AcDbEntity
  8
0
  6
CONTINUOUS
 62
           3
100
AcDbLine
 10
782.463474903805
 20
4948.67872581908
 11
779.463474903805
 21
4948.67872581908
  0
LINE
  5
40
100
AcDbEntity
  8
1
  6
CONTINUOUS
 62
           3
100
AcDbLine
 10
782.463474903805
 20
4927.17872581908
 11
782.463474903805
 21
4925.67872581908
  0
LINE
  5
3F
100
AcDbEntity
  8
0
  6
CONTINUOUS
 62
           3
100
AcDbLine
 10
782.463474903805
 20
4925.67872581908
 11
776.963474903805
 21
4925.67872581908
  0
LINE
  5
3E
100
AcDbEntity
  8
1
  6
CONTINUOUS
 62
           3
100
AcDbLine
 10
782.463474903805
 20
4927.17872581908
 11
776.963474903805
 21
4927.17872581908
  0
POINT
  5
3D
100
AcDbEntity
  8
0
 62
           3
100
AcDbPoint
 10
763.463474903805
 20
4708.507223267961
  0
POINT
  5
3C
100
AcDbEntity
  8
0
 62
           3
100
AcDbPoint
 10
792.463474903805
 20
4576.007223267961
  0
POINT
  5
3B
100
AcDbEntity
  8
0
 62
           3
100
AcDbPoint
 10
772.463474903805
 20
4576.007223267961
  0
POINT
  5
3A
100
AcDbEntity
  8
0
 62
           3
100
AcDbPoint
 10
763.463474903805
 20
4823.507223267961
  0
POINT
  5
39
100
AcDbEntity
  8
0
 62
           3
100
AcDbPoint
 10
1033.523570463222
 20
4793.507223267961
  0
POINT
  5
38
100
AcDbEntity
  8
0
 62
           3
100
AcDbPoint
 10
1033.523570463222
 20
4724.507223267961
  0
POINT
  5
37
100
AcDbEntity
  8
0
 62
           3
100
AcDbPoint
 10
1035.523570463222
 20
4724.507223267961
  0
POINT
  5
36
100
AcDbEntity
  8
0
 62
           3
100
AcDbPoint
 10
1022.323570463223
 20
4708.507223267961
  0
POINT
  5
35
100
AcDbEntity
  8
0
 62
           3
100
AcDbPoint
 10
1142.499811519772
 20
4823.507223267961
  0
POINT
  5
34
100
AcDbEntity
  8
0
 62
           3
100
AcDbPoint
 10
1143.999811519772
 20
4708.507223267961
  0
POINT
  5
33
100
AcDbEntity
  8
0
 62
           3
100
AcDbPoint
 10
1142.499811519772
 20
4823.507223267961
  0
POINT
  5
32
100
AcDbEntity
  8
0
 62
           3
100
AcDbPoint
 10
1142.499811519772
 20
4708.507223267961
  0
POINT
  5
31
100
AcDbEntity
  8
0
 62
           3
100
AcDbPoint
 10
868.531009312497
 20
4780.507223267961
  0
POINT
  5
30
100
AcDbEntity
  8
0
 62
           3
100
AcDbPoint
 10
868.531009312497
 20
4780.507223267961
  0
POINT
  5
2F
100
AcDbEntity
  8
0
 62
           3
100
AcDbPoint
 10
868.531009312497
 20
4722.007223267961
  0
POINT
  5
2E
100
AcDbEntity
  8
0
 62
           3
100
AcDbPoint
 10
868.531009312497
 20
4722.007223267961
  0
POINT
  5
2D
100
AcDbEntity
  8
0
 62
           3
100
AcDbPoint
 10
867.381009312497
 20
4585.007223267961
  0
POINT
  5
2C
100
AcDbEntity
  8
0
 62
           3
100
AcDbPoint
 10
858.031009312497
 20
4823.507223267961
  0
POINT
  5
2B
100
AcDbEntity
  8
0
 62
           3
100
AcDbPoint
 10
1144.999811519772
 20
4833.007223267961
  0
POINT
  5
2A
100
AcDbEntity
  8
0
 62
           3
100
AcDbPoint
 10
1144.999811519772
 20
4833.007223267961
  0
POINT
  5
29
100
AcDbEntity
  8
0
 62
           3
100
AcDbPoint
 10
1392.499811519772
 20
4833.007223267961
  0
POINT
  5
28
100
AcDbEntity
  8
0
 62
           3
100
AcDbPoint
 10
1392.499811519772
 20
4833.007223267961
  0
ENDSEC
  0
SECTION
  2
OBJECTS
  0
DICTIONARY
  5
19
100
AcDbDictionary
  3
ACAD_GROUP
350
1A
  3
ACAD_MLINESTYLE
350
1B
  0
DICTIONARY
  5
1A
102
{ACAD_REACTORS
330
19
102
}
100
AcDbDictionary
  0
DICTIONARY
  5
1B
102
{ACAD_REACTORS
330
19
102
}
100
AcDbDictionary
  3
STANDARD
350
1C
  0
MLINESTYLE
  5
1C
102
{ACAD_REACTORS
330
1B
102
}
100
AcDbMlineStyle
  2
STANDARD
 70
           0
  3

 62
           0
 51
90.0
 52
90.0
 71
           2
 49
0.5
 62
         256
  6
BYLAYER
 49
-0.5
 62
         256
  6
BYLAYER
  0
ENDSEC
  0
EOF
